  0
SECTION
  2
HEADER
  9
$ACADVER
  1
AC1009
  9
$DWGCODEPAGE
  3
dos932
  9
$INSBASE
 10
0.0
 20
0.0
 30
0.0
  9
$EXTMIN
 10
-464.96885532393389
 20
-483.85618951154902
 30
-0.0222204624169535
  9
$EXTMAX
 10
1151.0925410095281
 20
746.61255703146162
 30
0.0000005086054671
  9
$LIMMIN
 10
-2970.0
 20
-2100.0
  9
$LIMMAX
 10
2970.0
 20
2100.0
  9
$ORTHOMODE
 70
     1
  9
$REGENMODE
 70
     1
  9
$FILLMODE
 70
     1
  9
$QTEXTMODE
 70
     0
  9
$MIRRTEXT
 70
     0
  9
$LTSCALE
 40
20.0
  9
$ATTMODE
 70
     1
  9
$TEXTSIZE
 40
64.0
  9
$TRACEWID
 40
0.05
  9
$TEXTSTYLE
  7
STANDARD
  9
$CLAYER
  8
SIZE
  9
$CELTYPE
  6
CONTINUOUS
  9
$CECOLOR
 62
     7
  9
$DIMSCALE
 40
1.0
  9
$DIMASZ
 40
12.0
  9
$DIMEXO
 40
20.0
  9
$DIMDLI
 40
200.0
  9
$DIMRND
 40
0.0
  9
$DIMDLE
 40
0.0
  9
$DIMEXE
 40
20.0
  9
$DIMTP
 40
0.0
  9
$DIMTM
 40
0.0
  9
$DIMTXT
 40
64.0
  9
$DIMCEN
 40
0.09
  9
$DIMTSZ
 40
0.0
  9
$DIMTOL
 70
     0
  9
$DIMLIM
 70
     0
  9
$DIMTIH
 70
     0
  9
$DIMTOH
 70
     0
  9
$DIMSE1
 70
     0
  9
$DIMSE2
 70
     0
  9
$DIMTAD
 70
     1
  9
$DIMZIN
 70
     8
  9
$DIMBLK
  1

  9
$DIMASO
 70
     1
  9
$DIMSHO
 70
     0
  9
$DIMPOST
  1

  9
$DIMAPOST
  1

  9
$DIMALT
 70
     0
  9
$DIMALTD
 70
     2
  9
$DIMALTF
 40
25.399999999999999
  9
$DIMLFAC
 40
1.0
  9
$DIMTOFL
 70
     1
  9
$DIMTVP
 40
0.0
  9
$DIMTIX
 70
     1
  9
$DIMSOXD
 70
     0
  9
$DIMSAH
 70
     0
  9
$DIMBLK1
  1

  9
$DIMBLK2
  1

  9
$DIMSTYLE
  2
STANDARD
  9
$DIMCLRD
 70
     7
  9
$DIMCLRE
 70
     7
  9
$DIMCLRT
 70
     7
  9
$DIMTFAC
 40
1.0
  9
$DIMGAP
 40
25.0
  9
$LUNITS
 70
     2
  9
$LUPREC
 70
     4
  9
$SKETCHINC
 40
0.1
  9
$FILLETRAD
 40
3.0
  9
$AUNITS
 70
     1
  9
$AUPREC
 70
     3
  9
$MENU
  1
ACAD
  9
$ELEVATION
 40
0.0
  9
$PELEVATION
 40
0.0
  9
$THICKNESS
 40
0.0
  9
$LIMCHECK
 70
     0
  9
$CHAMFERA
 40
0.0
  9
$CHAMFERB
 40
0.0
  9
$SKPOLY
 70
     0
  9
$TDCREATE
 40
2453019.62301037
  9
$TDUPDATE
 40
2458949.456525787
  9
$TDINDWG
 40
1.7136502431
  9
$TDUSRTIMER
 40
1.7136502431
  9
$USRTIMER
 70
     1
  9
$ANGBASE
 50
0.0
  9
$ANGDIR
 70
     0
  9
$PDMODE
 70
     3
  9
$PDSIZE
 40
-2.0
  9
$PLINEWID
 40
0.0
  9
$SPLFRAME
 70
     0
  9
$SPLINETYPE
 70
     6
  9
$SPLINESEGS
 70
     8
  9
$SURFTAB1
 70
     6
  9
$SURFTAB2
 70
     6
  9
$SURFTYPE
 70
     6
  9
$SURFU
 70
     6
  9
$SURFV
 70
     6
  9
$UCSNAME
  2

  9
$UCSORG
 10
0.0
 20
0.0
 30
0.0
  9
$UCSXDIR
 10
1.0
 20
0.0
 30
0.0
  9
$UCSYDIR
 10
0.0
 20
1.0
 30
0.0
  9
$PUCSNAME
  2

  9
$PUCSORG
 10
0.0
 20
0.0
 30
0.0
  9
$PUCSXDIR
 10
1.0
 20
0.0
 30
0.0
  9
$PUCSYDIR
 10
0.0
 20
1.0
 30
0.0
  9
$USERI1
 70
     0
  9
$USERI2
 70
     0
  9
$USERI3
 70
     0
  9
$USERI4
 70
     0
  9
$USERI5
 70
     0
  9
$USERR1
 40
20.0
  9
$USERR2
 40
0.0
  9
$USERR3
 40
0.0
  9
$USERR4
 40
0.0
  9
$USERR5
 40
0.0
  9
$WORLDVIEW
 70
     1
  9
$SHADEDGE
 70
     3
  9
$SHADEDIF
 70
    70
  9
$TILEMODE
 70
     1
  9
$MAXACTVP
 70
    48
  9
$PINSBASE
 10
0.0
 20
0.0
 30
0.0
  9
$PLIMCHECK
 70
     0
  9
$PEXTMIN
 10
-100000000000000000000.0
 20
-100000000000000000000.0
 30
-100000000000000000000.0
  9
$PEXTMAX
 10
100000000000000000000.0
 20
100000000000000000000.0
 30
100000000000000000000.0
  9
$PLIMMIN
 10
0.0
 20
0.0
  9
$PLIMMAX
 10
12.0
 20
9.0
  9
$UNITMODE
 70
     0
  9
$VISRETAIN
 70
     0
  9
$PLINEGEN
 70
     0
  9
$PSLTSCALE
 70
     0
  9
$TREEDEPTH
 70
  3020
  9
$ATTDIA
 70
     0
  9
$ATTREQ
 70
     1
  9
$BLIPMODE
 70
     1
  9
$COORDS
 70
     1
  9
$DRAGMODE
 70
     2
  9
$OSMODE
 70
     0
  9
$HANDLING
 70
     0
  9
$HANDSEED
  5
FA4F
  0
ENDSEC
  0
SECTION
  2
TABLES
  0
TABLE
  2
LTYPE
 70
     2
  0
LTYPE
  2
CONTINUOUS
 70
     0
  3
実線
 72
    65
 73
     0
 40
0.0
  0
LTYPE
  2
DASHDOT
 70
     0
  3
____ _ ____ _ ____ _ ____ _ ____ _ ____ _ ____
 72
    65
 73
     4
 40
5.5
 49
4.0
 49
-0.6
 49
0.3
 49
-0.6
  0
ENDTAB
  0
TABLE
  2
LAYER
 70
    12
  0
LAYER
  2
0
 70
     0
 62
     7
  6
CONTINUOUS
  0
LAYER
  2
BASIS
 70
     0
 62
     6
  6
DASHDOT
  0
LAYER
  2
OUTLINE
 70
     0
 62
     3
  6
CONTINUOUS
  0
LAYER
  2
DETAIL
 70
     0
 62
     5
  6
CONTINUOUS
  0
LAYER
  2
SIZE
 70
     0
 62
    30
  6
CONTINUOUS
  0
LAYER
  2
ARRANGE
 70
     0
 62
     1
  6
CONTINUOUS
  0
LAYER
  2
DEFPOINTS
 70
     0
 62
     7
  6
CONTINUOUS
  0
LAYER
  2
ETC
 70
     0
 62
    61
  6
CONTINUOUS
  0
LAYER
  2
FIX
 70
     0
 62
    11
  6
CONTINUOUS
  0
LAYER
  2
NOTE
 70
     0
 62
     4
  6
CONTINUOUS
  0
LAYER
  2
SERVICESPACE
 70
    64
 62
     2
  6
DASHDOT
  0
LAYER
  2
SYMBOLLINE
 70
    64
 62
    15
  6
CONTINUOUS
  0
ENDTAB
  0
TABLE
  2
STYLE
 70
     1
  0
STYLE
  2
STANDARD
 70
     0
 40
64.0
 41
0.9
 50
0.0
 71
     0
 42
64.0
  3
SIMPLEX.shx
  4
BIGFONT.shx
  0
ENDTAB
  0
TABLE
  2
APPID
 70
    19
  0
APPID
  2
ACAD
 70
     0
  0
APPID
  2
AUTOCAD_POSTSCRIPT_FIGURE
 70
     0
  0
APPID
  2
ACAD_EXEMPT_FROM_CAD_STANDARDS
 70
     0
  0
APPID
  2
ACAD_PSEXT
 70
     0
  0
APPID
  2
ACAUTHENVIRON
 70
     0
  0
APPID
  2
GENIUS_GENOENT_13
 70
     0
  0
APPID
  2
GENIUS_GENCFG_13
 70
     0
  0
APPID
  2
GENIUS_GENCFG0_13
 70
     0
  0
APPID
  2
GENIUS_GENCFG1_13
 70
     0
  0
APPID
  2
GENIUS_GENCFG2_13
 70
     0
  0
APPID
  2
GENIUS_GENCFG3_13
 70
     0
  0
APPID
  2
GENIUS_GENCFG4_13
 70
     0
  0
APPID
  2
GENIUS_GEVCFG0_13
 70
     0
  0
APPID
  2
CONTENTBLOCKICON
 70
     0
  0
APPID
  2
CONTENTBLOCKDESCRIPTION
 70
     0
  0
APPID
  2
ACAD_NAV_VCDISPLAY
 70
     0
  0
APPID
  2
ACAD_MLEADERVER
 70
     0
  0
APPID
  2
ACDBDYNAMICBLOCKTRUENAME
 70
     0
  0
APPID
  2
ACDBDYNAMICBLOCKGUID
 70
     0
  0
ENDTAB
  0
TABLE
  2
DIMSTYLE
 70
     1
  0
DIMSTYLE
  2
STANDARD
 70
     0
  3

  4

  5
_ORIGIN
  6

  7

 40
1.0
 41
12.0
 42
20.0
 43
200.0
 44
20.0
 45
0.0
 46
0.0
 47
0.0
 48
0.0
140
64.0
141
0.09
142
0.0
143
25.399999999999999
144
1.0
145
0.0
146
1.0
147
25.0
 71
     0
 72
     0
 73
     0
 74
     0
 75
     0
 76
     0
 77
     1
 78
     8
170
     0
171
     2
172
     1
173
     0
174
     1
175
     0
176
     7
177
     7
178
     7
  0
ENDTAB
  0
TABLE
  2
VIEW
 70
     1
  0
VIEW
  2
ALL
 70
     0
 40
4282.6198079999986
 10
0.0
 20
41.309904000000003
 41
5940.0
 11
0.0
 21
0.0
 31
1.0
 12
0.0
 22
0.0
 32
0.0
 42
50.0
 43
0.0
 44
0.0
 50
0.0
 71
     0
  0
ENDTAB
  0
TABLE
  2
UCS
 70
     0
  0
ENDTAB
  0
TABLE
  2
VPORT
 70
     1
  0
VPORT
  2
*ACTIVE
 70
     0
 10
0.0
 20
0.0
 11
1.0
 21
1.0
 12
343.06184284279698
 22
131.3781837599563
 13
0.0
 23
0.0
 14
1.0
 24
1.0
 15
0.0
 25
0.0
 16
0.0
 26
0.0
 36
1.0
 17
0.0
 27
0.0
 37
0.0
 40
1238.6265503874949
 41
1.747787610619469
 42
50.0
 43
0.0
 44
0.0
 50
0.0
 51
0.0
 71
     0
 72
  1000
 73
     1
 74
     3
 75
     0
 76
     0
 77
     0
 78
     0
  0
ENDTAB
  0
ENDSEC
  0
SECTION
  2
BLOCKS
  0
BLOCK
  8
0
  2
_ORIGIN
 70
     0
 10
0.0
 20
0.0
 30
0.0
  3
_ORIGIN
  1
_ORIGIN
  0
CIRCLE
  8
0
  6
CONTINUOUS
 62
     7
 10
0.0
 20
0.0
 30
0.0
 40
0.5
  0
LINE
  8
0
  6
CONTINUOUS
 62
     7
 10
0.0
 20
0.0
 30
0.0
 11
-1.0
 21
0.0
 31
0.0
  0
ENDBLK
  8
0
  0
ENDSEC
  0
SECTION
  2
ENTITIES
  0
POINT
  8
ARRANGE
  6
CONTINUOUS
 62
     1
 10
0.0
 20
0.0
 30
0.0
  0
CIRCLE
  8
ARRANGE
  6
CONTINUOUS
 62
     1
 10
0.0
 20
0.0
 30
0.0
 40
40.0
  0
TEXT
  8
ETC
  6
CONTINUOUS
 62
    61
 10
393.67058632701168
 20
682.50654089353998
 30
0.0
 40
64.0
  1
EWG-60ETA2-Q_4
 41
0.9
  0
TEXT
  8
ETC
  6
CONTINUOUS
 62
    61
 10
389.48459232701128
 20
564.55123087870868
 30
0.0
 40
64.0
  1
産業扇
 41
0.9
  0
TEXT
  8
ETC
  6
CONTINUOUS
 62
    61
 10
440.1859905755673
 20
456.40245799248351
 30
0.0
 40
40.0
  1
EWG-60ETA2-Q
 41
0.9
  0
TEXT
  8
NOTE
  6
CONTINUOUS
 62
     4
 10
111.20894172444881
 20
-469.3826022671517
 30
0.0
 40
64.0
  1
4-φ14
 41
0.9
  0
LINE
  8
SIZE
  6
CONTINUOUS
 62
    30
 10
-10.014104372651451
 20
368.39069111483798
 30
0.0
 11
-10.014104372651451
 21
454.99446285048498
 31
0.0
  0
LINE
  8
SIZE
  6
CONTINUOUS
 62
    30
 10
-0.0000000000001137
 20
373.4978843447393
 30
0.0
 11
-0.0000000000001137
 21
454.99446285048498
 31
0.0
  0
LINE
  8
SIZE
  6
CONTINUOUS
 62
    30
 10
-22.014104372651449
 20
434.99446285048498
 30
0.0
 11
-34.014104372651452
 21
434.99446285048498
 31
0.0
  0
LINE
  8
SIZE
  6
CONTINUOUS
 62
    30
 10
11.99999999999989
 20
434.99446285048498
 30
0.0
 11
157.33943312092339
 21
434.99446285048498
 31
0.0
  0
LINE
  8
SIZE
  6
CONTINUOUS
 62
    30
 10
-10.014104372651451
 20
434.99446285048498
 30
0.0
 11
-0.0000000000001137
 21
434.99446285048498
 31
0.0
  0
CIRCLE
  8
SIZE
  6
CONTINUOUS
 62
    30
 10
-10.014104372651451
 20
434.99446285048498
 30
0.0
 40
6.0
  0
LINE
  8
SIZE
  6
CONTINUOUS
 62
    30
 10
-10.014104372651451
 20
434.99446285048498
 30
0.0
 11
-22.014104372651449
 21
434.99446285048498
 31
0.0
  0
CIRCLE
  8
SIZE
  6
CONTINUOUS
 62
    30
 10
-0.0000000000001137
 20
434.99446285048498
 30
0.0
 40
6.0
  0
LINE
  8
SIZE
  6
CONTINUOUS
 62
    30
 10
-0.0000000000001137
 20
434.99446285048498
 30
0.0
 11
11.99999999999989
 21
434.99446285048498
 31
0.0
  0
TEXT
  8
SIZE
  6
CONTINUOUS
 62
    30
 10
50.053718835209082
 20
459.99446285048498
 30
0.0
 40
64.0
  1
10
 41
0.9
 72
     1
 11
91.196575978066221
 21
459.99446285048498
 31
0.0
  0
POINT
  8
DEFPOINTS
  6
CONTINUOUS
 62
    30
 10
-10.014104372651451
 20
348.39069111483798
 30
0.0
  0
POINT
  8
DEFPOINTS
  6
CONTINUOUS
 62
    30
 10
-0.0000000000001137
 20
353.49788434473948
 30
0.0
  0
POINT
  8
DEFPOINTS
  6
CONTINUOUS
 62
    30
 10
-0.0000000000001137
 20
434.99446285048498
 30
0.0
  0
LINE
  8
SIZE
  6
CONTINUOUS
 62
    30
 10
-20.028208745303122
 20
358.37658674218619
 30
0.0
 11
-20.028208745303122
 21
454.99446285048498
 31
0.0
  0
LINE
  8
SIZE
  6
CONTINUOUS
 62
    30
 10
-10.014104372651451
 20
368.39069111483798
 30
0.0
 11
-10.014104372651451
 21
454.99446285048498
 31
0.0
  0
LINE
  8
SIZE
  6
CONTINUOUS
 62
    30
 10
1.9858956273485551
 20
434.99446285048498
 30
0.0
 11
13.985895627348549
 21
434.99446285048498
 31
0.0
  0
LINE
  8
SIZE
  6
CONTINUOUS
 62
    30
 10
-32.028208745303118
 20
434.99446285048498
 30
0.0
 11
-176.31392303101751
 21
434.99446285048498
 31
0.0
  0
LINE
  8
SIZE
  6
CONTINUOUS
 62
    30
 10
-10.014104372651451
 20
434.99446285048498
 30
0.0
 11
-20.028208745303122
 21
434.99446285048498
 31
0.0
  0
CIRCLE
  8
SIZE
  6
CONTINUOUS
 62
    30
 10
-10.014104372651451
 20
434.99446285048498
 30
0.0
 40
6.0
  0
LINE
  8
SIZE
  6
CONTINUOUS
 62
    30
 10
-10.014104372651451
 20
434.99446285048498
 30
0.0
 11
1.9858956273485551
 21
434.99446285048498
 31
0.0
  0
CIRCLE
  8
SIZE
  6
CONTINUOUS
 62
    30
 10
-20.028208745303122
 20
434.99446285048498
 30
0.0
 40
6.0
  0
LINE
  8
SIZE
  6
CONTINUOUS
 62
    30
 10
-20.028208745303122
 20
434.99446285048498
 30
0.0
 11
-32.028208745303118
 21
434.99446285048498
 31
0.0
  0
TEXT
  8
SIZE
  6
CONTINUOUS
 62
    30
 10
-151.3139230310174
 20
459.99446285048498
 30
0.0
 40
64.0
  1
10
 41
0.9
 72
     1
 11
-110.1710658881602
 21
459.99446285048498
 31
0.0
  0
POINT
  8
DEFPOINTS
  6
CONTINUOUS
 62
    30
 10
-20.028208745303122
 20
338.37658674218619
 30
0.0
  0
POINT
  8
DEFPOINTS
  6
CONTINUOUS
 62
    30
 10
-10.014104372651451
 20
348.39069111483798
 30
0.0
  0
POINT
  8
DEFPOINTS
  6
CONTINUOUS
 62
    30
 10
-10.014104372651451
 20
434.99446285048498
 30
0.0
  0
LINE
  8
SIZE
  6
CONTINUOUS
 62
    30
 10
18.499999999999769
 20
354.99999851069362
 30
0.0
 11
352.13545641544181
 21
354.99999851069362
 31
0.0
  0
LINE
  8
SIZE
  6
CONTINUOUS
 62
    30
 10
18.497576736672041
 20
-354.99999996820748
 30
0.0
 11
352.13545641544158
 21
-354.99999996820748
 31
0.0
  0
LINE
  8
SIZE
  6
CONTINUOUS
 62
    30
 10
332.13545641544181
 20
342.99999851069362
 30
0.0
 11
332.13545641544169
 21
-342.99999996820748
 31
0.0
  0
CIRCLE
  8
SIZE
  6
CONTINUOUS
 62
    30
 10
332.13545641544181
 20
354.99999851069362
 30
0.0
 40
6.0
  0
LINE
  8
SIZE
  6
CONTINUOUS
 62
    30
 10
332.13545641544181
 20
354.99999851069362
 30
0.0
 11
332.13545641544181
 21
342.99999851069362
 31
0.0
  0
CIRCLE
  8
SIZE
  6
CONTINUOUS
 62
    30
 10
332.13545641544169
 20
-354.99999996820748
 30
0.0
 40
6.0
  0
LINE
  8
SIZE
  6
CONTINUOUS
 62
    30
 10
332.13545641544169
 20
-354.99999996820748
 30
0.0
 11
332.13545641544169
 21
-342.99999996820748
 31
0.0
  0
TEXT
  8
SIZE
  6
CONTINUOUS
 62
    30
 10
307.13545641544181
 20
-75.37405202998174
 30
0.0
 40
64.0
  1
710
 50
90.0
 41
0.9
 72
     1
 11
307.13545641544181
 21
-6.8026234585531711
 31
0.0
  0
POINT
  8
DEFPOINTS
  6
CONTINUOUS
 62
    30
 10
-1.5000000000002269
 20
354.99999851069362
 30
0.0
  0
POINT
  8
DEFPOINTS
  6
CONTINUOUS
 62
    30
 10
-1.5024232633279551
 20
-354.99999996820748
 30
0.0
  0
POINT
  8
DEFPOINTS
  6
CONTINUOUS
 62
    30
 10
332.13545641544169
 20
-354.99999996820748
 30
0.0
  0
LINE
  8
SIZE
  6
CONTINUOUS
 62
    30
 10
44.937006591948943
 20
325.45839210184789
 30
0.0
 11
224.80384637328521
 21
325.45839210184772
 31
0.0
  0
LINE
  8
SIZE
  6
CONTINUOUS
 62
    30
 10
44.937006591948943
 20
-325.45839210184778
 30
0.0
 11
224.80384637328501
 21
-325.45839210184789
 31
0.0
  0
LINE
  8
SIZE
  6
CONTINUOUS
 62
    30
 10
204.80384637328521
 20
313.45839210184772
 30
0.0
 11
204.8038463732851
 21
-313.45839210184789
 31
0.0
  0
CIRCLE
  8
SIZE
  6
CONTINUOUS
 62
    30
 10
204.80384637328521
 20
325.45839210184772
 30
0.0
 40
6.0
  0
LINE
  8
SIZE
  6
CONTINUOUS
 62
    30
 10
204.80384637328521
 20
325.45839210184772
 30
0.0
 11
204.80384637328521
 21
313.45839210184772
 31
0.0
  0
CIRCLE
  8
SIZE
  6
CONTINUOUS
 62
    30
 10
204.80384637328501
 20
-325.45839210184789
 30
0.0
 40
6.0
  0
LINE
  8
SIZE
  6
CONTINUOUS
 62
    30
 10
204.80384637328501
 20
-325.45839210184789
 30
0.0
 11
204.80384637328501
 21
-313.45839210184789
 31
0.0
  0
TEXT
  8
SIZE
  6
CONTINUOUS
 62
    30
 10
179.8038463732851
 20
-74.05714285714285
 30
0.0
 40
64.0
  1
650
 50
90.0
 41
0.9
 72
     1
 11
179.8038463732851
 21
0.0
 31
0.0
  0
POINT
  8
DEFPOINTS
  6
CONTINUOUS
 62
    30
 10
24.93700659194894
 20
325.45839210184789
 30
0.0
  0
POINT
  8
DEFPOINTS
  6
CONTINUOUS
 62
    30
 10
24.93700659194894
 20
-325.45839210184778
 30
0.0
  0
POINT
  8
DEFPOINTS
  6
CONTINUOUS
 62
    30
 10
204.80384637328501
 20
-325.45839210184789
 30
0.0
  0
CIRCLE
  8
FIX
  6
CONTINUOUS
 62
    11
 10
-0.0000000000001137
 20
-325.45839210184749
 30
0.0
 40
7.0
  0
CIRCLE
  8
FIX
  6
CONTINUOUS
 62
    11
 10
0.0
 20
325.45839210184789
 30
0.0
 40
7.0
  0
LINE
  8
SIZE
  6
CONTINUOUS
 62
    30
 10
-0.0000000000001137
 20
373.4978843447393
 30
0.0
 11
-0.0000000000001137
 21
589.90550981314971
 31
0.0
  0
LINE
  8
SIZE
  6
CONTINUOUS
 62
    30
 10
-175.24682651651639
 20
295.18300022625817
 30
0.0
 11
-175.24682651651631
 21
589.90550981314971
 31
0.0
  0
LINE
  8
SIZE
  6
CONTINUOUS
 62
    30
 10
-163.24682651651631
 20
569.90550981314971
 30
0.0
 11
-12.00000000000011
 21
569.90550981314971
 31
0.0
  0
LINE
  8
SIZE
  6
CONTINUOUS
 62
    30
 10
-0.0000000000001137
 20
569.90550981314971
 30
0.0
 11
200.19657597806631
 21
569.90550981314971
 31
0.0
  0
CIRCLE
  8
SIZE
  6
CONTINUOUS
 62
    30
 10
-175.24682651651631
 20
569.90550981314971
 30
0.0
 40
6.0
  0
LINE
  8
SIZE
  6
CONTINUOUS
 62
    30
 10
-175.24682651651631
 20
569.90550981314971
 30
0.0
 11
-163.24682651651631
 21
569.90550981314971
 31
0.0
  0
CIRCLE
  8
SIZE
  6
CONTINUOUS
 62
    30
 10
-0.0000000000001137
 20
569.90550981314971
 30
0.0
 40
6.0
  0
LINE
  8
SIZE
  6
CONTINUOUS
 62
    30
 10
-0.0000000000001137
 20
569.90550981314971
 30
0.0
 11
-12.00000000000011
 21
569.90550981314971
 31
0.0
  0
TEXT
  8
SIZE
  6
CONTINUOUS
 62
    30
 10
38.053718835209118
 20
594.90550981314971
 30
0.0
 40
64.0
  1
175
 41
0.9
 72
     1
 11
106.62514740663769
 21
594.90550981314971
 31
0.0
  0
POINT
  8
DEFPOINTS
  6
CONTINUOUS
 62
    30
 10
-0.0000000000001137
 20
353.49788434473948
 30
0.0
  0
POINT
  8
DEFPOINTS
  6
CONTINUOUS
 62
    30
 10
-175.24682651651639
 20
275.18300022625817
 30
0.0
  0
POINT
  8
DEFPOINTS
  6
CONTINUOUS
 62
    30
 10
-175.24682651651631
 20
569.90550981314971
 30
0.0
  0
LINE
  8
SIZE
  6
CONTINUOUS
 62
    30
 10
-0.0000000000001137
 20
373.4978843447393
 30
0.0
 11
-0.0000000000001137
 21
670.08661566428691
 31
0.0
  0
LINE
  8
SIZE
  6
CONTINUOUS
 62
    30
 10
-317.06491922063287
 20
-28.568406228736929
 30
0.0
 11
-317.06491922063287
 21
670.08661566428691
 31
0.0
  0
LINE
  8
SIZE
  6
CONTINUOUS
 62
    30
 10
-12.00000000000011
 20
650.08661566428691
 30
0.0
 11
-305.06491922063287
 21
650.08661566428691
 31
0.0
  0
CIRCLE
  8
SIZE
  6
CONTINUOUS
 62
    30
 10
-0.0000000000001137
 20
650.08661566428691
 30
0.0
 40
6.0
  0
LINE
  8
SIZE
  6
CONTINUOUS
 62
    30
 10
-0.0000000000001137
 20
650.08661566428691
 30
0.0
 11
-12.00000000000011
 21
650.08661566428691
 31
0.0
  0
CIRCLE
  8
SIZE
  6
CONTINUOUS
 62
    30
 10
-317.06491922063287
 20
650.08661566428691
 30
0.0
 40
6.0
  0
LINE
  8
SIZE
  6
CONTINUOUS
 62
    30
 10
-317.06491922063287
 20
650.08661566428691
 30
0.0
 11
-305.06491922063287
 21
650.08661566428691
 31
0.0
  0
TEXT
  8
SIZE
  6
CONTINUOUS
 62
    30
 10
-227.10388818174499
 20
675.08661566428691
 30
0.0
 40
64.0
  1
317
 41
0.9
 72
     1
 11
-158.53245961031641
 21
675.08661566428691
 31
0.0
  0
POINT
  8
DEFPOINTS
  6
CONTINUOUS
 62
    30
 10
-0.0000000000001137
 20
353.49788434473948
 30
0.0
  0
POINT
  8
DEFPOINTS
  6
CONTINUOUS
 62
    30
 10
-317.06491922063287
 20
-48.568406228736933
 30
0.0
  0
POINT
  8
DEFPOINTS
  6
CONTINUOUS
 62
    30
 10
-317.06491922063287
 20
650.08661566428691
 30
0.0
  0
TEXT
  8
NOTE
  6
CONTINUOUS
 62
     4
 10
-364.13594561407677
 20
-433.87292142820007
 30
0.0
 40
64.0
  1
EL
 41
0.9
 72
     2
 11
-279.10737418550542
 21
-433.87292142820007
 31
0.0
  0
LINE
  8
SIZE
  6
CONTINUOUS
 62
    30
 10
-321.09590973260941
 20
65.291960508053762
 30
0.0
 11
-385.14592177438681
 21
65.291960508053762
 31
0.0
  0
LINE
  8
SIZE
  6
CONTINUOUS
 62
    30
 10
-321.09590973260919
 20
-65.291960507164845
 30
0.0
 11
-385.14592177438681
 21
-65.291960507164845
 31
0.0
  0
LINE
  8
SIZE
  6
CONTINUOUS
 62
    30
 10
-365.14592177438681
 20
53.291960508053762
 30
0.0
 11
-365.14592177438681
 21
-53.291960507164838
 31
0.0
  0
CIRCLE
  8
SIZE
  6
CONTINUOUS
 62
    30
 10
-365.14592177438681
 20
65.291960508053762
 30
0.0
 40
6.0
  0
LINE
  8
SIZE
  6
CONTINUOUS
 62
    30
 10
-365.14592177438681
 20
65.291960508053762
 30
0.0
 11
-365.14592177438681
 21
53.291960508053762
 31
0.0
  0
CIRCLE
  8
SIZE
  6
CONTINUOUS
 62
    30
 10
-365.14592177438681
 20
-65.291960507164845
 30
0.0
 40
6.0
  0
LINE
  8
SIZE
  6
CONTINUOUS
 62
    30
 10
-365.14592177438681
 20
-65.291960507164845
 30
0.0
 11
-365.14592177438681
 21
-53.291960507164838
 31
0.0
  0
TEXT
  8
SIZE
  6
CONTINUOUS
 62
    30
 10
-400.81258844105338
 20
-96.548571428127019
 30
0.0
 40
64.0
  1
φ131
 50
90.0
 41
0.9
 72
     1
 11
-400.81258844105338
 21
0.0000000004444018
 31
0.0
  0
POINT
  8
DEFPOINTS
  6
CONTINUOUS
 62
    30
 10
-301.09590973260941
 20
65.291960508053762
 30
0.0
  0
POINT
  8
DEFPOINTS
  6
CONTINUOUS
 62
    30
 10
-301.09590973260919
 20
-65.291960507164845
 30
0.0
  0
POINT
  8
DEFPOINTS
  6
CONTINUOUS
 62
    30
 10
-365.14592177438681
 20
-65.291960507164845
 30
0.0
  0
LINE
  8
DETAIL
  6
CONTINUOUS
 62
     4
 10
-120.44897507835221
 20
-305.70500249482961
 30
0.0
 11
-115.39690912360091
 21
-302.09095644104963
 31
0.0
  0
LINE
  8
DETAIL
  6
CONTINUOUS
 62
     4
 10
-115.39690912360091
 20
-302.09095644104963
 30
0.0
 11
-117.96509503201101
 21
-307.74684898156369
 31
0.0
  0
LINE
  8
DETAIL
  6
CONTINUOUS
 62
     4
 10
-115.39690912360091
 20
-302.09095644104963
 30
0.0
 11
-123.01716098676241
 21
-311.36089503534367
 31
0.0
  0
LINE
  8
NOTE
  6
CONTINUOUS
 62
     4
 10
-123.01716098676241
 20
-311.36089503534367
 30
0.0
 11
-244.75815971473969
 21
-459.45725758105391
 31
0.0
  0
LINE
  8
NOTE
  6
CONTINUOUS
 62
     4
 10
-244.75815971473969
 20
-459.45725758105391
 30
0.0
 11
-379.92565112640489
 21
-459.56183930549622
 31
0.0
  0
LINE
  8
DETAIL
  6
CONTINUOUS
 62
     4
 10
1.946632850620404
 20
-331.35714788886571
 30
0.0
 11
-0.0000000000003411
 21
-325.45839210184721
 31
0.0
  0
LINE
  8
DETAIL
  6
CONTINUOUS
 62
     4
 10
-0.0000000000003411
 20
-325.45839210184721
 30
0.0
 11
4.6352176254298456
 21
-329.59354105380783
 31
0.0
  0
LINE
  8
DETAIL
  6
CONTINUOUS
 62
     4
 10
-0.0000000000003411
 20
-325.45839210184721
 30
0.0
 11
6.5818504760506471
 21
-335.49229684082638
 31
0.0
  0
LINE
  8
NOTE
  6
CONTINUOUS
 62
     4
 10
6.5818504760506471
 20
-335.49229684082638
 30
0.0
 11
103.8777347687129
 21
-483.81800524753731
 31
0.0
  0
LINE
  8
NOTE
  6
CONTINUOUS
 62
     4
 10
103.8777347687129
 20
-483.81800524753731
 30
0.0
 11
394.01203122688611
 21
-483.38617134267639
 31
0.0
  0
LINE
  8
NOTE
  6
CONTINUOUS
 62
     4
 10
24.93700659194894
 20
-325.45839210184778
 30
0.0
 11
-49.488760286192132
 21
-325.45839210184778
 31
0.0
  0
LINE
  8
NOTE
  6
CONTINUOUS
 62
     4
 10
24.93700659194894
 20
325.45839210184789
 30
0.0
 11
-49.488760286192132
 21
325.45839210184789
 31
0.0
  0
LINE
  8
OUTLINE
  6
CONTINUOUS
 62
     3
 10
-175.2468265165171
 20
-306.33958110673012
 30
0.0
 11
-180.2538787023968
 21
-306.33958110673012
 31
0.0
  0
LINE
  8
OUTLINE
  6
CONTINUOUS
 62
     3
 10
-292.41184767307368
 20
65.291960508053535
 30
0.0
 11
-292.41184767307368
 21
94.633286318758564
 31
0.0
  0
LINE
  8
OUTLINE
  6
CONTINUOUS
 62
     3
 10
-288.40620592383573
 20
-94.633286318759019
 30
0.0
 11
-288.40620592383573
 21
-225.61571246146761
 31
0.0
  0
LINE
  8
OUTLINE
  6
CONTINUOUS
 62
     3
 10
-171.24118476727739
 20
306.33958110673012
 30
0.0
 11
-59.024038072103387
 21
306.33958110673012
 31
0.0
  0
LINE
  8
OUTLINE
  6
CONTINUOUS
 62
     3
 10
-3.0042313117064618
 20
351.99576868799687
 30
0.0
 11
-3.0042313117064618
 21
353.49788434385027
 31
0.0
  0
ARC
  8
OUTLINE
  6
CONTINUOUS
 62
     3
 10
-1.5021156558541411
 20
353.49788434385027
 30
0.0
 40
1.5021156558532309
 50
0.0
 51
180.0
  0
ARC
  8
OUTLINE
  6
CONTINUOUS
 62
     3
 10
-6.4090267986030094
 20
348.39069111394912
 30
0.0
 40
3.605077574047983
 50
90.0
 51
180.0
  0
ARC
  8
OUTLINE
  6
CONTINUOUS
 62
     3
 10
-16.423131170366101
 20
338.37658674218619
 30
0.0
 40
3.605077574047983
 50
90.0
 51
180.0
  0
ARC
  8
OUTLINE
  6
CONTINUOUS
 62
     3
 10
-1.5021156558541411
 20
-353.49788434385079
 30
0.0
 40
1.5021156558532309
 50
180.0
 51
0.0
  0
ARC
  8
OUTLINE
  6
CONTINUOUS
 62
     3
 10
-16.423131170366101
 20
-338.37658674218619
 30
0.0
 40
3.6050775740477552
 50
180.0
 51
270.0
  0
ARC
  8
OUTLINE
  6
CONTINUOUS
 62
     3
 10
-6.4090267986030094
 20
-348.39069111394929
 30
0.0
 40
3.6050775740477552
 50
180.0
 51
270.0
  0
ARC
  8
OUTLINE
  6
CONTINUOUS
 62
     3
 10
-173.2440056414525
 20
310.4372355433145
 30
0.0
 40
2.002820874175085
 50
0.0
 51
180.0
  0
ARC
  8
OUTLINE
  6
CONTINUOUS
 62
     3
 10
-307.13258110043807
 20
57.881523271918013
 30
0.0
 40
7.410437235246774
 50
90.0
 51
180.0
  0
ARC
  8
OUTLINE
  6
CONTINUOUS
 62
     3
 10
-173.2440056414525
 20
-310.43723554331473
 30
0.0
 40
2.002820874175085
 50
180.0
 51
0.0
  0
ARC
  8
OUTLINE
  6
CONTINUOUS
 62
     3
 10
-307.13258110043807
 20
-57.88152327191824
 30
0.0
 40
7.410437235246718
 50
180.0
 51
270.0
  0
LINE
  8
OUTLINE
  6
CONTINUOUS
 62
     3
 10
-6.4090267986030094
 20
351.99576868799687
 30
0.0
 11
-3.0042313117064618
 21
351.99576868799687
 31
0.0
  0
LINE
  8
OUTLINE
  6
CONTINUOUS
 62
     3
 10
-16.423131170366101
 20
341.98166431623417
 30
0.0
 11
-13.887196766383569
 21
341.98166431623417
 31
0.0
  0
LINE
  8
OUTLINE
  6
CONTINUOUS
 62
     3
 10
-180.2538787023968
 20
306.33958110673012
 30
0.0
 11
-175.2468265165171
 21
306.33958110673012
 31
0.0
  0
LINE
  8
OUTLINE
  6
CONTINUOUS
 62
     3
 10
0.0
 20
-353.49788434385079
 30
0.0
 11
0.0
 21
353.49788434385027
 31
0.0
  0
LINE
  8
OUTLINE
  6
CONTINUOUS
 62
     3
 10
-3.0042313117064618
 20
-353.49788434385079
 30
0.0
 11
-3.0042313117064618
 21
-351.99576868799733
 31
0.0
  0
LINE
  8
OUTLINE
  6
CONTINUOUS
 62
     3
 10
-10.01410437265076
 20
-348.39069111394929
 30
0.0
 11
-10.01410437265076
 21
-345.18093089887839
 31
0.0
  0
LINE
  8
OUTLINE
  6
CONTINUOUS
 62
     3
 10
-10.01410437265076
 20
348.39069111394912
 30
0.0
 11
-10.01410437265076
 21
345.18093089887827
 31
0.0
  0
LINE
  8
OUTLINE
  6
CONTINUOUS
 62
     3
 10
-20.02820874441386
 20
333.97038081786508
 30
0.0
 11
-20.02820874441386
 21
338.37658674218619
 31
0.0
  0
LINE
  8
OUTLINE
  6
CONTINUOUS
 62
     3
 10
-20.02820874441386
 20
-338.37658674218619
 30
0.0
 11
-20.02820874441386
 21
-336.97461212946399
 31
0.0
  0
LINE
  8
OUTLINE
  6
CONTINUOUS
 62
     3
 10
-20.528913963623381
 20
-336.97461212946399
 30
0.0
 11
-20.52891396362509
 21
-330.90788175262969
 31
0.0
  0
LINE
  8
OUTLINE
  6
CONTINUOUS
 62
     3
 10
-171.24118476727739
 20
-306.33958110673012
 30
0.0
 11
-171.24118476727739
 21
-310.43723554331473
 31
0.0
  0
LINE
  8
OUTLINE
  6
CONTINUOUS
 62
     3
 10
-171.24118476727739
 20
310.4372355433145
 30
0.0
 11
-171.24118476727739
 21
306.33958110673012
 31
0.0
  0
LINE
  8
OUTLINE
  6
CONTINUOUS
 62
     3
 10
-175.2468265165171
 20
-306.33958110673012
 30
0.0
 11
-175.2468265165171
 21
-310.43723554331473
 31
0.0
  0
LINE
  8
OUTLINE
  6
CONTINUOUS
 62
     3
 10
-175.2468265165171
 20
310.4372355433145
 30
0.0
 11
-175.2468265165171
 21
306.33958110673012
 31
0.0
  0
LINE
  8
OUTLINE
  6
CONTINUOUS
 62
     3
 10
-288.40620592383573
 20
94.633286318758564
 30
0.0
 11
-292.41184767307368
 21
94.633286318758564
 31
0.0
  0
LINE
  8
OUTLINE
  6
CONTINUOUS
 62
     3
 10
-307.13258110043807
 20
65.291960508053535
 30
0.0
 11
-292.41184767307368
 21
65.291960508053535
 31
0.0
  0
LINE
  8
OUTLINE
  6
CONTINUOUS
 62
     3
 10
-288.40620592383573
 20
225.61571246146741
 30
0.0
 11
-288.40620592383573
 21
94.633286318758564
 31
0.0
  0
LINE
  8
OUTLINE
  6
CONTINUOUS
 62
     3
 10
-292.41184767307368
 20
-94.633271678019796
 30
0.0
 11
-292.41184767307368
 21
-65.291960508053762
 31
0.0
  0
LINE
  8
OUTLINE
  6
CONTINUOUS
 62
     3
 10
-314.54301833568388
 20
-57.88152327191824
 30
0.0
 11
-314.54301833568388
 21
57.881523271918013
 31
0.0
  0
LINE
  8
OUTLINE
  6
CONTINUOUS
 62
     3
 10
-307.13258110043807
 20
-65.291960508053762
 30
0.0
 11
-292.41184767307368
 21
-65.291960508053762
 31
0.0
  0
LINE
  8
OUTLINE
  6
CONTINUOUS
 62
     3
 10
-292.41184767307368
 20
-94.633286318759019
 30
0.0
 11
-288.40620592383573
 21
-94.633286318759019
 31
0.0
  0
LINE
  8
OUTLINE
  6
CONTINUOUS
 62
     3
 10
-59.024038072113399
 20
-306.33958110673012
 30
0.0
 11
-171.24118476727739
 21
-306.33958110673012
 31
0.0
  0
LINE
  8
OUTLINE
  6
CONTINUOUS
 62
     3
 10
-20.02820874441386
 20
-336.97461212946399
 30
0.0
 11
-20.528913963623381
 21
-336.97461212946399
 31
0.0
  0
LINE
  8
OUTLINE
  6
CONTINUOUS
 62
     3
 10
-13.887196766383569
 20
-341.98166431623417
 30
0.0
 11
-16.423131170366101
 21
-341.98166431623417
 31
0.0
  0
LINE
  8
OUTLINE
  6
CONTINUOUS
 62
     3
 10
-3.0042313117064618
 20
-351.99576868799733
 30
0.0
 11
-6.4090267986030094
 21
-351.99576868799733
 31
0.0
  0
LINE
  8
DETAIL
  6
CONTINUOUS
 62
     5
 10
-3.0042313117066901
 20
-351.99576868799733
 30
0.0
 11
-6.4090267986038043
 21
-351.99576868799733
 31
0.0
  0
LINE
  8
DETAIL
  6
CONTINUOUS
 62
     5
 10
-5.1071932299012701
 20
-348.82582776175718
 30
0.0
 11
-3.0042313117066901
 21
-348.82582776175718
 31
0.0
  0
LINE
  8
DETAIL
  6
CONTINUOUS
 62
     5
 10
-13.88719676638487
 20
-341.98166431623417
 30
0.0
 11
-16.423131170366901
 21
-341.98166431623417
 31
0.0
  0
LINE
  8
DETAIL
  6
CONTINUOUS
 62
     5
 10
-20.028208744414769
 20
-336.97461212946399
 30
0.0
 11
-20.52891396362509
 21
-336.97461212946399
 31
0.0
  0
LINE
  8
DETAIL
  6
CONTINUOUS
 62
     5
 10
-14.520451340211819
 20
-312.12122696191818
 30
0.0
 11
-18.07888122541976
 21
-312.12122696191818
 31
0.0
  0
LINE
  8
DETAIL
  6
CONTINUOUS
 62
     5
 10
-14.520451340211819
 20
-309.23040403476853
 30
0.0
 11
-18.07888122541976
 21
-309.23040403476853
 31
0.0
  0
LINE
  8
DETAIL
  6
CONTINUOUS
 62
     5
 10
-14.520451340211819
 20
-306.33958110673012
 30
0.0
 11
-180.25387870239771
 21
-306.33958110673012
 31
0.0
  0
LINE
  8
DETAIL
  6
CONTINUOUS
 62
     5
 10
-180.25387870239771
 20
-302.09095644104968
 30
0.0
 11
-14.520451340211819
 21
-302.09095644104968
 31
0.0
  0
LINE
  8
DETAIL
  6
CONTINUOUS
 62
     5
 10
-5.1071932299012701
 20
-299.25853999785522
 30
0.0
 11
-3.0042313117066901
 21
-299.25853999785522
 31
0.0
  0
LINE
  8
DETAIL
  6
CONTINUOUS
 62
     5
 10
-6.4090267986038043
 20
-287.92887422329977
 30
0.0
 11
-3.0042313117066901
 21
-287.92887422329977
 31
0.0
  0
LINE
  8
DETAIL
  6
CONTINUOUS
 62
     5
 10
-14.520451340211819
 20
-275.1830002262584
 30
0.0
 11
-180.25387870239771
 21
-275.1830002262584
 31
0.0
  0
LINE
  8
DETAIL
  6
CONTINUOUS
 62
     5
 10
-14.520451340211819
 20
-258.18850156442562
 30
0.0
 11
-10.014104372651669
 21
-258.18850156442562
 31
0.0
  0
LINE
  8
DETAIL
  6
CONTINUOUS
 62
     5
 10
-16.423131170366901
 20
-246.15073167818261
 30
0.0
 11
-13.018335684358529
 21
-246.15073167818261
 31
0.0
  0
LINE
  8
DETAIL
  6
CONTINUOUS
 62
     5
 10
-288.40620592383641
 20
-95.133991537080419
 30
0.0
 11
-291.41043723554321
 21
-95.133991537080419
 31
0.0
  0
LINE
  8
DETAIL
  6
CONTINUOUS
 62
     5
 10
-292.41184767307487
 20
-94.633286318759019
 30
0.0
 11
-288.40620592383641
 21
-94.633286318759019
 31
0.0
  0
LINE
  8
DETAIL
  6
CONTINUOUS
 62
     5
 10
-247.3483779974755
 20
-80.004326662358821
 30
0.0
 11
-207.29196050775749
 21
-80.004326662358821
 31
0.0
  0
LINE
  8
DETAIL
  6
CONTINUOUS
 62
     5
 10
-247.3483779974755
 20
-68.266514586520771
 30
0.0
 11
-207.29196050775749
 21
-68.266514586520771
 31
0.0
  0
LINE
  8
DETAIL
  6
CONTINUOUS
 62
     5
 10
-307.13258110043739
 20
-65.291960508053762
 30
0.0
 11
-292.41184767307487
 21
-65.291960508053762
 31
0.0
  0
LINE
  8
DETAIL
  6
CONTINUOUS
 62
     5
 10
-207.29196050775749
 20
-65.291960508053762
 30
0.0
 11
-175.24682651651639
 21
-65.291960508053762
 31
0.0
  0
LINE
  8
DETAIL
  6
CONTINUOUS
 62
     5
 10
-247.3483779974755
 20
-62.040156152214649
 30
0.0
 11
-241.42058557720279
 21
-62.040156152214649
 31
0.0
  0
LINE
  8
DETAIL
  6
CONTINUOUS
 62
     5
 10
-247.3483779974755
 20
-58.28208634674229
 30
0.0
 11
-241.42058557720279
 21
-58.28208634674229
 31
0.0
  0
LINE
  8
DETAIL
  6
CONTINUOUS
 62
     5
 10
-237.6346967559945
 20
-57.778600461693031
 30
0.0
 11
-240.83921015485191
 21
-57.778600461693031
 31
0.0
  0
LINE
  8
DETAIL
  6
CONTINUOUS
 62
     5
 10
-237.6346967559945
 20
-53.537926914593527
 30
0.0
 11
-207.29196050775749
 21
-53.537926914593527
 31
0.0
  0
LINE
  8
DETAIL
  6
CONTINUOUS
 62
     5
 10
-315.04372355400562
 20
-53.275035261227231
 30
0.0
 11
-314.54301833568411
 21
-53.275035261227231
 31
0.0
  0
LINE
  8
DETAIL
  6
CONTINUOUS
 62
     5
 10
-237.6346967559945
 20
-51.269432619958252
 30
0.0
 11
-240.83921015485191
 21
-51.269432619958252
 31
0.0
  0
LINE
  8
DETAIL
  6
CONTINUOUS
 62
     5
 10
-247.3483779974755
 20
-50.765946734908979
 30
0.0
 11
-241.42058557720279
 21
-50.765946734908979
 31
0.0
  0
LINE
  8
DETAIL
  6
CONTINUOUS
 62
     5
 10
-247.3483779974755
 20
-47.007876929436406
 30
0.0
 11
-241.42058557720279
 21
-47.007876929436406
 31
0.0
  0
LINE
  8
DETAIL
  6
CONTINUOUS
 62
     5
 10
-247.3483779974755
 20
-46.577865919772179
 30
0.0
 11
-207.29196050775749
 21
-46.577865919772179
 31
0.0
  0
LINE
  8
DETAIL
  6
CONTINUOUS
 62
     5
 10
-315.04372355400562
 20
-43.861777150917078
 30
0.0
 11
-314.54301833568411
 21
-43.861777150917078
 31
0.0
  0
LINE
  8
DETAIL
  6
CONTINUOUS
 62
     5
 10
-247.3483779974755
 20
-34.436293131963573
 30
0.0
 11
-207.29196050775749
 21
-34.436293131963573
 31
0.0
  0
LINE
  8
DETAIL
  6
CONTINUOUS
 62
     5
 10
-315.04372355400562
 20
-43.861777150917078
 30
0.0
 11
-315.04372355400562
 21
-53.275035261227231
 31
0.0
  0
LINE
  8
DETAIL
  6
CONTINUOUS
 62
     5
 10
-314.54301833568411
 20
-57.88152327191824
 30
0.0
 11
-314.54301833568411
 21
57.881523271918013
 31
0.0
  0
LINE
  8
DETAIL
  6
CONTINUOUS
 62
     5
 10
-247.3483779974755
 20
-18.240280815057531
 30
0.0
 11
-207.29196050775749
 21
-18.240280815057531
 31
0.0
  0
LINE
  8
DETAIL
  6
CONTINUOUS
 62
     5
 10
-247.3483779974755
 20
-10.092045885821561
 30
0.0
 11
-207.29196050775749
 21
-10.092045885821561
 31
0.0
  0
LINE
  8
DETAIL
  6
CONTINUOUS
 62
     5
 10
-292.41184767307487
 20
-94.633271678019796
 30
0.0
 11
-292.41184767307487
 21
94.633286318758564
 31
0.0
  0
LINE
  8
DETAIL
  6
CONTINUOUS
 62
     5
 10
-291.41043723554321
 20
-95.133991537080419
 30
0.0
 11
-291.41043723554321
 21
-94.633286318759019
 31
0.0
  0
LINE
  8
DETAIL
  6
CONTINUOUS
 62
     5
 10
-288.40620592383641
 20
225.61571246146741
 30
0.0
 11
-288.40620592383641
 21
-225.61571246146761
 31
0.0
  0
LINE
  8
DETAIL
  6
CONTINUOUS
 62
     5
 10
-241.42058557720279
 20
47.007876929436406
 30
0.0
 11
-240.83921015485191
 21
48.014848698646119
 31
0.0
  0
LINE
  8
DETAIL
  6
CONTINUOUS
 62
     5
 10
-247.3483779974755
 20
10.09204588582134
 30
0.0
 11
-207.29196050775749
 21
10.09204588582134
 31
0.0
  0
LINE
  8
DETAIL
  6
CONTINUOUS
 62
     5
 10
-247.3483779974755
 20
18.2402808141685
 30
0.0
 11
-207.29196050775749
 21
18.2402808141685
 31
0.0
  0
LINE
  8
DETAIL
  6
CONTINUOUS
 62
     5
 10
-247.3483779974755
 20
34.436293131963339
 30
0.0
 11
-207.29196050775749
 21
34.436293131963339
 31
0.0
  0
LINE
  8
DETAIL
  6
CONTINUOUS
 62
     5
 10
-250.35260930918221
 20
-225.61571246146761
 30
0.0
 11
-250.35260930918221
 21
225.61571246146741
 31
0.0
  0
LINE
  8
DETAIL
  6
CONTINUOUS
 62
     5
 10
-247.3483779974755
 20
85.620510628549937
 30
0.0
 11
-247.3483779974755
 21
-85.620510628550164
 31
0.0
  0
LINE
  8
DETAIL
  6
CONTINUOUS
 62
     5
 10
-240.83921015485191
 20
61.033184383004482
 30
0.0
 11
-240.83921015485191
 21
48.014848698646119
 31
0.0
  0
LINE
  8
DETAIL
  6
CONTINUOUS
 62
     5
 10
-240.83921015485191
 20
-48.014848698646347
 30
0.0
 11
-240.83921015485191
 21
-61.033184383004709
 31
0.0
  0
LINE
  8
DETAIL
  6
CONTINUOUS
 62
     5
 10
-237.6346967559945
 20
-57.778600461693031
 30
0.0
 11
-237.6346967559945
 21
-51.269432619958252
 31
0.0
  0
LINE
  8
DETAIL
  6
CONTINUOUS
 62
     5
 10
-237.6346967559945
 20
51.269432619958017
 30
0.0
 11
-237.6346967559945
 21
57.778600461692797
 31
0.0
  0
LINE
  8
DETAIL
  6
CONTINUOUS
 62
     5
 10
-241.42058557720279
 20
-62.040156152214649
 30
0.0
 11
-240.83921015485191
 21
-61.033184383004709
 31
0.0
  0
LINE
  8
DETAIL
  6
CONTINUOUS
 62
     5
 10
-247.3483779974755
 20
46.577865919771973
 30
0.0
 11
-207.29196050775749
 21
46.577865919771973
 31
0.0
  0
LINE
  8
DETAIL
  6
CONTINUOUS
 62
     5
 10
-247.3483779974755
 20
47.007876929436406
 30
0.0
 11
-241.42058557720279
 21
47.007876929436406
 31
0.0
  0
LINE
  8
DETAIL
  6
CONTINUOUS
 62
     5
 10
-247.3483779974755
 20
50.765946734908539
 30
0.0
 11
-241.42058557720279
 21
50.765946734908539
 31
0.0
  0
LINE
  8
DETAIL
  6
CONTINUOUS
 62
     5
 10
-237.6346967559945
 20
51.269432619958017
 30
0.0
 11
-240.83921015485191
 21
51.269432619958017
 31
0.0
  0
LINE
  8
DETAIL
  6
CONTINUOUS
 62
     5
 10
-237.6346967559945
 20
53.537926914593299
 30
0.0
 11
-207.29196050775749
 21
53.537926914593299
 31
0.0
  0
LINE
  8
DETAIL
  6
CONTINUOUS
 62
     5
 10
-237.6346967559945
 20
57.778600461692797
 30
0.0
 11
-240.83921015485191
 21
57.778600461692797
 31
0.0
  0
LINE
  8
DETAIL
  6
CONTINUOUS
 62
     5
 10
-247.3483779974755
 20
58.28208634674229
 30
0.0
 11
-241.42058557720279
 21
58.28208634674229
 31
0.0
  0
LINE
  8
DETAIL
  6
CONTINUOUS
 62
     5
 10
-247.3483779974755
 20
62.040156152214422
 30
0.0
 11
-241.42058557720279
 21
62.040156152214422
 31
0.0
  0
LINE
  8
DETAIL
  6
CONTINUOUS
 62
     5
 10
-250.35260930918221
 20
63.53671047550074
 30
0.0
 11
-247.3483779974755
 21
63.53671047550074
 31
0.0
  0
LINE
  8
DETAIL
  6
CONTINUOUS
 62
     5
 10
-307.13258110043739
 20
65.291960508053535
 30
0.0
 11
-292.41184767307487
 21
65.291960508053535
 31
0.0
  0
LINE
  8
DETAIL
  6
CONTINUOUS
 62
     5
 10
-207.29196050775749
 20
65.291960508053535
 30
0.0
 11
-175.24682651651639
 21
65.291960508053535
 31
0.0
  0
LINE
  8
DETAIL
  6
CONTINUOUS
 62
     5
 10
-247.3483779974755
 20
68.266514586520543
 30
0.0
 11
-207.29196050775749
 21
68.266514586520543
 31
0.0
  0
LINE
  8
DETAIL
  6
CONTINUOUS
 62
     5
 10
-241.42058557720279
 20
-47.007876929436406
 30
0.0
 11
-240.83921015485191
 21
-48.014848698646347
 31
0.0
  0
LINE
  8
DETAIL
  6
CONTINUOUS
 62
     5
 10
-207.29196050775749
 20
80.004158472512927
 30
0.0
 11
-207.29196050775749
 21
-80.004158472513154
 31
0.0
  0
LINE
  8
DETAIL
  6
CONTINUOUS
 62
     5
 10
-18.07888122541976
 20
280.96464608144629
 30
0.0
 11
-18.526093088561421
 21
280.19005241213972
 31
0.0
  0
LINE
  8
DETAIL
  6
CONTINUOUS
 62
     5
 10
-247.3483779974755
 20
80.004326661469804
 30
0.0
 11
-207.29196050775749
 21
80.004326661469804
 31
0.0
  0
LINE
  8
DETAIL
  6
CONTINUOUS
 62
     5
 10
-288.40620592383641
 20
94.633286318758564
 30
0.0
 11
-292.41184767307487
 21
94.633286318758564
 31
0.0
  0
LINE
  8
DETAIL
  6
CONTINUOUS
 62
     5
 10
-241.42058557720279
 20
62.040156152214422
 30
0.0
 11
-240.83921015485191
 21
61.033184383004482
 31
0.0
  0
LINE
  8
DETAIL
  6
CONTINUOUS
 62
     5
 10
-18.07888122541976
 20
-312.12122696191818
 30
0.0
 11
-18.526093088561421
 21
-311.34663329261139
 31
0.0
  0
LINE
  8
DETAIL
  6
CONTINUOUS
 62
     5
 10
-175.24682651651639
 20
310.4372355433145
 30
0.0
 11
-175.24682651651639
 21
306.33958110673012
 31
0.0
  0
LINE
  8
DETAIL
  6
CONTINUOUS
 62
     5
 10
-175.24682651651639
 20
275.18300022625817
 30
0.0
 11
-175.24682651651639
 21
-275.1830002262584
 31
0.0
  0
LINE
  8
DETAIL
  6
CONTINUOUS
 62
     5
 10
-175.24682651651639
 20
-306.33958110673012
 30
0.0
 11
-175.24682651651639
 21
-310.43723554331473
 31
0.0
  0
LINE
  8
DETAIL
  6
CONTINUOUS
 62
     5
 10
-171.24118476727801
 20
310.4372355433145
 30
0.0
 11
-171.24118476727801
 21
306.33958110673012
 31
0.0
  0
LINE
  8
DETAIL
  6
CONTINUOUS
 62
     5
 10
-171.24118476727801
 20
275.18300022625817
 30
0.0
 11
-171.24118476727801
 21
-275.1830002262584
 31
0.0
  0
LINE
  8
DETAIL
  6
CONTINUOUS
 62
     5
 10
-171.24118476727801
 20
-306.33958110673012
 30
0.0
 11
-171.24118476727801
 21
-310.43723554331473
 31
0.0
  0
LINE
  8
DETAIL
  6
CONTINUOUS
 62
     5
 10
-13.018335684358529
 20
246.15073167818241
 30
0.0
 11
-16.423131170366901
 21
246.15073167818241
 31
0.0
  0
LINE
  8
DETAIL
  6
CONTINUOUS
 62
     5
 10
-14.520451340211819
 20
258.18850156442511
 30
0.0
 11
-10.014104372651669
 21
258.18850156442511
 31
0.0
  0
LINE
  8
DETAIL
  6
CONTINUOUS
 62
     5
 10
-14.520451340211819
 20
269.40135437107011
 30
0.0
 11
-18.07888122541976
 21
269.40135437107011
 31
0.0
  0
LINE
  8
DETAIL
  6
CONTINUOUS
 62
     5
 10
-14.520451340211819
 20
272.29217729821983
 30
0.0
 11
-18.07888122541976
 21
272.29217729821983
 31
0.0
  0
LINE
  8
DETAIL
  6
CONTINUOUS
 62
     5
 10
-180.25387870239771
 20
275.18300022625817
 30
0.0
 11
-18.526093088561421
 21
275.18300022625817
 31
0.0
  0
LINE
  8
DETAIL
  6
CONTINUOUS
 62
     5
 10
-14.520451340211819
 20
278.07382315340777
 30
0.0
 11
-18.07888122541976
 21
278.07382315340777
 31
0.0
  0
LINE
  8
DETAIL
  6
CONTINUOUS
 62
     5
 10
-20.52891396362509
 20
-336.97461212946399
 30
0.0
 11
-20.52891396362509
 21
-330.90788175262969
 31
0.0
  0
LINE
  8
DETAIL
  6
CONTINUOUS
 62
     5
 10
-20.028208744414769
 20
-338.37658674218619
 30
0.0
 11
-20.028208744414769
 21
-306.33958110673012
 31
0.0
  0
LINE
  8
DETAIL
  6
CONTINUOUS
 62
     5
 10
-20.028208744414769
 20
-275.1830002262584
 30
0.0
 11
-20.028208744414769
 21
275.18300022625817
 31
0.0
  0
LINE
  8
DETAIL
  6
CONTINUOUS
 62
     5
 10
-20.028208744414769
 20
306.33958110673012
 30
0.0
 11
-20.028208744414769
 21
338.37658674218619
 31
0.0
  0
LINE
  8
DETAIL
  6
CONTINUOUS
 62
     5
 10
-18.526093088561421
 20
-311.34663329261139
 30
0.0
 11
-18.526093088561421
 21
-306.33958110673012
 31
0.0
  0
LINE
  8
DETAIL
  6
CONTINUOUS
 62
     5
 10
-18.526093088561421
 20
270.17594804037691
 30
0.0
 11
-18.526093088561421
 21
280.19005241213972
 31
0.0
  0
LINE
  8
DETAIL
  6
CONTINUOUS
 62
     5
 10
-14.520451340211819
 20
-295.23565111397852
 30
0.0
 11
-14.520451340211819
 21
-299.55553594816428
 31
0.0
  0
LINE
  8
DETAIL
  6
CONTINUOUS
 62
     5
 10
-14.520451340211819
 20
-339.50854830276421
 30
0.0
 11
-14.520451340211819
 21
-299.55553594816428
 31
0.0
  0
LINE
  8
DETAIL
  6
CONTINUOUS
 62
     5
 10
-14.520451340211819
 20
-295.23565111397852
 30
0.0
 11
-14.520451340211819
 21
-258.18850156442562
 31
0.0
  0
LINE
  8
DETAIL
  6
CONTINUOUS
 62
     5
 10
-14.520451340211819
 20
258.18850156442511
 30
0.0
 11
-14.520451340211819
 21
295.23565111397818
 31
0.0
  0
LINE
  8
DETAIL
  6
CONTINUOUS
 62
     5
 10
-14.520451340211819
 20
295.23565111397818
 30
0.0
 11
-14.520451340211819
 21
299.55553594816428
 31
0.0
  0
LINE
  8
DETAIL
  6
CONTINUOUS
 62
     5
 10
-14.520451340211819
 20
299.55553594816428
 30
0.0
 11
-14.520451340211819
 21
339.50854830276398
 31
0.0
  0
LINE
  8
DETAIL
  6
CONTINUOUS
 62
     5
 10
-10.014104372651669
 20
348.39069111394912
 30
0.0
 11
-10.014104372651669
 21
345.18093089887827
 31
0.0
  0
LINE
  8
DETAIL
  6
CONTINUOUS
 62
     5
 10
-10.014104372651669
 20
-284.32379664925202
 30
0.0
 11
-10.014104372651669
 21
-289.94126053797339
 31
0.0
  0
LINE
  8
DETAIL
  6
CONTINUOUS
 62
     5
 10
-10.014104372651669
 20
-348.39069111394929
 30
0.0
 11
-10.014104372651669
 21
-345.18093089887839
 31
0.0
  0
LINE
  8
DETAIL
  6
CONTINUOUS
 62
     5
 10
-10.014104372651669
 20
-284.32379664925202
 30
0.0
 11
-10.014104372651669
 21
284.32379664836282
 31
0.0
  0
LINE
  8
DETAIL
  6
CONTINUOUS
 62
     5
 10
-10.014104372651669
 20
284.32379664836282
 30
0.0
 11
-10.014104372651669
 21
289.94126053797322
 31
0.0
  0
LINE
  8
DETAIL
  6
CONTINUOUS
 62
     5
 10
-5.1071932299012701
 20
-348.82582776175718
 30
0.0
 11
-5.1071932299012701
 21
-298.85531663354101
 31
0.0
  0
LINE
  8
DETAIL
  6
CONTINUOUS
 62
     5
 10
-5.1071932299012701
 20
298.72543798368281
 30
0.0
 11
-5.1071932299012701
 21
348.82582776175701
 31
0.0
  0
LINE
  8
DETAIL
  6
CONTINUOUS
 62
     5
 10
-3.0042313117066901
 20
-353.49788434385079
 30
0.0
 11
-3.0042313117066901
 21
353.49788434385027
 31
0.0
  0
LINE
  8
DETAIL
  6
CONTINUOUS
 62
     5
 10
-0.0000000000000568
 20
-353.49788434385079
 30
0.0
 11
-0.0000000000000568
 21
353.49788434385027
 31
0.0
  0
LINE
  8
DETAIL
  6
CONTINUOUS
 62
     5
 10
-14.520451340211819
 20
280.96464608144629
 30
0.0
 11
-18.07888122541976
 21
280.96464608144629
 31
0.0
  0
LINE
  8
DETAIL
  6
CONTINUOUS
 62
     5
 10
-3.0042313117066901
 20
287.92887422241068
 30
0.0
 11
-6.4090267986038043
 21
287.92887422241068
 31
0.0
  0
LINE
  8
DETAIL
  6
CONTINUOUS
 62
     5
 10
-5.1071932299012701
 20
299.25853999696631
 30
0.0
 11
-3.0042313117066901
 21
299.25853999696631
 31
0.0
  0
LINE
  8
DETAIL
  6
CONTINUOUS
 62
     5
 10
-14.520451340211819
 20
302.09095644104951
 30
0.0
 11
-180.25387870239771
 21
302.09095644104951
 31
0.0
  0
LINE
  8
DETAIL
  6
CONTINUOUS
 62
     5
 10
-180.25387870239771
 20
306.33958110673012
 30
0.0
 11
-14.520451340211819
 21
306.33958110673012
 31
0.0
  0
LINE
  8
DETAIL
  6
CONTINUOUS
 62
     5
 10
-16.423131170366901
 20
341.98166431623417
 30
0.0
 11
-13.88719676638487
 21
341.98166431623417
 31
0.0
  0
LINE
  8
DETAIL
  6
CONTINUOUS
 62
     5
 10
-3.0042313117066901
 20
348.82582776175701
 30
0.0
 11
-5.1071932299012701
 21
348.82582776175701
 31
0.0
  0
LINE
  8
DETAIL
  6
CONTINUOUS
 62
     5
 10
-6.4090267986038043
 20
351.99576868799687
 30
0.0
 11
-3.0042313117066901
 21
351.99576868799687
 31
0.0
  0
LINE
  8
DETAIL
  6
CONTINUOUS
 62
     5
 10
-18.07888122541976
 20
269.40135437107011
 30
0.0
 11
-18.526093088561421
 21
270.17594804037691
 31
0.0
  0
ARC
  8
DETAIL
  6
CONTINUOUS
 62
     5
 10
-307.13258110043739
 20
-57.88152327191824
 30
0.0
 40
7.410437235246774
 50
180.0
 51
270.0
  0
ARC
  8
DETAIL
  6
CONTINUOUS
 62
     5
 10
-310.51484485160768
 20
-48.568406205627753
 30
0.0
 40
6.5316995765726018
 50
133.8973981671061
 51
226.1026018328939
  0
ARC
  8
DETAIL
  6
CONTINUOUS
 62
     5
 10
-173.2440056414529
 20
-310.43723554331473
 30
0.0
 40
2.0028208741748021
 50
180.0
 51
0.0
  0
ARC
  8
DETAIL
  6
CONTINUOUS
 62
     5
 10
-307.13258110043739
 20
57.881523271918013
 30
0.0
 40
7.410437235246774
 50
90.0
 51
180.0
  0
ARC
  8
DETAIL
  6
CONTINUOUS
 62
     5
 10
-173.2440056414529
 20
310.4372355433145
 30
0.0
 40
2.002820874174859
 50
0.0
 51
180.0
  0
ARC
  8
DETAIL
  6
CONTINUOUS
 62
     5
 10
-6.4090267986038043
 20
-348.39069111394929
 30
0.0
 40
3.605077574047868
 50
180.0
 51
270.0
  0
ARC
  8
DETAIL
  6
CONTINUOUS
 62
     5
 10
-16.423131170366901
 20
-242.54565410413471
 30
0.0
 40
3.605077574047868
 50
180.0
 51
270.0
  0
ARC
  8
DETAIL
  6
CONTINUOUS
 62
     5
 10
-16.423131170366901
 20
-338.37658674218619
 30
0.0
 40
3.605077574047868
 50
180.0
 51
270.0
  0
ARC
  8
DETAIL
  6
CONTINUOUS
 62
     5
 10
-6.4090267986038043
 20
-284.32379664925202
 30
0.0
 40
3.605077574047868
 50
180.0
 51
270.0
  0
ARC
  8
DETAIL
  6
CONTINUOUS
 62
     5
 10
-13.018335684358529
 20
-249.1549629898891
 30
0.0
 40
3.0042313117065191
 50
0.0
 51
90.0
  0
ARC
  8
DETAIL
  6
CONTINUOUS
 62
     5
 10
-1.5021156558535149
 20
-353.49788434385079
 30
0.0
 40
1.502115655853288
 50
180.0
 51
0.0
  0
ARC
  8
DETAIL
  6
CONTINUOUS
 62
     5
 10
-6.4090267986038043
 20
284.32379664836282
 30
0.0
 40
3.605077574047983
 50
90.0
 51
180.0
  0
ARC
  8
DETAIL
  6
CONTINUOUS
 62
     5
 10
-16.423131170366901
 20
242.54565410413429
 30
0.0
 40
3.6050775740480958
 50
90.0
 51
180.0
  0
ARC
  8
DETAIL
  6
CONTINUOUS
 62
     5
 10
-16.423131170366901
 20
338.37658674218619
 30
0.0
 40
3.605077574047983
 50
90.0
 51
180.0
  0
ARC
  8
DETAIL
  6
CONTINUOUS
 62
     5
 10
-6.4090267986038043
 20
348.39069111394912
 30
0.0
 40
3.605077574047983
 50
90.0
 51
180.0
  0
ARC
  8
DETAIL
  6
CONTINUOUS
 62
     5
 10
-13.018335684358529
 20
249.1549629898889
 30
0.0
 40
3.0042313117065191
 50
270.0
 51
0.0
  0
ARC
  8
DETAIL
  6
CONTINUOUS
 62
     5
 10
-1.5021156558535149
 20
353.49788434385027
 30
0.0
 40
1.5021156558534019
 50
0.0
 51
180.0
  0
LINE
  8
DETAIL
  6
CONTINUOUS
 62
     5
 10
-5.1081636928450962
 20
348.36911618077988
 30
0.0
 11
-5.1071932299012701
 21
348.42260439744291
 31
0.0
  0
LINE
  8
DETAIL
  6
CONTINUOUS
 62
     5
 10
-250.35260930918221
 20
-85.620592383639178
 30
0.0
 11
-247.3483779974755
 21
-85.620592383639178
 31
0.0
  0
LINE
  8
DETAIL
  6
CONTINUOUS
 62
     5
 10
-250.35260930918221
 20
-63.536710476389999
 30
0.0
 11
-247.3483779974755
 21
-63.536710476389999
 31
0.0
  0
LINE
  8
DETAIL
  6
CONTINUOUS
 62
     5
 10
-250.35260930918221
 20
85.620592383638723
 30
0.0
 11
-247.3483779974755
 21
85.620592383638723
 31
0.0
  0
LINE
  8
BASIS
  6
DASHDOT
 62
     6
 10
92.011608629149123
 20
0.0
 30
0.0
 11
-340.17840837028689
 21
0.0
 31
0.0
  0
ARC
  8
DETAIL
  6
CONTINUOUS
 62
     5
 10
-184.06638062597341
 20
198.63727477654899
 30
0.0
 40
107.7697636619833
 50
87.972660880020257
 51
165.50591031903591
  0
ARC
  8
DETAIL
  6
CONTINUOUS
 62
     5
 10
-182.85067255838911
 20
191.05313569584911
 30
0.0
 40
111.0681816461201
 50
88.660292403134093
 51
161.8725885470125
  0
ARC
  8
DETAIL
  6
CONTINUOUS
 62
     5
 10
-183.64846308338329
 20
205.63273584986021
 30
0.0
 40
69.633055928675773
 50
87.205745528095107
 51
163.32303383672419
  0
ARC
  8
DETAIL
  6
CONTINUOUS
 62
     5
 10
-7.1002690974299867
 20
289.49261466682577
 30
0.0
 40
2.931219635758056
 50
109.07404118164359
 51
173.75679371544669
  0
ARC
  8
DETAIL
  6
CONTINUOUS
 62
     5
 10
-9.2989664462573955
 20
302.56441624688517
 30
0.0
 40
10.37597213100309
 50
276.86812020395303
 51
307.34872166010638
  0
ARC
  8
DETAIL
  6
CONTINUOUS
 62
     5
 10
-8.1483459172260382
 20
289.54220946485287
 30
0.0
 40
6.3777881209362297
 50
103.4388778411564
 51
177.581132244858
  0
ARC
  8
DETAIL
  6
CONTINUOUS
 62
     5
 10
-10.06194669379545
 20
301.32313712040201
 30
0.0
 40
5.5944278253350124
 50
274.4221178543371
 51
332.33268578826988
  0
ARC
  8
DETAIL
  6
CONTINUOUS
 62
     5
 10
-8.3688460630662576
 20
339.26063795031951
 30
0.0
 40
6.1527375182774531
 50
105.0041296304841
 51
178.90079280990221
  0
ARC
  8
DETAIL
  6
CONTINUOUS
 62
     5
 10
-10.37912032492522
 20
351.42337276569373
 30
0.0
 40
6.2337514023928327
 50
273.83929008306882
 51
327.55392202333542
  0
ARC
  8
DETAIL
  6
CONTINUOUS
 62
     5
 10
-41.813261283919473
 20
335.95996064647619
 30
0.0
 40
21.875715805444681
 50
298.89270677545579
 51
354.7817812221283
  0
ARC
  8
DETAIL
  6
CONTINUOUS
 62
     5
 10
-70.164885630096592
 20
378.00452366244281
 30
0.0
 40
72.525736644336831
 50
278.83632494450728
 51
302.4562522785688
  0
ARC
  8
DETAIL
  6
CONTINUOUS
 62
     5
 10
-184.06638062597349
 20
-198.63727477654899
 30
0.0
 40
107.7697636619833
 50
194.49408968096409
 51
272.02733911997967
  0
ARC
  8
DETAIL
  6
CONTINUOUS
 62
     5
 10
-182.85067255838919
 20
-191.05313569584911
 30
0.0
 40
111.0681816461201
 50
198.1274114529875
 51
271.33970759686588
  0
ARC
  8
DETAIL
  6
CONTINUOUS
 62
     5
 10
-183.6484630833834
 20
-205.63273584986021
 30
0.0
 40
69.633055928675773
 50
196.67696616327581
 51
272.79425447190488
  0
ARC
  8
DETAIL
  6
CONTINUOUS
 62
     5
 10
-7.1002690974301004
 20
-289.49261466682577
 30
0.0
 40
2.931219635758056
 50
186.24320628455331
 51
250.92595881835641
  0
ARC
  8
DETAIL
  6
CONTINUOUS
 62
     5
 10
-9.3037866222002776
 20
-302.58306664363772
 30
0.0
 40
10.395065425252691
 50
52.698155184745168
 51
83.117795489389266
  0
ARC
  8
DETAIL
  6
CONTINUOUS
 62
     5
 10
-8.1483459172261519
 20
-289.54220946484918
 30
0.0
 40
6.3777881209362297
 50
182.418867755142
 51
256.56112215884372
  0
ARC
  8
DETAIL
  6
CONTINUOUS
 62
     5
 10
-10.06194669379556
 20
-301.32313712039831
 30
0.0
 40
5.5944278253350124
 50
27.667314211730091
 51
85.57788214566294
  0
ARC
  8
DETAIL
  6
CONTINUOUS
 62
     5
 10
-8.3688460630663712
 20
-339.26063795031951
 30
0.0
 40
6.1527375182774531
 50
181.09920719009779
 51
254.99587036951601
  0
ARC
  8
DETAIL
  6
CONTINUOUS
 62
     5
 10
-10.37912032492545
 20
-351.42337276569009
 30
0.0
 40
6.2337514023928327
 50
32.44607797666464
 51
86.160709916931182
  0
ARC
  8
DETAIL
  6
CONTINUOUS
 62
     5
 10
-41.813261283919701
 20
-335.95996064647619
 30
0.0
 40
21.875715805444681
 50
5.2182187778716633
 51
61.107293224544158
  0
ARC
  8
DETAIL
  6
CONTINUOUS
 62
     5
 10
-70.164885630096705
 20
-378.00452366243923
 30
0.0
 40
72.525736644336831
 50
57.54374772142971
 51
81.163675055492618
  0
ARC
  8
OUTLINE
  6
CONTINUOUS
 62
     3
 10
-184.06638062597349
 20
198.63727477654899
 30
0.0
 40
107.7697636619833
 50
87.972660880020257
 51
165.50591031903389
  0
ARC
  8
OUTLINE
  6
CONTINUOUS
 62
     3
 10
-8.3688460630663712
 20
339.26063795031951
 30
0.0
 40
6.1527375182774531
 50
105.0041296304841
 51
178.90079280990221
  0
ARC
  8
OUTLINE
  6
CONTINUOUS
 62
     3
 10
-41.813261283919587
 20
335.95996064647619
 30
0.0
 40
21.875715805444681
 50
298.89270677545579
 51
354.7817812221283
  0
ARC
  8
OUTLINE
  6
CONTINUOUS
 62
     3
 10
-70.164885630096705
 20
378.00452366244281
 30
0.0
 40
72.525736644336831
 50
278.83632494450728
 51
302.45625227857028
  0
ARC
  8
OUTLINE
  6
CONTINUOUS
 62
     3
 10
-184.06638062597361
 20
-198.63727477654899
 30
0.0
 40
107.7697636619833
 50
194.49408968096611
 51
272.02733911997967
  0
ARC
  8
OUTLINE
  6
CONTINUOUS
 62
     3
 10
-8.3688460630664849
 20
-339.26063795031951
 30
0.0
 40
6.1527375182774531
 50
181.09920719009779
 51
254.99587036951601
  0
ARC
  8
OUTLINE
  6
CONTINUOUS
 62
     3
 10
-41.813261283919807
 20
-335.95996064647619
 30
0.0
 40
21.875715805444681
 50
5.2182187778716633
 51
61.107293224544158
  0
ARC
  8
OUTLINE
  6
CONTINUOUS
 62
     3
 10
-70.164885630096819
 20
-378.00452366243923
 30
0.0
 40
72.525736644336831
 50
57.543747721428772
 51
81.163675055492618
  0
ENDSEC
  0
EOF
