  0
SECTION
  2
HEADER
  9
$ACADVER
  1
AC1009
  9
$DWGCODEPAGE
  3
dos932
  9
$INSBASE
 10
0.0
 20
0.0
 30
0.0
  9
$EXTMIN
 10
-679.77903623806742
 20
-459.18272756876291
 30
-0.0015258207003583
  9
$EXTMAX
 10
1020.574962732584
 20
592.80396310240394
 30
0.0000000349246037
  9
$LIMMIN
 10
-2970.0
 20
-2100.0
  9
$LIMMAX
 10
2970.0
 20
2100.0
  9
$ORTHOMODE
 70
     1
  9
$REGENMODE
 70
     1
  9
$FILLMODE
 70
     1
  9
$QTEXTMODE
 70
     0
  9
$MIRRTEXT
 70
     0
  9
$LTSCALE
 40
20.0
  9
$ATTMODE
 70
     1
  9
$TEXTSIZE
 40
64.0
  9
$TRACEWID
 40
0.05
  9
$TEXTSTYLE
  7
STANDARD
  9
$CLAYER
  8
SIZE
  9
$CELTYPE
  6
CONTINUOUS
  9
$CECOLOR
 62
     7
  9
$DIMSCALE
 40
1.0
  9
$DIMASZ
 40
12.0
  9
$DIMEXO
 40
20.0
  9
$DIMDLI
 40
200.0
  9
$DIMRND
 40
0.0
  9
$DIMDLE
 40
0.0
  9
$DIMEXE
 40
20.0
  9
$DIMTP
 40
0.0
  9
$DIMTM
 40
0.0
  9
$DIMTXT
 40
64.0
  9
$DIMCEN
 40
0.09
  9
$DIMTSZ
 40
0.0
  9
$DIMTOL
 70
     0
  9
$DIMLIM
 70
     0
  9
$DIMTIH
 70
     0
  9
$DIMTOH
 70
     0
  9
$DIMSE1
 70
     0
  9
$DIMSE2
 70
     0
  9
$DIMTAD
 70
     1
  9
$DIMZIN
 70
     8
  9
$DIMBLK
  1

  9
$DIMASO
 70
     1
  9
$DIMSHO
 70
     0
  9
$DIMPOST
  1

  9
$DIMAPOST
  1

  9
$DIMALT
 70
     0
  9
$DIMALTD
 70
     2
  9
$DIMALTF
 40
25.399999999999999
  9
$DIMLFAC
 40
1.0
  9
$DIMTOFL
 70
     1
  9
$DIMTVP
 40
0.0
  9
$DIMTIX
 70
     1
  9
$DIMSOXD
 70
     0
  9
$DIMSAH
 70
     0
  9
$DIMBLK1
  1

  9
$DIMBLK2
  1

  9
$DIMSTYLE
  2
STANDARD
  9
$DIMCLRD
 70
     7
  9
$DIMCLRE
 70
     7
  9
$DIMCLRT
 70
     7
  9
$DIMTFAC
 40
1.0
  9
$DIMGAP
 40
25.0
  9
$LUNITS
 70
     2
  9
$LUPREC
 70
     4
  9
$SKETCHINC
 40
0.1
  9
$FILLETRAD
 40
3.0
  9
$AUNITS
 70
     1
  9
$AUPREC
 70
     3
  9
$MENU
  1
ACAD
  9
$ELEVATION
 40
0.0
  9
$PELEVATION
 40
0.0
  9
$THICKNESS
 40
0.0
  9
$LIMCHECK
 70
     0
  9
$CHAMFERA
 40
0.0
  9
$CHAMFERB
 40
0.0
  9
$SKPOLY
 70
     0
  9
$TDCREATE
 40
2453019.62301037
  9
$TDUPDATE
 40
2458949.455956123
  9
$TDINDWG
 40
1.7127358912
  9
$TDUSRTIMER
 40
1.7127358912
  9
$USRTIMER
 70
     1
  9
$ANGBASE
 50
0.0
  9
$ANGDIR
 70
     0
  9
$PDMODE
 70
     3
  9
$PDSIZE
 40
-2.0
  9
$PLINEWID
 40
0.0
  9
$SPLFRAME
 70
     0
  9
$SPLINETYPE
 70
     6
  9
$SPLINESEGS
 70
     8
  9
$SURFTAB1
 70
     6
  9
$SURFTAB2
 70
     6
  9
$SURFTYPE
 70
     6
  9
$SURFU
 70
     6
  9
$SURFV
 70
     6
  9
$UCSNAME
  2

  9
$UCSORG
 10
0.0
 20
0.0
 30
0.0
  9
$UCSXDIR
 10
1.0
 20
0.0
 30
0.0
  9
$UCSYDIR
 10
0.0
 20
1.0
 30
0.0
  9
$PUCSNAME
  2

  9
$PUCSORG
 10
0.0
 20
0.0
 30
0.0
  9
$PUCSXDIR
 10
1.0
 20
0.0
 30
0.0
  9
$PUCSYDIR
 10
0.0
 20
1.0
 30
0.0
  9
$USERI1
 70
     0
  9
$USERI2
 70
     0
  9
$USERI3
 70
     0
  9
$USERI4
 70
     0
  9
$USERI5
 70
     0
  9
$USERR1
 40
20.0
  9
$USERR2
 40
0.0
  9
$USERR3
 40
0.0
  9
$USERR4
 40
0.0
  9
$USERR5
 40
0.0
  9
$WORLDVIEW
 70
     1
  9
$SHADEDGE
 70
     3
  9
$SHADEDIF
 70
    70
  9
$TILEMODE
 70
     1
  9
$MAXACTVP
 70
    48
  9
$PINSBASE
 10
0.0
 20
0.0
 30
0.0
  9
$PLIMCHECK
 70
     0
  9
$PEXTMIN
 10
-100000000000000000000.0
 20
-100000000000000000000.0
 30
-100000000000000000000.0
  9
$PEXTMAX
 10
100000000000000000000.0
 20
100000000000000000000.0
 30
100000000000000000000.0
  9
$PLIMMIN
 10
0.0
 20
0.0
  9
$PLIMMAX
 10
12.0
 20
9.0
  9
$UNITMODE
 70
     0
  9
$VISRETAIN
 70
     0
  9
$PLINEGEN
 70
     0
  9
$PSLTSCALE
 70
     0
  9
$TREEDEPTH
 70
  3020
  9
$ATTDIA
 70
     0
  9
$ATTREQ
 70
     1
  9
$BLIPMODE
 70
     1
  9
$COORDS
 70
     1
  9
$DRAGMODE
 70
     2
  9
$OSMODE
 70
     0
  9
$HANDLING
 70
     0
  9
$HANDSEED
  5
EF4F
  0
ENDSEC
  0
SECTION
  2
TABLES
  0
TABLE
  2
LTYPE
 70
     2
  0
LTYPE
  2
CONTINUOUS
 70
     0
  3
実線
 72
    65
 73
     0
 40
0.0
  0
LTYPE
  2
DASHDOT
 70
     0
  3
____ _ ____ _ ____ _ ____ _ ____ _ ____ _ ____
 72
    65
 73
     4
 40
5.5
 49
4.0
 49
-0.6
 49
0.3
 49
-0.6
  0
ENDTAB
  0
TABLE
  2
LAYER
 70
    12
  0
LAYER
  2
0
 70
     0
 62
     7
  6
CONTINUOUS
  0
LAYER
  2
BASIS
 70
     0
 62
     6
  6
DASHDOT
  0
LAYER
  2
OUTLINE
 70
     0
 62
     3
  6
CONTINUOUS
  0
LAYER
  2
DETAIL
 70
     0
 62
     5
  6
CONTINUOUS
  0
LAYER
  2
SIZE
 70
     0
 62
    30
  6
CONTINUOUS
  0
LAYER
  2
ARRANGE
 70
     0
 62
     1
  6
CONTINUOUS
  0
LAYER
  2
DEFPOINTS
 70
     0
 62
     7
  6
CONTINUOUS
  0
LAYER
  2
ETC
 70
     0
 62
    61
  6
CONTINUOUS
  0
LAYER
  2
FIX
 70
     0
 62
    11
  6
CONTINUOUS
  0
LAYER
  2
NOTE
 70
     0
 62
     4
  6
CONTINUOUS
  0
LAYER
  2
SERVICESPACE
 70
    64
 62
     2
  6
DASHDOT
  0
LAYER
  2
SYMBOLLINE
 70
    64
 62
    15
  6
CONTINUOUS
  0
ENDTAB
  0
TABLE
  2
STYLE
 70
     1
  0
STYLE
  2
STANDARD
 70
     0
 40
64.0
 41
0.9
 50
0.0
 71
     0
 42
64.0
  3
SIMPLEX.shx
  4
BIGFONT.shx
  0
ENDTAB
  0
TABLE
  2
APPID
 70
    19
  0
APPID
  2
ACAD
 70
     0
  0
APPID
  2
AUTOCAD_POSTSCRIPT_FIGURE
 70
     0
  0
APPID
  2
ACAD_EXEMPT_FROM_CAD_STANDARDS
 70
     0
  0
APPID
  2
ACAD_PSEXT
 70
     0
  0
APPID
  2
ACAUTHENVIRON
 70
     0
  0
APPID
  2
GENIUS_GENOENT_13
 70
     0
  0
APPID
  2
GENIUS_GENCFG_13
 70
     0
  0
APPID
  2
GENIUS_GENCFG0_13
 70
     0
  0
APPID
  2
GENIUS_GENCFG1_13
 70
     0
  0
APPID
  2
GENIUS_GENCFG2_13
 70
     0
  0
APPID
  2
GENIUS_GENCFG3_13
 70
     0
  0
APPID
  2
GENIUS_GENCFG4_13
 70
     0
  0
APPID
  2
GENIUS_GEVCFG0_13
 70
     0
  0
APPID
  2
CONTENTBLOCKICON
 70
     0
  0
APPID
  2
CONTENTBLOCKDESCRIPTION
 70
     0
  0
APPID
  2
ACAD_NAV_VCDISPLAY
 70
     0
  0
APPID
  2
ACAD_MLEADERVER
 70
     0
  0
APPID
  2
ACDBDYNAMICBLOCKTRUENAME
 70
     0
  0
APPID
  2
ACDBDYNAMICBLOCKGUID
 70
     0
  0
ENDTAB
  0
TABLE
  2
DIMSTYLE
 70
     1
  0
DIMSTYLE
  2
STANDARD
 70
     0
  3

  4

  5
_ORIGIN
  6

  7

 40
1.0
 41
12.0
 42
20.0
 43
200.0
 44
20.0
 45
0.0
 46
0.0
 47
0.0
 48
0.0
140
64.0
141
0.09
142
0.0
143
25.399999999999999
144
1.0
145
0.0
146
1.0
147
25.0
 71
     0
 72
     0
 73
     0
 74
     0
 75
     0
 76
     0
 77
     1
 78
     8
170
     0
171
     2
172
     1
173
     0
174
     1
175
     0
176
     7
177
     7
178
     7
  0
ENDTAB
  0
TABLE
  2
VIEW
 70
     1
  0
VIEW
  2
ALL
 70
     0
 40
4282.6198079999986
 10
0.0
 20
41.309904000000003
 41
5940.0
 11
0.0
 21
0.0
 31
1.0
 12
0.0
 22
0.0
 32
0.0
 42
50.0
 43
0.0
 44
0.0
 50
0.0
 71
     0
  0
ENDTAB
  0
TABLE
  2
UCS
 70
     0
  0
ENDTAB
  0
TABLE
  2
VPORT
 70
     1
  0
VPORT
  2
*ACTIVE
 70
     0
 10
0.0
 20
0.0
 11
1.0
 21
1.0
 12
170.3979632472583
 22
66.810617766820542
 13
0.0
 23
0.0
 14
1.0
 24
1.0
 15
0.0
 25
0.0
 16
0.0
 26
0.0
 36
1.0
 17
0.0
 27
0.0
 37
0.0
 40
1058.9611880678819
 41
1.747787610619469
 42
50.0
 43
0.0
 44
0.0
 50
0.0
 51
0.0
 71
     0
 72
  1000
 73
     1
 74
     3
 75
     0
 76
     0
 77
     0
 78
     0
  0
ENDTAB
  0
ENDSEC
  0
SECTION
  2
BLOCKS
  0
BLOCK
  8
0
  2
_ORIGIN
 70
     0
 10
0.0
 20
0.0
 30
0.0
  3
_ORIGIN
  1
_ORIGIN
  0
CIRCLE
  8
0
  6
CONTINUOUS
 62
     7
 10
0.0
 20
0.0
 30
0.0
 40
0.5
  0
LINE
  8
0
  6
CONTINUOUS
 62
     7
 10
0.0
 20
0.0
 30
0.0
 11
-1.0
 21
0.0
 31
0.0
  0
ENDBLK
  8
0
  0
ENDSEC
  0
SECTION
  2
ENTITIES
  0
TEXT
  8
ETC
  6
CONTINUOUS
 62
    61
 10
422.30381501208291
 20
528.5483987401177
 30
0.0
 40
64.0
  1
EWG-60ETA2_1
 41
0.9
  0
TEXT
  8
ETC
  6
CONTINUOUS
 62
    61
 10
418.11782101208252
 20
410.59308872528658
 30
0.0
 40
64.0
  1
産業扇
 41
0.9
  0
CIRCLE
  8
ARRANGE
  6
CONTINUOUS
 62
     1
 10
0.0
 20
0.0
 30
0.0
 40
40.0
  0
POINT
  8
ARRANGE
  6
CONTINUOUS
 62
     1
 10
0.0
 20
0.0
 30
0.0
  0
LINE
  8
SIZE
  6
CONTINUOUS
 62
    30
 10
-354.99999996909611
 20
18.497576736672041
 30
0.0
 11
-354.99999996909611
 21
264.96668498765212
 31
0.0
  0
LINE
  8
SIZE
  6
CONTINUOUS
 62
    30
 10
354.99999999970419
 20
18.497884344146431
 30
0.0
 11
354.99999999970419
 21
264.96668498765212
 31
0.0
  0
LINE
  8
SIZE
  6
CONTINUOUS
 62
    30
 10
-342.99999996909611
 20
244.9666849876522
 30
0.0
 11
342.99999999970419
 21
244.9666849876522
 31
0.0
  0
CIRCLE
  8
SIZE
  6
CONTINUOUS
 62
    30
 10
-354.99999996909611
 20
244.9666849876522
 30
0.0
 40
6.0
  0
LINE
  8
SIZE
  6
CONTINUOUS
 62
    30
 10
-354.99999996909611
 20
244.9666849876522
 30
0.0
 11
-342.99999996909611
 21
244.9666849876522
 31
0.0
  0
CIRCLE
  8
SIZE
  6
CONTINUOUS
 62
    30
 10
354.99999999970419
 20
244.9666849876522
 30
0.0
 40
6.0
  0
LINE
  8
SIZE
  6
CONTINUOUS
 62
    30
 10
354.99999999970419
 20
244.9666849876522
 30
0.0
 11
342.99999999970419
 21
244.9666849876522
 31
0.0
  0
TEXT
  8
SIZE
  6
CONTINUOUS
 62
    30
 10
-69.348778645907615
 20
269.96668498765212
 30
0.0
 40
64.0
  1
710
 41
0.9
 72
     1
 11
-0.7773500744790454
 21
269.96668498765212
 31
0.0
  0
POINT
  8
DEFPOINTS
  6
CONTINUOUS
 62
    30
 10
-354.99999996909611
 20
-1.5024232633279551
 30
0.0
  0
POINT
  8
DEFPOINTS
  6
CONTINUOUS
 62
    30
 10
354.99999999970419
 20
-1.502115655853572
 30
0.0
  0
POINT
  8
DEFPOINTS
  6
CONTINUOUS
 62
    30
 10
354.99999999970419
 20
244.9666849876522
 30
0.0
  0
LINE
  8
SIZE
  6
CONTINUOUS
 62
    30
 10
-325.45839210095852
 20
36.335668001699673
 30
0.0
 11
-325.45839210095852
 21
151.39419561661629
 31
0.0
  0
LINE
  8
SIZE
  6
CONTINUOUS
 62
    30
 10
325.45839210095892
 20
36.335668001699453
 30
0.0
 11
325.45839210095892
 21
151.39419561661629
 31
0.0
  0
LINE
  8
SIZE
  6
CONTINUOUS
 62
    30
 10
-313.45839210095852
 20
131.39419561661629
 30
0.0
 11
313.45839210095892
 21
131.39419561661629
 31
0.0
  0
CIRCLE
  8
SIZE
  6
CONTINUOUS
 62
    30
 10
-325.45839210095852
 20
131.39419561661629
 30
0.0
 40
6.0
  0
LINE
  8
SIZE
  6
CONTINUOUS
 62
    30
 10
-325.45839210095852
 20
131.39419561661629
 30
0.0
 11
-313.45839210095852
 21
131.39419561661629
 31
0.0
  0
CIRCLE
  8
SIZE
  6
CONTINUOUS
 62
    30
 10
325.45839210095892
 20
131.39419561661629
 30
0.0
 40
6.0
  0
LINE
  8
SIZE
  6
CONTINUOUS
 62
    30
 10
325.45839210095892
 20
131.39419561661629
 30
0.0
 11
313.45839210095892
 21
131.39419561661629
 31
0.0
  0
TEXT
  8
SIZE
  6
CONTINUOUS
 62
    30
 10
-74.05714285714285
 20
156.39419561661629
 30
0.0
 40
64.0
  1
650
 41
0.9
 72
     1
 11
0.0
 21
156.39419561661629
 31
0.0
  0
POINT
  8
DEFPOINTS
  6
CONTINUOUS
 62
    30
 10
-325.45839210095852
 20
16.33566800169967
 30
0.0
  0
POINT
  8
DEFPOINTS
  6
CONTINUOUS
 62
    30
 10
325.45839210095892
 20
16.33566800169945
 30
0.0
  0
POINT
  8
DEFPOINTS
  6
CONTINUOUS
 62
    30
 10
325.45839210095892
 20
131.39419561661629
 30
0.0
  0
CIRCLE
  8
FIX
  6
CONTINUOUS
 62
    11
 10
-325.41691326098498
 20
0.0000000000000568
 30
0.0
 40
7.0
  0
CIRCLE
  8
FIX
  6
CONTINUOUS
 62
    11
 10
325.45839210095892
 20
0.0
 30
0.0
 40
7.0
  0
LINE
  8
SIZE
  6
CONTINUOUS
 62
    30
 10
373.49788434385073
 20
-0.0000000000001137
 30
0.0
 11
514.65450365862307
 21
-0.0000000000001705
 31
0.0
  0
LINE
  8
SIZE
  6
CONTINUOUS
 62
    30
 10
368.39069111394929
 20
-10.014104372651669
 30
0.0
 11
514.65450365862307
 21
-10.01410437265173
 31
0.0
  0
LINE
  8
SIZE
  6
CONTINUOUS
 62
    30
 10
494.65450365862313
 20
-22.01410437265173
 30
0.0
 11
494.65450365862313
 21
-34.01410437265173
 31
0.0
  0
LINE
  8
SIZE
  6
CONTINUOUS
 62
    30
 10
494.65450365862313
 20
11.999999999999829
 30
0.0
 11
494.65450365862313
 21
157.2996127395696
 31
0.0
  0
LINE
  8
SIZE
  6
CONTINUOUS
 62
    30
 10
494.65450365862313
 20
-10.01410437265173
 30
0.0
 11
494.65450365862313
 21
-0.0000000000001705
 31
0.0
  0
CIRCLE
  8
SIZE
  6
CONTINUOUS
 62
    30
 10
494.65450365862313
 20
-10.01410437265173
 30
0.0
 40
6.0
  0
LINE
  8
SIZE
  6
CONTINUOUS
 62
    30
 10
494.65450365862313
 20
-10.01410437265173
 30
0.0
 11
494.65450365862313
 21
-22.01410437265173
 31
0.0
  0
CIRCLE
  8
SIZE
  6
CONTINUOUS
 62
    30
 10
494.65450365862313
 20
-0.0000000000001705
 30
0.0
 40
6.0
  0
LINE
  8
SIZE
  6
CONTINUOUS
 62
    30
 10
494.65450365862313
 20
-0.0000000000001705
 30
0.0
 11
494.65450365862313
 21
11.999999999999829
 31
0.0
  0
TEXT
  8
SIZE
  6
CONTINUOUS
 62
    30
 10
469.65450365862313
 20
50.013898453855383
 30
0.0
 40
64.0
  1
10
 50
90.0
 41
0.9
 72
     1
 11
469.65450365862313
 21
91.156755596712514
 31
0.0
  0
POINT
  8
DEFPOINTS
  6
CONTINUOUS
 62
    30
 10
353.49788434385073
 20
-0.0000000000001137
 30
0.0
  0
POINT
  8
DEFPOINTS
  6
CONTINUOUS
 62
    30
 10
348.39069111394929
 20
-10.014104372651669
 30
0.0
  0
POINT
  8
DEFPOINTS
  6
CONTINUOUS
 62
    30
 10
494.65450365862313
 20
-10.01410437265173
 30
0.0
  0
LINE
  8
SIZE
  6
CONTINUOUS
 62
    30
 10
368.39069111394929
 20
-10.014104372651669
 30
0.0
 11
514.65450365862307
 21
-10.01410437265173
 31
0.0
  0
LINE
  8
SIZE
  6
CONTINUOUS
 62
    30
 10
358.37658674129761
 20
-20.02820874530369
 30
0.0
 11
514.65450365862307
 21
-20.02820874530374
 31
0.0
  0
LINE
  8
SIZE
  6
CONTINUOUS
 62
    30
 10
494.65450365862313
 20
1.98589562734827
 30
0.0
 11
494.65450365862313
 21
13.98589562734827
 31
0.0
  0
LINE
  8
SIZE
  6
CONTINUOUS
 62
    30
 10
494.65450365862313
 20
-32.028208745303743
 30
0.0
 11
494.65450365862313
 21
-256.25304604125603
 31
0.0
  0
LINE
  8
SIZE
  6
CONTINUOUS
 62
    30
 10
494.65450365862313
 20
-10.01410437265173
 30
0.0
 11
494.65450365862313
 21
-20.02820874530374
 31
0.0
  0
CIRCLE
  8
SIZE
  6
CONTINUOUS
 62
    30
 10
494.65450365862313
 20
-10.01410437265173
 30
0.0
 40
6.0
  0
LINE
  8
SIZE
  6
CONTINUOUS
 62
    30
 10
494.65450365862313
 20
-10.01410437265173
 30
0.0
 11
494.65450365862313
 21
1.98589562734827
 31
0.0
  0
CIRCLE
  8
SIZE
  6
CONTINUOUS
 62
    30
 10
494.65450365862313
 20
-20.02820874530374
 30
0.0
 40
6.0
  0
LINE
  8
SIZE
  6
CONTINUOUS
 62
    30
 10
494.65450365862313
 20
-20.02820874530374
 30
0.0
 11
494.65450365862313
 21
-32.028208745303743
 31
0.0
  0
TEXT
  8
SIZE
  6
CONTINUOUS
 62
    30
 10
469.65450365862313
 20
-231.253046041256
 30
0.0
 40
64.0
  1
10
 50
90.0
 41
0.9
 72
     1
 11
469.65450365862313
 21
-190.11018889839889
 31
0.0
  0
POINT
  8
DEFPOINTS
  6
CONTINUOUS
 62
    30
 10
348.39069111394929
 20
-10.014104372651669
 30
0.0
  0
POINT
  8
DEFPOINTS
  6
CONTINUOUS
 62
    30
 10
338.37658674129761
 20
-20.02820874530369
 30
0.0
  0
POINT
  8
DEFPOINTS
  6
CONTINUOUS
 62
    30
 10
494.65450365862313
 20
-20.02820874530374
 30
0.0
  0
LINE
  8
SIZE
  6
CONTINUOUS
 62
    30
 10
373.49788434385073
 20
-0.0000000000001137
 30
0.0
 11
656.21331117497175
 21
-0.0000000000002274
 31
0.0
  0
LINE
  8
SIZE
  6
CONTINUOUS
 62
    30
 10
370.00897038022572
 20
-119.40255087195089
 30
0.0
 11
656.21331117497175
 21
-119.40255087195099
 31
0.0
  0
LINE
  8
SIZE
  6
CONTINUOUS
 62
    30
 10
636.21331117497175
 20
-12.000000000000171
 30
0.0
 11
636.21331117497175
 21
-107.40255087195099
 31
0.0
  0
LINE
  8
SIZE
  6
CONTINUOUS
 62
    30
 10
636.21331117497175
 20
-119.40255087195099
 30
0.0
 11
636.21331117497175
 21
-304.83112230052222
 31
0.0
  0
CIRCLE
  8
SIZE
  6
CONTINUOUS
 62
    30
 10
636.21331117497175
 20
-0.0000000000001705
 30
0.0
 40
6.0
  0
LINE
  8
SIZE
  6
CONTINUOUS
 62
    30
 10
636.21331117497175
 20
-0.0000000000001705
 30
0.0
 11
636.21331117497175
 21
-12.000000000000171
 31
0.0
  0
CIRCLE
  8
SIZE
  6
CONTINUOUS
 62
    30
 10
636.21331117497175
 20
-119.40255087195099
 30
0.0
 40
6.0
  0
LINE
  8
SIZE
  6
CONTINUOUS
 62
    30
 10
636.21331117497175
 20
-119.40255087195099
 30
0.0
 11
636.21331117497175
 21
-107.40255087195099
 31
0.0
  0
TEXT
  8
SIZE
  6
CONTINUOUS
 62
    30
 10
611.21331117497175
 20
-279.83112230052228
 30
0.0
 40
64.0
  1
119
 50
90.0
 41
0.9
 72
     1
 11
611.21331117497175
 21
-218.11683658623659
 31
0.0
  0
POINT
  8
DEFPOINTS
  6
CONTINUOUS
 62
    30
 10
353.49788434385073
 20
-0.0000000000001137
 30
0.0
  0
POINT
  8
DEFPOINTS
  6
CONTINUOUS
 62
    30
 10
350.00897038022572
 20
-119.40255087195089
 30
0.0
  0
POINT
  8
DEFPOINTS
  6
CONTINUOUS
 62
    30
 10
636.21331117497175
 20
-119.40255087195099
 30
0.0
  0
TEXT
  8
NOTE
  6
CONTINUOUS
 62
     4
 10
-672.20697365316414
 20
89.566182407517999
 30
0.0
 40
64.0
  1
4-φ14
 41
0.9
  0
LINE
  8
SIZE
  6
CONTINUOUS
 62
    30
 10
-373.49788434473908
 20
0.0
 30
0.0
 11
-384.5966677755473
 21
0.0
 31
0.0
  0
LINE
  8
SIZE
  6
CONTINUOUS
 62
    30
 10
-20.00000000001819
 20
-291.01028964120428
 30
0.0
 11
-384.5966677755473
 21
-291.01028964120411
 31
0.0
  0
LINE
  8
SIZE
  6
CONTINUOUS
 62
    30
 10
-364.5966677755473
 20
-12.0
 30
0.0
 11
-364.5966677755473
 21
-279.01028964120428
 31
0.0
  0
CIRCLE
  8
SIZE
  6
CONTINUOUS
 62
    30
 10
-364.5966677755473
 20
0.0
 30
0.0
 40
6.0
  0
LINE
  8
SIZE
  6
CONTINUOUS
 62
    30
 10
-364.5966677755473
 20
0.0
 30
0.0
 11
-364.5966677755473
 21
-12.0
 31
0.0
  0
CIRCLE
  8
SIZE
  6
CONTINUOUS
 62
    30
 10
-364.5966677755473
 20
-291.01028964120428
 30
0.0
 40
6.0
  0
LINE
  8
SIZE
  6
CONTINUOUS
 62
    30
 10
-364.5966677755473
 20
-291.01028964120428
 30
0.0
 11
-364.5966677755473
 21
-279.01028964120428
 31
0.0
  0
TEXT
  8
SIZE
  6
CONTINUOUS
 62
    30
 10
-389.5966677755473
 20
-207.21943053488789
 30
0.0
 40
64.0
  1
291
 50
90.0
 41
0.9
 72
     1
 11
-389.5966677755473
 21
-145.50514482060211
 31
0.0
  0
POINT
  8
DEFPOINTS
  6
CONTINUOUS
 62
    30
 10
-353.49788434473908
 20
0.0
 30
0.0
  0
POINT
  8
DEFPOINTS
  6
CONTINUOUS
 62
    30
 10
-0.0000000000181899
 20
-291.01028964120428
 30
0.0
  0
POINT
  8
DEFPOINTS
  6
CONTINUOUS
 62
    30
 10
-364.5966677755473
 20
-291.01028964120428
 30
0.0
  0
LINE
  8
DETAIL
  6
CONTINUOUS
 62
     4
 10
-328.12166777214662
 20
5.4966390564275676
 30
0.0
 11
-325.35826913251441
 21
-0.0664830210104697
 31
0.0
  0
LINE
  8
DETAIL
  6
CONTINUOUS
 62
     4
 10
-325.35826913251441
 20
-0.0664830210104697
 30
0.0
 11
-330.53300877195028
 21
3.3696149045512702
 31
0.0
  0
LINE
  8
DETAIL
  6
CONTINUOUS
 62
     4
 10
-325.35826913251441
 20
-0.0664830210104697
 30
0.0
 11
-333.29640741158249
 21
8.9327369819893079
 31
0.0
  0
LINE
  8
NOTE
  6
CONTINUOUS
 62
     4
 10
-333.29640741158249
 20
8.9327369819893079
 30
0.0
 11
-381.4618620120159
 21
63.536411956604979
 31
0.0
  0
LINE
  8
NOTE
  6
CONTINUOUS
 62
     4
 10
-381.4618620120159
 20
63.536411956604979
 30
0.0
 11
-679.33042425704969
 21
63.697866805785338
 31
0.0
  0
LINE
  8
SIZE
  6
CONTINUOUS
 62
    30
 10
-65.291960508053307
 20
-301.09590973260958
 30
0.0
 11
-65.291960508053307
 21
-459.08713494128818
 31
0.0
  0
LINE
  8
SIZE
  6
CONTINUOUS
 62
    30
 10
65.305331179321456
 20
-301.09590973260958
 30
0.0
 11
65.305331179321456
 21
-459.08713494128818
 31
0.0
  0
LINE
  8
SIZE
  6
CONTINUOUS
 62
    30
 10
-53.291960508053307
 20
-439.08713494128818
 30
0.0
 11
53.305331179321463
 21
-439.08713494128818
 31
0.0
  0
LINE
  8
SIZE
  6
CONTINUOUS
 62
    30
 10
65.305331179321456
 20
-439.08713494128818
 30
0.0
 11
300.10533117932141
 21
-439.08713494128818
 31
0.0
  0
CIRCLE
  8
SIZE
  6
CONTINUOUS
 62
    30
 10
-65.291960508053307
 20
-439.08713494128818
 30
0.0
 40
6.0
  0
LINE
  8
SIZE
  6
CONTINUOUS
 62
    30
 10
-65.291960508053307
 20
-439.08713494128818
 30
0.0
 11
-53.291960508053307
 21
-439.08713494128818
 31
0.0
  0
CIRCLE
  8
SIZE
  6
CONTINUOUS
 62
    30
 10
65.305331179321456
 20
-439.08713494128818
 30
0.0
 40
6.0
  0
LINE
  8
SIZE
  6
CONTINUOUS
 62
    30
 10
65.305331179321456
 20
-439.08713494128818
 30
0.0
 11
53.305331179321463
 21
-439.08713494128818
 31
0.0
  0
TEXT
  8
SIZE
  6
CONTINUOUS
 62
    30
 10
92.156759750749899
 20
-403.42046827462173
 30
0.0
 40
64.0
  1
φ131
 41
0.9
 72
     1
 11
188.70533117932129
 21
-403.42046827462173
 31
0.0
  0
POINT
  8
DEFPOINTS
  6
CONTINUOUS
 62
    30
 10
-65.291960508053307
 20
-281.09590973260958
 30
0.0
  0
POINT
  8
DEFPOINTS
  6
CONTINUOUS
 62
    30
 10
65.305331179321456
 20
-281.09590973260958
 30
0.0
  0
POINT
  8
DEFPOINTS
  6
CONTINUOUS
 62
    30
 10
65.305331179321456
 20
-439.08713494128818
 30
0.0
  0
LINE
  8
OUTLINE
  6
CONTINUOUS
 62
     3
 10
-4.7066290555994783
 20
-289.00705218617799
 30
0.0
 11
4.706629054710902
 21
-289.00705218617799
 31
0.0
  0
LINE
  8
OUTLINE
  6
CONTINUOUS
 62
     3
 10
57.88152327191824
 20
-288.50634696785642
 30
0.0
 11
-57.881523272806589
 21
-288.50634696785642
 31
0.0
  0
LINE
  8
OUTLINE
  6
CONTINUOUS
 62
     3
 10
89.626234131988667
 20
-266.37517630524718
 30
0.0
 11
65.291960507164731
 21
-266.37517630524718
 31
0.0
  0
LINE
  8
OUTLINE
  6
CONTINUOUS
 62
     3
 10
-229.8643371280366
 20
-262.3695345560086
 30
0.0
 11
-89.626234132877016
 21
-262.3695345560086
 31
0.0
  0
LINE
  8
OUTLINE
  6
CONTINUOUS
 62
     3
 10
89.626234131988667
 20
-262.3695345560086
 30
0.0
 11
229.86433712714819
 21
-262.3695345560086
 31
0.0
  0
LINE
  8
OUTLINE
  6
CONTINUOUS
 62
     3
 10
-351.99576868888562
 20
-6.4090267986038043
 30
0.0
 11
-351.99576868888562
 21
-3.0042313117066901
 31
0.0
  0
LINE
  8
OUTLINE
  6
CONTINUOUS
 62
     3
 10
-341.98166431623417
 20
-16.423131171255822
 30
0.0
 11
-341.98166431623417
 21
-13.88719676638493
 31
0.0
  0
LINE
  8
OUTLINE
  6
CONTINUOUS
 62
     3
 10
-302.09095644193798
 20
-160.22566995798351
 30
0.0
 11
-302.09095644193798
 21
-119.40255087195089
 31
0.0
  0
LINE
  8
OUTLINE
  6
CONTINUOUS
 62
     3
 10
-350.00897038111412
 20
-119.40255087195089
 30
0.0
 11
-302.09095644193798
 21
-119.40255087195089
 31
0.0
  0
LINE
  8
OUTLINE
  6
CONTINUOUS
 62
     3
 10
302.09095644104991
 20
-119.40255087195089
 30
0.0
 11
350.00897038022572
 21
-119.40255087195089
 31
0.0
  0
LINE
  8
OUTLINE
  6
CONTINUOUS
 62
     3
 10
-350.00897038111412
 20
-115.3969091236013
 30
0.0
 11
-335.54517989963188
 21
-115.3969091236013
 31
0.0
  0
LINE
  8
OUTLINE
  6
CONTINUOUS
 62
     3
 10
335.54517989874381
 20
-115.3969091236013
 30
0.0
 11
350.00897038022572
 21
-115.3969091236013
 31
0.0
  0
LINE
  8
OUTLINE
  6
CONTINUOUS
 62
     3
 10
338.37658674129761
 20
-20.02820874530369
 30
0.0
 11
333.97038081775759
 21
-20.02820874530369
 31
0.0
  0
LINE
  8
OUTLINE
  6
CONTINUOUS
 62
     3
 10
-333.97038081864588
 20
-20.02820874530369
 30
0.0
 11
-338.37658674218619
 21
-20.02820874530369
 31
0.0
  0
LINE
  8
OUTLINE
  6
CONTINUOUS
 62
     3
 10
348.39069111394929
 20
-10.014104372651669
 30
0.0
 11
345.18093089887861
 21
-10.014104372651669
 31
0.0
  0
LINE
  8
OUTLINE
  6
CONTINUOUS
 62
     3
 10
-345.18093089976668
 20
-10.014104372651669
 30
0.0
 11
-348.39069111483741
 21
-10.014104372651669
 31
0.0
  0
LINE
  8
OUTLINE
  6
CONTINUOUS
 62
     3
 10
353.49788434385073
 20
-3.0042313117066901
 30
0.0
 11
351.99576868799733
 21
-3.0042313117066901
 31
0.0
  0
LINE
  8
OUTLINE
  6
CONTINUOUS
 62
     3
 10
353.49788434385073
 20
0.0
 30
0.0
 11
-353.49788434473908
 21
0.0
 31
0.0
  0
LINE
  8
OUTLINE
  6
CONTINUOUS
 62
     3
 10
-89.626234132877016
 20
-266.37517630524718
 30
0.0
 11
-89.626234132877016
 21
-262.3695345560086
 31
0.0
  0
LINE
  8
OUTLINE
  6
CONTINUOUS
 62
     3
 10
-65.291960508053535
 20
-281.09590973260958
 30
0.0
 11
-65.291960508053535
 21
-266.37517630524718
 31
0.0
  0
LINE
  8
OUTLINE
  6
CONTINUOUS
 62
     3
 10
-4.7066290555994783
 20
-289.00705218617799
 30
0.0
 11
-4.7066290555994783
 21
-288.50634696785642
 31
0.0
  0
LINE
  8
OUTLINE
  6
CONTINUOUS
 62
     3
 10
4.706629054710902
 20
-289.00705218617799
 30
0.0
 11
4.706629054710902
 21
-288.50634696785642
 31
0.0
  0
LINE
  8
OUTLINE
  6
CONTINUOUS
 62
     3
 10
65.291960507164958
 20
-281.09590973260958
 30
0.0
 11
65.291960507164958
 21
-266.37517630524718
 31
0.0
  0
LINE
  8
OUTLINE
  6
CONTINUOUS
 62
     3
 10
89.626234131988667
 20
-266.37517630524718
 30
0.0
 11
89.626234131988667
 21
-262.3695345560086
 31
0.0
  0
LINE
  8
OUTLINE
  6
CONTINUOUS
 62
     3
 10
302.09095644104991
 20
-119.40255087195089
 30
0.0
 11
302.09095644104991
 21
-160.22566995798351
 31
0.0
  0
LINE
  8
OUTLINE
  6
CONTINUOUS
 62
     3
 10
341.9816643153456
 20
-13.88719676638493
 30
0.0
 11
341.9816643153456
 21
-16.423131171255822
 31
0.0
  0
LINE
  8
OUTLINE
  6
CONTINUOUS
 62
     3
 10
351.99576868799733
 20
-3.0042313117066901
 30
0.0
 11
351.99576868799733
 21
-6.4090267986038043
 31
0.0
  0
ARC
  8
OUTLINE
  6
CONTINUOUS
 62
     3
 10
-57.881523272806589
 20
-281.09590973260958
 30
0.0
 40
7.410437235246718
 50
180.0
 51
270.0
  0
ARC
  8
OUTLINE
  6
CONTINUOUS
 62
     3
 10
-338.37658674218619
 20
-16.423131171255822
 30
0.0
 40
3.6050775740480958
 50
180.0
 51
270.0
  0
ARC
  8
OUTLINE
  6
CONTINUOUS
 62
     3
 10
-348.39069111483741
 20
-6.4090267986038043
 30
0.0
 40
3.605077574047868
 50
180.0
 51
270.0
  0
ARC
  8
OUTLINE
  6
CONTINUOUS
 62
     3
 10
-350.00897038111412
 20
-117.39972999777601
 30
0.0
 40
2.0028208741747449
 50
90.0
 51
270.0
  0
ARC
  8
OUTLINE
  6
CONTINUOUS
 62
     3
 10
-353.49788434473908
 20
-1.502115655853572
 30
0.0
 40
1.502115655853459
 50
90.0
 51
270.0
  0
ARC
  8
OUTLINE
  6
CONTINUOUS
 62
     3
 10
0.0000000000002274
 20
-284.47817348378021
 30
0.0
 40
6.5316995765725041
 50
223.89739816710619
 51
316.10260183289381
  0
ARC
  8
OUTLINE
  6
CONTINUOUS
 62
     3
 10
57.88152327191824
 20
-281.09590973260958
 30
0.0
 40
7.4104372352466017
 50
270.0
 51
0.0
  0
ARC
  8
OUTLINE
  6
CONTINUOUS
 62
     3
 10
348.39069111394929
 20
-6.4090267986038043
 30
0.0
 40
3.605077574047868
 50
270.0
 51
0.0
  0
ARC
  8
OUTLINE
  6
CONTINUOUS
 62
     3
 10
338.37658674129761
 20
-16.423131171255822
 30
0.0
 40
3.605077574047868
 50
270.0
 51
0.0
  0
ARC
  8
OUTLINE
  6
CONTINUOUS
 62
     3
 10
350.00897038022572
 20
-117.39972999777601
 30
0.0
 40
2.002820874174859
 50
270.0
 51
90.0
  0
ARC
  8
OUTLINE
  6
CONTINUOUS
 62
     3
 10
353.49788434385073
 20
-1.502115655853572
 30
0.0
 40
1.502115655853459
 50
270.0
 51
90.0
  0
LINE
  8
OUTLINE
  6
CONTINUOUS
 62
     3
 10
-304.52891396392079
 20
-49.469675600028609
 30
0.0
 11
-304.52891396392079
 21
-69.497884344442923
 31
0.0
  0
LINE
  8
OUTLINE
  6
CONTINUOUS
 62
     3
 10
304.52891396303238
 20
-49.469675600028609
 30
0.0
 11
304.52891396303238
 21
-69.497884344442923
 31
0.0
  0
ARC
  8
OUTLINE
  6
CONTINUOUS
 62
     3
 10
-353.99858956306019
 20
-69.497884344442923
 30
0.0
 40
49.469675599139592
 50
291.8865553766932
 51
0.0
  0
ARC
  8
OUTLINE
  6
CONTINUOUS
 62
     3
 10
-333.97038081864588
 20
-49.469675600028609
 30
0.0
 40
29.441466854725039
 50
0.0
 51
90.0
  0
ARC
  8
OUTLINE
  6
CONTINUOUS
 62
     3
 10
353.99858956217213
 20
-69.497884344442923
 30
0.0
 40
49.469675599139578
 50
180.0
 51
248.11344462330669
  0
ARC
  8
OUTLINE
  6
CONTINUOUS
 62
     3
 10
333.97038081775759
 20
-49.469675600028609
 30
0.0
 40
29.441466854724919
 50
90.0
 51
180.0
  0
LINE
  8
DETAIL
  6
CONTINUOUS
 62
     5
 10
-4.7066290555994783
 20
-289.00705218617799
 30
0.0
 11
4.706629054710902
 21
-289.00705218617799
 31
0.0
  0
LINE
  8
DETAIL
  6
CONTINUOUS
 62
     5
 10
57.881523271918013
 20
-288.50634696785642
 30
0.0
 11
-57.881523272806589
 21
-288.50634696785642
 31
0.0
  0
LINE
  8
DETAIL
  6
CONTINUOUS
 62
     5
 10
89.626234131988895
 20
-266.37517630524718
 30
0.0
 11
-89.626234132877016
 21
-266.37517630524718
 31
0.0
  0
LINE
  8
DETAIL
  6
CONTINUOUS
 62
     5
 10
-229.86433712803679
 20
-262.3695345560086
 30
0.0
 11
-89.626234132877016
 21
-262.3695345560086
 31
0.0
  0
LINE
  8
DETAIL
  6
CONTINUOUS
 62
     5
 10
89.626234131988895
 20
-262.3695345560086
 30
0.0
 11
229.86433712714819
 21
-262.3695345560086
 31
0.0
  0
LINE
  8
DETAIL
  6
CONTINUOUS
 62
     5
 10
-351.99576868888562
 20
-6.4090267986038043
 30
0.0
 11
-351.99576868888562
 21
-3.0042313117066901
 31
0.0
  0
LINE
  8
DETAIL
  6
CONTINUOUS
 62
     5
 10
-348.82582776264547
 20
-3.0042313117066901
 30
0.0
 11
-348.82582776264547
 21
-5.1071932299014406
 31
0.0
  0
LINE
  8
DETAIL
  6
CONTINUOUS
 62
     5
 10
-1.4458654002596629
 20
-239.96640798175599
 30
0.0
 11
1.4457434551331969
 21
-239.96640798175599
 31
0.0
  0
LINE
  8
DETAIL
  6
CONTINUOUS
 62
     5
 10
-2.3808532114235281
 20
-239.16527963137531
 30
0.0
 11
2.3808671037718341
 21
-239.16527963137531
 31
0.0
  0
LINE
  8
DETAIL
  6
CONTINUOUS
 62
     5
 10
-225.61571246235621
 20
-230.32440056476781
 30
0.0
 11
-89.626234132877016
 21
-230.32440056476781
 31
0.0
  0
LINE
  8
DETAIL
  6
CONTINUOUS
 62
     5
 10
89.626234131988895
 20
-230.32440056476781
 30
0.0
 11
225.61571246146789
 21
-230.32440056476781
 31
0.0
  0
LINE
  8
DETAIL
  6
CONTINUOUS
 62
     5
 10
83.617771508575515
 20
-225.31734837799721
 30
0.0
 11
-83.617771509463637
 21
-225.31734837799721
 31
0.0
  0
LINE
  8
DETAIL
  6
CONTINUOUS
 62
     5
 10
-86.121297602849154
 20
-225.31734837799721
 30
0.0
 11
-83.826724816109163
 21
-225.31734837799721
 31
0.0
  0
LINE
  8
DETAIL
  6
CONTINUOUS
 62
     5
 10
83.826724815220587
 20
-225.31734837799721
 30
0.0
 11
86.121297601960578
 21
-225.31734837799721
 31
0.0
  0
LINE
  8
DETAIL
  6
CONTINUOUS
 62
     5
 10
-86.121297602849154
 20
-221.3117066296476
 30
0.0
 11
86.121297601960578
 21
-221.3117066296476
 31
0.0
  0
LINE
  8
DETAIL
  6
CONTINUOUS
 62
     5
 10
-61.033184383004482
 20
-214.8025387870241
 30
0.0
 11
-48.014848699534923
 21
-214.8025387870241
 31
0.0
  0
LINE
  8
DETAIL
  6
CONTINUOUS
 62
     5
 10
48.014848698646347
 20
-214.8025387870241
 30
0.0
 11
61.033184382115913
 21
-214.8025387870241
 31
0.0
  0
LINE
  8
DETAIL
  6
CONTINUOUS
 62
     5
 10
-341.98166431623417
 20
-16.423131171255822
 30
0.0
 11
-341.98166431623417
 21
-13.88719676638493
 31
0.0
  0
LINE
  8
DETAIL
  6
CONTINUOUS
 62
     5
 10
57.778600461692797
 20
-211.59802538816669
 30
0.0
 11
51.269432619069448
 21
-211.59802538816669
 31
0.0
  0
LINE
  8
DETAIL
  6
CONTINUOUS
 62
     5
 10
-51.269432619958017
 20
-211.59802538816669
 30
0.0
 11
-57.77860046258138
 21
-211.59802538816669
 31
0.0
  0
LINE
  8
DETAIL
  6
CONTINUOUS
 62
     5
 10
-80.004158473401731
 20
-181.25528913992969
 30
0.0
 11
80.004158472513154
 21
-181.25528913992969
 31
0.0
  0
LINE
  8
DETAIL
  6
CONTINUOUS
 62
     5
 10
-302.09095644193798
 20
-160.22566995798351
 30
0.0
 11
-302.09095644193798
 21
-14.520451340211819
 31
0.0
  0
LINE
  8
DETAIL
  6
CONTINUOUS
 62
     5
 10
-299.25853999785483
 20
-5.1071932299014406
 30
0.0
 11
-299.25853999785483
 21
-3.0042313117066901
 31
0.0
  0
LINE
  8
DETAIL
  6
CONTINUOUS
 62
     5
 10
-297.84233177625788
 20
-14.520451340211819
 30
0.0
 11
-297.84233177625788
 21
-160.22566995798351
 31
0.0
  0
LINE
  8
DETAIL
  6
CONTINUOUS
 62
     5
 10
-287.92887422329932
 20
-3.0042313117066901
 30
0.0
 11
-287.92887422329932
 21
-6.4090267986038043
 31
0.0
  0
LINE
  8
DETAIL
  6
CONTINUOUS
 62
     5
 10
-280.1900524130283
 20
-14.520451340211819
 30
0.0
 11
-280.1900524130283
 21
-18.526093089450001
 31
0.0
  0
LINE
  8
DETAIL
  6
CONTINUOUS
 62
     5
 10
-275.18300022625817
 20
-14.520451340211819
 30
0.0
 11
-275.18300022625817
 21
-18.078881226308571
 31
0.0
  0
LINE
  8
DETAIL
  6
CONTINUOUS
 62
     5
 10
-275.18300022625817
 20
-18.526093089450001
 30
0.0
 11
-275.18300022625817
 21
-160.22566995798351
 31
0.0
  0
LINE
  8
DETAIL
  6
CONTINUOUS
 62
     5
 10
-270.17594804037662
 20
-18.526093089450001
 30
0.0
 11
-270.17594804037662
 21
-14.520451340211819
 31
0.0
  0
LINE
  8
DETAIL
  6
CONTINUOUS
 62
     5
 10
-258.18850156442522
 20
-14.520451340211819
 30
0.0
 11
-258.18850156442522
 21
-10.014104372651669
 31
0.0
  0
LINE
  8
DETAIL
  6
CONTINUOUS
 62
     5
 10
-246.15073167907099
 20
-13.0183356843587
 30
0.0
 11
-246.15073167907099
 21
-16.423131171255822
 31
0.0
  0
LINE
  8
DETAIL
  6
CONTINUOUS
 62
     5
 10
-57.881523272806589
 20
-128.38081805389311
 30
0.0
 11
57.881523271918013
 21
-128.38081805389311
 31
0.0
  0
LINE
  8
DETAIL
  6
CONTINUOUS
 62
     5
 10
-13.018260333259599
 20
-127.8801128355715
 30
0.0
 11
13.01833568346956
 21
-127.8801128355715
 31
0.0
  0
LINE
  8
DETAIL
  6
CONTINUOUS
 62
     5
 10
26.0443218179621
 20
-124.5754583926943
 30
0.0
 11
-26.044321818850221
 21
-124.5754583926943
 31
0.0
  0
LINE
  8
DETAIL
  6
CONTINUOUS
 62
     5
 10
-350.00897038111412
 20
-119.40255087195089
 30
0.0
 11
-302.09095644193798
 21
-119.40255087195089
 31
0.0
  0
LINE
  8
DETAIL
  6
CONTINUOUS
 62
     5
 10
-275.18300022625817
 20
-119.40255087195089
 30
0.0
 11
275.18300022537011
 21
-119.40255087195089
 31
0.0
  0
LINE
  8
DETAIL
  6
CONTINUOUS
 62
     5
 10
302.09095644104991
 20
-119.40255087195089
 30
0.0
 11
350.00897038022589
 21
-119.40255087195089
 31
0.0
  0
LINE
  8
DETAIL
  6
CONTINUOUS
 62
     5
 10
-350.00897038111412
 20
-115.3969091236013
 30
0.0
 11
-302.09095644193798
 21
-115.3969091236013
 31
0.0
  0
LINE
  8
DETAIL
  6
CONTINUOUS
 62
     5
 10
-275.18300022625817
 20
-115.3969091236013
 30
0.0
 11
275.18300022537011
 21
-115.3969091236013
 31
0.0
  0
LINE
  8
DETAIL
  6
CONTINUOUS
 62
     5
 10
302.09095644104991
 20
-115.3969091236013
 30
0.0
 11
350.00897038022589
 21
-115.3969091236013
 31
0.0
  0
LINE
  8
DETAIL
  6
CONTINUOUS
 62
     5
 10
-10.507689323670091
 20
-127.83559002620601
 30
0.0
 11
-12.84947423387348
 21
-125.49378221184951
 31
0.0
  0
LINE
  8
DETAIL
  6
CONTINUOUS
 62
     5
 10
338.37658674129761
 20
-20.02820874530369
 30
0.0
 11
302.09095644104991
 21
-20.02820874530369
 31
0.0
  0
LINE
  8
DETAIL
  6
CONTINUOUS
 62
     5
 10
275.18300022537011
 20
-20.02820874530369
 30
0.0
 11
-275.18300022625817
 21
-20.02820874530369
 31
0.0
  0
LINE
  8
DETAIL
  6
CONTINUOUS
 62
     5
 10
-302.09095644193798
 20
-20.02820874530369
 30
0.0
 11
-338.37658674218619
 21
-20.02820874530369
 31
0.0
  0
LINE
  8
DETAIL
  6
CONTINUOUS
 62
     5
 10
311.34663329261178
 20
-18.526093089450001
 30
0.0
 11
302.09095644104991
 21
-18.526093089450001
 31
0.0
  0
LINE
  8
DETAIL
  6
CONTINUOUS
 62
     5
 10
-270.17594804037662
 20
-18.526093089450001
 30
0.0
 11
-280.1900524130283
 21
-18.526093089450001
 31
0.0
  0
LINE
  8
DETAIL
  6
CONTINUOUS
 62
     5
 10
339.50854830187558
 20
-14.520451340211819
 30
0.0
 11
258.18850156353659
 21
-14.520451340211819
 31
0.0
  0
LINE
  8
DETAIL
  6
CONTINUOUS
 62
     5
 10
-258.18850156442522
 20
-14.520451340211819
 30
0.0
 11
-339.50854830276398
 21
-14.520451340211819
 31
0.0
  0
LINE
  8
DETAIL
  6
CONTINUOUS
 62
     5
 10
348.39069111394929
 20
-10.014104372651669
 30
0.0
 11
345.18093089887861
 21
-10.014104372651669
 31
0.0
  0
LINE
  8
DETAIL
  6
CONTINUOUS
 62
     5
 10
284.32379664836299
 20
-10.014104372651669
 30
0.0
 11
-284.32379664925179
 21
-10.014104372651669
 31
0.0
  0
LINE
  8
DETAIL
  6
CONTINUOUS
 62
     5
 10
-284.32379664925179
 20
-10.014104372651669
 30
0.0
 11
-289.94126053886202
 21
-10.014104372651669
 31
0.0
  0
LINE
  8
DETAIL
  6
CONTINUOUS
 62
     5
 10
-345.18093089976668
 20
-10.014104372651669
 30
0.0
 11
-348.39069111483741
 21
-10.014104372651669
 31
0.0
  0
LINE
  8
DETAIL
  6
CONTINUOUS
 62
     5
 10
284.32379664836299
 20
-10.014104372651669
 30
0.0
 11
289.94126053797339
 21
-10.014104372651669
 31
0.0
  0
LINE
  8
DETAIL
  6
CONTINUOUS
 62
     5
 10
348.82582776175741
 20
-5.1071932299014406
 30
0.0
 11
298.85531663265238
 21
-5.1071932299014406
 31
0.0
  0
LINE
  8
DETAIL
  6
CONTINUOUS
 62
     5
 10
-348.82582776264547
 20
-5.1071932299014406
 30
0.0
 11
-298.8553166335405
 21
-5.1071932299014406
 31
0.0
  0
LINE
  8
DETAIL
  6
CONTINUOUS
 62
     5
 10
353.49788434385073
 20
-3.0042313117066901
 30
0.0
 11
-353.49788434473908
 21
-3.0042313117066901
 31
0.0
  0
LINE
  8
DETAIL
  6
CONTINUOUS
 62
     5
 10
353.49788434385073
 20
0.0
 30
0.0
 11
-353.49788434473908
 21
0.0
 31
0.0
  0
LINE
  8
DETAIL
  6
CONTINUOUS
 62
     5
 10
-89.626234132877016
 20
-266.37517630524718
 30
0.0
 11
-89.626234132877016
 21
-230.32440056476781
 31
0.0
  0
LINE
  8
DETAIL
  6
CONTINUOUS
 62
     5
 10
-80.00432666235838
 20
-221.3117066296476
 30
0.0
 11
-80.00432666235838
 21
-181.25528913992969
 31
0.0
  0
LINE
  8
DETAIL
  6
CONTINUOUS
 62
     5
 10
-68.266514586520316
 20
-221.3117066296476
 30
0.0
 11
-68.266514586520316
 21
-181.25528913992969
 31
0.0
  0
LINE
  8
DETAIL
  6
CONTINUOUS
 62
     5
 10
-65.291960508053762
 20
-281.09590973260958
 30
0.0
 11
-65.291960508053762
 21
-266.37517630524718
 31
0.0
  0
LINE
  8
DETAIL
  6
CONTINUOUS
 62
     5
 10
-65.291960508053762
 20
-181.25528913992969
 30
0.0
 11
-65.291960508053762
 21
-135.79125528913971
 31
0.0
  0
LINE
  8
DETAIL
  6
CONTINUOUS
 62
     5
 10
-61.033184383004482
 20
-221.3117066296476
 30
0.0
 11
-61.033184383004482
 21
-214.8025387870241
 31
0.0
  0
LINE
  8
DETAIL
  6
CONTINUOUS
 62
     5
 10
-57.77860046258138
 20
-211.59802538816669
 30
0.0
 11
-57.77860046258138
 21
-214.8025387870241
 31
0.0
  0
LINE
  8
DETAIL
  6
CONTINUOUS
 62
     5
 10
-54.524016541269702
 20
-221.3117066296476
 30
0.0
 11
-54.524016541269702
 21
-215.38391420937481
 31
0.0
  0
LINE
  8
DETAIL
  6
CONTINUOUS
 62
     5
 10
-53.537926915481883
 20
-211.59802538816669
 30
0.0
 11
-53.537926915481883
 21
-181.25528913992969
 31
0.0
  0
LINE
  8
DETAIL
  6
CONTINUOUS
 62
     5
 10
-51.269432619958017
 20
-211.59802538816669
 30
0.0
 11
-51.269432619958017
 21
-214.8025387870241
 31
0.0
  0
LINE
  8
DETAIL
  6
CONTINUOUS
 62
     5
 10
-48.014848699534923
 20
-221.3117066296476
 30
0.0
 11
-48.014848699534923
 21
-214.8025387870241
 31
0.0
  0
LINE
  8
DETAIL
  6
CONTINUOUS
 62
     5
 10
-46.57786592066077
 20
-221.3117066296476
 30
0.0
 11
-46.57786592066077
 21
-181.25528913992969
 31
0.0
  0
LINE
  8
DETAIL
  6
CONTINUOUS
 62
     5
 10
-34.43629313285237
 20
-221.3117066296476
 30
0.0
 11
-34.43629313285237
 21
-181.25528913992969
 31
0.0
  0
LINE
  8
DETAIL
  6
CONTINUOUS
 62
     5
 10
-18.2402808150573
 20
-221.3117066296476
 30
0.0
 11
-18.2402808150573
 21
-181.25528913992969
 31
0.0
  0
LINE
  8
DETAIL
  6
CONTINUOUS
 62
     5
 10
26.0443218179621
 20
-124.5754583926943
 30
0.0
 11
25.5917510523368
 21
-119.40255087195089
 31
0.0
  0
LINE
  8
DETAIL
  6
CONTINUOUS
 62
     5
 10
-10.09204588670991
 20
-221.3117066296476
 30
0.0
 11
-10.09204588670991
 21
-181.25528913992969
 31
0.0
  0
LINE
  8
DETAIL
  6
CONTINUOUS
 62
     5
 10
-4.7066290555994783
 20
-289.00705218617799
 30
0.0
 11
-4.7066290555994783
 21
-288.50634696785642
 31
0.0
  0
LINE
  8
DETAIL
  6
CONTINUOUS
 62
     5
 10
4.706629054710902
 20
-289.00705218617799
 30
0.0
 11
4.706629054710902
 21
-288.50634696785642
 31
0.0
  0
LINE
  8
DETAIL
  6
CONTINUOUS
 62
     5
 10
10.09204588582134
 20
-221.3117066296476
 30
0.0
 11
10.09204588582134
 21
-181.25528913992969
 31
0.0
  0
LINE
  8
DETAIL
  6
CONTINUOUS
 62
     5
 10
18.240280814168731
 20
-221.3117066296476
 30
0.0
 11
18.240280814168731
 21
-181.25528913992969
 31
0.0
  0
LINE
  8
DETAIL
  6
CONTINUOUS
 62
     5
 10
-26.044321818850221
 20
-124.5754583926943
 30
0.0
 11
-25.591751053224929
 21
-119.40255087195089
 31
0.0
  0
LINE
  8
DETAIL
  6
CONTINUOUS
 62
     5
 10
34.436293131963787
 20
-221.3117066296476
 30
0.0
 11
34.436293131963787
 21
-181.25528913992969
 31
0.0
  0
LINE
  8
DETAIL
  6
CONTINUOUS
 62
     5
 10
46.577865919772186
 20
-221.3117066296476
 30
0.0
 11
46.577865919772186
 21
-181.25528913992969
 31
0.0
  0
LINE
  8
DETAIL
  6
CONTINUOUS
 62
     5
 10
48.014848698646347
 20
-221.3117066296476
 30
0.0
 11
48.014848698646347
 21
-214.8025387870241
 31
0.0
  0
LINE
  8
DETAIL
  6
CONTINUOUS
 62
     5
 10
51.269432619069448
 20
-211.59802538816669
 30
0.0
 11
51.269432619069448
 21
-214.8025387870241
 31
0.0
  0
LINE
  8
DETAIL
  6
CONTINUOUS
 62
     5
 10
53.537926914593299
 20
-211.59802538816669
 30
0.0
 11
53.537926914593299
 21
-181.25528913992969
 31
0.0
  0
LINE
  8
DETAIL
  6
CONTINUOUS
 62
     5
 10
54.524016540381133
 20
-221.3117066296476
 30
0.0
 11
54.524016540381133
 21
-215.38391420937481
 31
0.0
  0
LINE
  8
DETAIL
  6
CONTINUOUS
 62
     5
 10
57.778600461692797
 20
-211.59802538816669
 30
0.0
 11
57.778600461692797
 21
-214.8025387870241
 31
0.0
  0
LINE
  8
DETAIL
  6
CONTINUOUS
 62
     5
 10
61.033184382115913
 20
-221.3117066296476
 30
0.0
 11
61.033184382115913
 21
-214.8025387870241
 31
0.0
  0
LINE
  8
DETAIL
  6
CONTINUOUS
 62
     5
 10
63.536710475501422
 20
-225.31734837799721
 30
0.0
 11
63.536710475501422
 21
-221.3117066296476
 31
0.0
  0
LINE
  8
DETAIL
  6
CONTINUOUS
 62
     5
 10
65.291960507164731
 20
-281.09590973260958
 30
0.0
 11
65.291960507164731
 21
-266.37517630524718
 31
0.0
  0
LINE
  8
DETAIL
  6
CONTINUOUS
 62
     5
 10
65.291960507164731
 20
-181.25528913992969
 30
0.0
 11
65.291960507164731
 21
-135.79125528913971
 31
0.0
  0
LINE
  8
DETAIL
  6
CONTINUOUS
 62
     5
 10
68.266514585632194
 20
-221.3117066296476
 30
0.0
 11
68.266514585632194
 21
-181.25528913992969
 31
0.0
  0
LINE
  8
DETAIL
  6
CONTINUOUS
 62
     5
 10
80.004326661470259
 20
-221.3117066296476
 30
0.0
 11
80.004326661470259
 21
-181.25528913992969
 31
0.0
  0
LINE
  8
DETAIL
  6
CONTINUOUS
 62
     5
 10
86.121297601960578
 20
-225.31734837799721
 30
0.0
 11
86.121297601960578
 21
-221.3117066296476
 31
0.0
  0
LINE
  8
DETAIL
  6
CONTINUOUS
 62
     5
 10
89.626234131988895
 20
-266.37517630524718
 30
0.0
 11
89.626234131988895
 21
-230.32440056476781
 31
0.0
  0
LINE
  8
DETAIL
  6
CONTINUOUS
 62
     5
 10
10.50768932278152
 20
-127.83559002620601
 30
0.0
 11
12.84947423298536
 21
-125.49378221184951
 31
0.0
  0
LINE
  8
DETAIL
  6
CONTINUOUS
 62
     5
 10
246.15073167818261
 20
-16.423131171255822
 30
0.0
 11
246.15073167818261
 21
-13.0183356843587
 31
0.0
  0
LINE
  8
DETAIL
  6
CONTINUOUS
 62
     5
 10
258.18850156353659
 20
-14.520451340211819
 30
0.0
 11
258.18850156353659
 21
-10.014104372651669
 31
0.0
  0
LINE
  8
DETAIL
  6
CONTINUOUS
 62
     5
 10
275.18300022537011
 20
-160.22566995798351
 30
0.0
 11
275.18300022537011
 21
-14.520451340211819
 31
0.0
  0
LINE
  8
DETAIL
  6
CONTINUOUS
 62
     5
 10
287.9288742224112
 20
-6.4090267986038043
 30
0.0
 11
287.9288742224112
 21
-3.0042313117066901
 31
0.0
  0
LINE
  8
DETAIL
  6
CONTINUOUS
 62
     5
 10
297.84233177536947
 20
-160.22566995798351
 30
0.0
 11
297.84233177536947
 21
-14.520451340211819
 31
0.0
  0
LINE
  8
DETAIL
  6
CONTINUOUS
 62
     5
 10
299.25853999696659
 20
-5.1071932299014406
 30
0.0
 11
299.25853999696659
 21
-3.0042313117066901
 31
0.0
  0
LINE
  8
DETAIL
  6
CONTINUOUS
 62
     5
 10
302.09095644104991
 20
-14.520451340211819
 30
0.0
 11
302.09095644104991
 21
-160.22566995798351
 31
0.0
  0
LINE
  8
DETAIL
  6
CONTINUOUS
 62
     5
 10
306.33958110673029
 20
-14.520451340211819
 30
0.0
 11
306.33958110673029
 21
-18.078881226308571
 31
0.0
  0
LINE
  8
DETAIL
  6
CONTINUOUS
 62
     5
 10
311.34663329261178
 20
-18.526093089450001
 30
0.0
 11
311.34663329261178
 21
-14.520451340211819
 31
0.0
  0
LINE
  8
DETAIL
  6
CONTINUOUS
 62
     5
 10
341.98166431534543
 20
-13.88719676638493
 30
0.0
 11
341.98166431534543
 21
-16.423131171255822
 31
0.0
  0
LINE
  8
DETAIL
  6
CONTINUOUS
 62
     5
 10
348.82582776175741
 20
-5.1071932299014406
 30
0.0
 11
348.82582776175741
 21
-3.0042313117066901
 31
0.0
  0
LINE
  8
DETAIL
  6
CONTINUOUS
 62
     5
 10
351.99576868799699
 20
-3.0042313117066901
 30
0.0
 11
351.99576868799699
 21
-6.4090267986038043
 31
0.0
  0
ARC
  8
DETAIL
  6
CONTINUOUS
 62
     5
 10
-57.881523272806589
 20
-281.09590973260958
 30
0.0
 40
7.410437235246718
 50
180.0
 51
270.0
  0
ARC
  8
DETAIL
  6
CONTINUOUS
 62
     5
 10
-57.881523272806589
 20
-135.79125528913971
 30
0.0
 40
7.410437235246718
 50
90.0
 51
180.0
  0
ARC
  8
DETAIL
  6
CONTINUOUS
 62
     5
 10
-83.617771509463637
 20
-231.3258110014107
 30
0.0
 40
6.0084626234131528
 50
90.0
 51
180.0
  0
ARC
  8
DETAIL
  6
CONTINUOUS
 62
     5
 10
-13.01833568435814
 20
-131.48519040961921
 30
0.0
 40
3.605077574047868
 50
90.0
 51
120.5064405230938
  0
ARC
  8
DETAIL
  6
CONTINUOUS
 62
     5
 10
-284.32379664925179
 20
-6.4090267986038043
 30
0.0
 40
3.605077574047868
 50
180.0
 51
270.0
  0
ARC
  8
DETAIL
  6
CONTINUOUS
 62
     5
 10
-338.37658674218619
 20
-16.423131171255822
 30
0.0
 40
3.6050775740480958
 50
180.0
 51
270.0
  0
ARC
  8
DETAIL
  6
CONTINUOUS
 62
     5
 10
-242.545654105023
 20
-16.423131171255822
 30
0.0
 40
3.605077574047983
 50
180.0
 51
270.0
  0
ARC
  8
DETAIL
  6
CONTINUOUS
 62
     5
 10
-348.39069111483741
 20
-6.4090267986038043
 30
0.0
 40
3.605077574047868
 50
180.0
 51
270.0
  0
ARC
  8
DETAIL
  6
CONTINUOUS
 62
     5
 10
-249.1549629907777
 20
-13.0183356843587
 30
0.0
 40
3.0042313117066901
 50
0.0
 51
90.0
  0
ARC
  8
DETAIL
  6
CONTINUOUS
 62
     5
 10
-350.00897038111412
 20
-117.39972999777601
 30
0.0
 40
2.0028208741747449
 50
90.0
 51
270.0
  0
ARC
  8
DETAIL
  6
CONTINUOUS
 62
     5
 10
-11.716502115655659
 20
-124.360821174623
 30
0.0
 40
1.6022566998731289
 50
187.70070112471029
 51
224.9997198070032
  0
ARC
  8
DETAIL
  6
CONTINUOUS
 62
     5
 10
-353.49788434473908
 20
-1.502115655853572
 30
0.0
 40
1.502115655853459
 50
90.0
 51
270.0
  0
ARC
  8
DETAIL
  6
CONTINUOUS
 62
     5
 10
-11.215796897334259
 20
-128.5436906741393
 30
0.0
 40
1.00141043753186
 50
41.609122939286493
 51
44.999719807003473
  0
ARC
  8
DETAIL
  6
CONTINUOUS
 62
     5
 10
0.0
 20
-284.47817348378021
 30
0.0
 40
6.5316995765725041
 50
223.89739816710619
 51
316.10260183289381
  0
ARC
  8
DETAIL
  6
CONTINUOUS
 62
     5
 10
57.881523271918013
 20
-281.09590973260958
 30
0.0
 40
7.4104372352466017
 50
270.0
 51
0.0
  0
ARC
  8
DETAIL
  6
CONTINUOUS
 62
     5
 10
83.617771508575515
 20
-231.3258110014107
 30
0.0
 40
6.0084626234132674
 50
0.0
 51
90.0
  0
ARC
  8
DETAIL
  6
CONTINUOUS
 62
     5
 10
57.881523271918013
 20
-135.79125528913971
 30
0.0
 40
7.410437235246774
 50
0.0
 51
90.0
  0
ARC
  8
DETAIL
  6
CONTINUOUS
 62
     5
 10
13.01833568346956
 20
-131.48519040961921
 30
0.0
 40
3.6050775740477841
 50
59.493559476906192
 51
90.0
  0
ARC
  8
DETAIL
  6
CONTINUOUS
 62
     5
 10
11.716502115656111
 20
-124.360821174623
 30
0.0
 40
1.602256699873138
 50
315.0002801929968
 51
352.29929887528971
  0
ARC
  8
DETAIL
  6
CONTINUOUS
 62
     5
 10
11.21579689644568
 20
-128.5436906741393
 30
0.0
 40
1.0014104375318429
 50
135.00028019299651
 51
138.39087706071351
  0
ARC
  8
DETAIL
  6
CONTINUOUS
 62
     5
 10
348.39069111394929
 20
-6.4090267986038043
 30
0.0
 40
3.605077574047868
 50
270.0
 51
0.0
  0
ARC
  8
DETAIL
  6
CONTINUOUS
 62
     5
 10
242.54565410413491
 20
-16.423131171255822
 30
0.0
 40
3.605077574047868
 50
270.0
 51
0.0
  0
ARC
  8
DETAIL
  6
CONTINUOUS
 62
     5
 10
338.37658674129761
 20
-16.423131171255822
 30
0.0
 40
3.605077574047868
 50
270.0
 51
0.0
  0
ARC
  8
DETAIL
  6
CONTINUOUS
 62
     5
 10
284.32379664836299
 20
-6.4090267986038043
 30
0.0
 40
3.605077574047868
 50
270.0
 51
0.0
  0
ARC
  8
DETAIL
  6
CONTINUOUS
 62
     5
 10
249.1549629898891
 20
-13.0183356843587
 30
0.0
 40
3.0042313117066901
 50
90.0
 51
180.0
  0
ARC
  8
DETAIL
  6
CONTINUOUS
 62
     5
 10
350.00897038022589
 20
-117.39972999777601
 30
0.0
 40
2.002820874174859
 50
270.0
 51
90.0
  0
ARC
  8
DETAIL
  6
CONTINUOUS
 62
     5
 10
353.49788434385073
 20
-1.502115655853572
 30
0.0
 40
1.502115655853459
 50
270.0
 51
90.0
  0
LINE
  8
DETAIL
  6
CONTINUOUS
 62
     5
 10
-277.68652631964318
 20
-18.526093089450001
 30
0.0
 11
-277.76825264219269
 21
-18.525382536586221
 31
0.0
  0
LINE
  8
DETAIL
  6
CONTINUOUS
 62
     5
 10
-277.76825264219269
 20
-18.525382536586221
 30
0.0
 11
-277.84997983309768
 21
-18.52401888161808
 31
0.0
  0
LINE
  8
DETAIL
  6
CONTINUOUS
 62
     5
 10
-277.84997983309768
 20
-18.52401888161808
 30
0.0
 11
-277.84997983309768
 21
-18.52401888161808
 31
0.0
  0
LINE
  8
DETAIL
  6
CONTINUOUS
 62
     5
 10
-277.84997983309768
 20
-18.52401888161808
 30
0.0
 11
-277.93170184063001
 21
-18.52148938191408
 31
0.0
  0
LINE
  8
DETAIL
  6
CONTINUOUS
 62
     5
 10
-277.93170184063001
 20
-18.52148938191408
 30
0.0
 11
-278.0133849327292
 21
-18.517842732742221
 31
0.0
  0
LINE
  8
DETAIL
  6
CONTINUOUS
 62
     5
 10
-278.0133849327292
 20
-18.517842732742221
 30
0.0
 11
-278.0133849327292
 21
-18.517842732742221
 31
0.0
  0
LINE
  8
DETAIL
  6
CONTINUOUS
 62
     5
 10
-278.0133849327292
 20
-18.517842732742221
 30
0.0
 11
-278.09500765903363
 21
-18.513228006568969
 31
0.0
  0
LINE
  8
DETAIL
  6
CONTINUOUS
 62
     5
 10
-278.09500765903363
 20
-18.513228006568969
 30
0.0
 11
-278.17662537630957
 21
-18.507634346757978
 31
0.0
  0
LINE
  8
DETAIL
  6
CONTINUOUS
 62
     5
 10
-278.17662537630957
 20
-18.507634346757978
 30
0.0
 11
-278.17662537630957
 21
-18.507634346757978
 31
0.0
  0
LINE
  8
DETAIL
  6
CONTINUOUS
 62
     5
 10
-278.17662537630957
 20
-18.507634346757978
 30
0.0
 11
-278.25824275606152
 21
-18.501030484026732
 31
0.0
  0
LINE
  8
DETAIL
  6
CONTINUOUS
 62
     5
 10
-278.25824275606152
 20
-18.501030484026732
 30
0.0
 11
-278.33958492160792
 21
-18.493463427598272
 31
0.0
  0
LINE
  8
DETAIL
  6
CONTINUOUS
 62
     5
 10
-278.33958492160792
 20
-18.493463427598272
 30
0.0
 11
-278.33958492160792
 21
-18.493463427598272
 31
0.0
  0
LINE
  8
DETAIL
  6
CONTINUOUS
 62
     5
 10
-278.33958492160792
 20
-18.493463427598272
 30
0.0
 11
-278.42056745562257
 21
-18.484961460091771
 31
0.0
  0
LINE
  8
DETAIL
  6
CONTINUOUS
 62
     5
 10
-278.42056745562257
 20
-18.484961460091771
 30
0.0
 11
-278.50214732639552
 21
-18.475399679197611
 31
0.0
  0
LINE
  8
DETAIL
  6
CONTINUOUS
 62
     5
 10
-278.50214732639552
 20
-18.475399679197611
 30
0.0
 11
-278.50214732639552
 21
-18.475399679197611
 31
0.0
  0
LINE
  8
DETAIL
  6
CONTINUOUS
 62
     5
 10
-278.50214732639552
 20
-18.475399679197611
 30
0.0
 11
-278.58513384612388
 21
-18.464667712207529
 31
0.0
  0
LINE
  8
DETAIL
  6
CONTINUOUS
 62
     5
 10
-278.58513384612388
 20
-18.464667712207529
 30
0.0
 11
-278.66870431703001
 21
-18.452866489744451
 31
0.0
  0
LINE
  8
DETAIL
  6
CONTINUOUS
 62
     5
 10
-278.66870431703001
 20
-18.452866489744451
 30
0.0
 11
-278.66870431703001
 21
-18.452866489744451
 31
0.0
  0
LINE
  8
DETAIL
  6
CONTINUOUS
 62
     5
 10
-278.66870431703001
 20
-18.452866489744451
 30
0.0
 11
-278.75187801183142
 21
-18.440123992015291
 31
0.0
  0
LINE
  8
DETAIL
  6
CONTINUOUS
 62
     5
 10
-278.75187801183142
 20
-18.440123992015291
 30
0.0
 11
-278.83467409521398
 21
-18.426465094231961
 31
0.0
  0
LINE
  8
DETAIL
  6
CONTINUOUS
 62
     5
 10
-278.83467409521398
 20
-18.426465094231961
 30
0.0
 11
-278.83467409521398
 21
-18.426465094231961
 31
0.0
  0
LINE
  8
DETAIL
  6
CONTINUOUS
 62
     5
 10
-278.83467409521398
 20
-18.426465094231961
 30
0.0
 11
-278.91733692735693
 21
-18.411885312425738
 31
0.0
  0
LINE
  8
DETAIL
  6
CONTINUOUS
 62
     5
 10
-278.91733692735693
 20
-18.411885312425738
 30
0.0
 11
-279.00001175845841
 21
-18.39636583090407
 31
0.0
  0
LINE
  8
DETAIL
  6
CONTINUOUS
 62
     5
 10
-279.00001175845841
 20
-18.39636583090407
 30
0.0
 11
-279.00001175845841
 21
-18.39636583090407
 31
0.0
  0
LINE
  8
DETAIL
  6
CONTINUOUS
 62
     5
 10
-279.00001175845841
 20
-18.39636583090407
 30
0.0
 11
-279.08266819821119
 21
-18.379924359014812
 31
0.0
  0
LINE
  8
DETAIL
  6
CONTINUOUS
 62
     5
 10
-279.08266819821119
 20
-18.379924359014812
 30
0.0
 11
-279.16467240427619
 21
-18.362739038004289
 31
0.0
  0
LINE
  8
DETAIL
  6
CONTINUOUS
 62
     5
 10
-279.16467240427619
 20
-18.362739038004289
 30
0.0
 11
-279.16467240427619
 21
-18.362739038004289
 31
0.0
  0
LINE
  8
DETAIL
  6
CONTINUOUS
 62
     5
 10
-279.16467240427619
 20
-18.362739038004289
 30
0.0
 11
-279.24586790083458
 21
-18.344871268128031
 31
0.0
  0
LINE
  8
DETAIL
  6
CONTINUOUS
 62
     5
 10
-279.24586790083458
 20
-18.344871268128031
 30
0.0
 11
-279.32861113017913
 21
-18.325755053777812
 31
0.0
  0
LINE
  8
DETAIL
  6
CONTINUOUS
 62
     5
 10
-279.32861113017913
 20
-18.325755053777812
 30
0.0
 11
-279.32861113017913
 21
-18.325755053777812
 31
0.0
  0
LINE
  8
DETAIL
  6
CONTINUOUS
 62
     5
 10
-279.32861113017913
 20
-18.325755053777812
 30
0.0
 11
-279.41488725115101
 21
-18.304905163720601
 31
0.0
  0
LINE
  8
DETAIL
  6
CONTINUOUS
 62
     5
 10
-279.41488725115101
 20
-18.304905163720601
 30
0.0
 11
-279.50268337066882
 21
-18.282786820088521
 31
0.0
  0
LINE
  8
DETAIL
  6
CONTINUOUS
 62
     5
 10
-279.50268337066882
 20
-18.282786820088521
 30
0.0
 11
-279.50268337066882
 21
-18.282786820088521
 31
0.0
  0
LINE
  8
DETAIL
  6
CONTINUOUS
 62
     5
 10
-279.50268337066882
 20
-18.282786820088521
 30
0.0
 11
-279.58962298026972
 21
-18.259958730122889
 31
0.0
  0
LINE
  8
DETAIL
  6
CONTINUOUS
 62
     5
 10
-279.58962298026972
 20
-18.259958730122889
 30
0.0
 11
-279.67587316187678
 21
-18.23640308814322
 31
0.0
  0
LINE
  8
DETAIL
  6
CONTINUOUS
 62
     5
 10
-279.67587316187678
 20
-18.23640308814322
 30
0.0
 11
-279.67587316187678
 21
-18.23640308814322
 31
0.0
  0
LINE
  8
DETAIL
  6
CONTINUOUS
 62
     5
 10
-279.67587316187678
 20
-18.23640308814322
 30
0.0
 11
-279.76206862025128
 21
-18.21200229496446
 31
0.0
  0
LINE
  8
DETAIL
  6
CONTINUOUS
 62
     5
 10
-279.76206862025128
 20
-18.21200229496446
 30
0.0
 11
-279.84817096112403
 21
-18.186816090295789
 31
0.0
  0
LINE
  8
DETAIL
  6
CONTINUOUS
 62
     5
 10
-279.84817096112403
 20
-18.186816090295789
 30
0.0
 11
-279.84817096112403
 21
-18.186816090295789
 31
0.0
  0
LINE
  8
DETAIL
  6
CONTINUOUS
 62
     5
 10
-279.84817096112403
 20
-18.186816090295789
 30
0.0
 11
-279.93401071690141
 21
-18.160915337906768
 31
0.0
  0
LINE
  8
DETAIL
  6
CONTINUOUS
 62
     5
 10
-279.93401071690141
 20
-18.160915337906768
 30
0.0
 11
-280.01956722573368
 21
-18.13423805889931
 31
0.0
  0
LINE
  8
DETAIL
  6
CONTINUOUS
 62
     5
 10
-280.01956722573368
 20
-18.13423805889931
 30
0.0
 11
-280.01956722573368
 21
-18.13423805889931
 31
0.0
  0
LINE
  8
DETAIL
  6
CONTINUOUS
 62
     5
 10
-280.01956722573368
 20
-18.13423805889931
 30
0.0
 11
-280.1048764962211
 21
-18.10677757165001
 31
0.0
  0
LINE
  8
DETAIL
  6
CONTINUOUS
 62
     5
 10
-280.1048764962211
 20
-18.10677757165001
 30
0.0
 11
-280.1900524130283
 21
-18.078881226308571
 31
0.0
  0
LINE
  8
DETAIL
  6
CONTINUOUS
 62
     5
 10
-272.67947418709127
 20
-18.52609309300567
 30
0.0
 11
-272.7612005042547
 21
-18.525382541013069
 31
0.0
  0
LINE
  8
DETAIL
  6
CONTINUOUS
 62
     5
 10
-272.7612005042547
 20
-18.525382541013069
 30
0.0
 11
-272.84292768975092
 21
-18.52401888657937
 31
0.0
  0
LINE
  8
DETAIL
  6
CONTINUOUS
 62
     5
 10
-272.84292768975092
 20
-18.52401888657937
 30
0.0
 11
-272.84292768975092
 21
-18.52401888657937
 31
0.0
  0
LINE
  8
DETAIL
  6
CONTINUOUS
 62
     5
 10
-272.84292768975092
 20
-18.52401888657937
 30
0.0
 11
-272.92464969182743
 21
-18.52148938683251
 31
0.0
  0
LINE
  8
DETAIL
  6
CONTINUOUS
 62
     5
 10
-272.92464969182743
 20
-18.52148938683251
 30
0.0
 11
-273.00633277839142
 21
-18.51784273718329
 31
0.0
  0
LINE
  8
DETAIL
  6
CONTINUOUS
 62
     5
 10
-273.00633277839142
 20
-18.51784273718329
 30
0.0
 11
-273.00633277839142
 21
-18.51784273718329
 31
0.0
  0
LINE
  8
DETAIL
  6
CONTINUOUS
 62
     5
 10
-273.00633277839142
 20
-18.51784273718329
 30
0.0
 11
-273.08795549909092
 21
-18.513228010304491
 31
0.0
  0
LINE
  8
DETAIL
  6
CONTINUOUS
 62
     5
 10
-273.08795549909092
 20
-18.513228010304491
 30
0.0
 11
-273.16957321087352
 21
-18.507634349641311
 31
0.0
  0
LINE
  8
DETAIL
  6
CONTINUOUS
 62
     5
 10
-273.16957321087352
 20
-18.507634349641311
 30
0.0
 11
-273.16957321087352
 21
-18.507634349641311
 31
0.0
  0
LINE
  8
DETAIL
  6
CONTINUOUS
 62
     5
 10
-273.16957321087352
 20
-18.507634349641311
 30
0.0
 11
-273.25119058529799
 21
-18.501030485990899
 31
0.0
  0
LINE
  8
DETAIL
  6
CONTINUOUS
 62
     5
 10
-273.25119058529799
 20
-18.501030485990899
 30
0.0
 11
-273.33253274505842
 21
-18.493463428778
 31
0.0
  0
LINE
  8
DETAIL
  6
CONTINUOUS
 62
     5
 10
-273.33253274505842
 20
-18.493463428778
 30
0.0
 11
-273.33253274505842
 21
-18.493463428778
 31
0.0
  0
LINE
  8
DETAIL
  6
CONTINUOUS
 62
     5
 10
-273.33253274505842
 20
-18.493463428778
 30
0.0
 11
-273.41351527267148
 21
-18.484961460763429
 31
0.0
  0
LINE
  8
DETAIL
  6
CONTINUOUS
 62
     5
 10
-273.41351527267148
 20
-18.484961460763429
 30
0.0
 11
-273.49509513880588
 21
-18.47539967941805
 31
0.0
  0
LINE
  8
DETAIL
  6
CONTINUOUS
 62
     5
 10
-273.49509513880588
 20
-18.47539967941805
 30
0.0
 11
-273.49509513880588
 21
-18.47539967941805
 31
0.0
  0
LINE
  8
DETAIL
  6
CONTINUOUS
 62
     5
 10
-273.49509513880588
 20
-18.47539967941805
 30
0.0
 11
-273.57808165766983
 21
-18.46466771182747
 31
0.0
  0
LINE
  8
DETAIL
  6
CONTINUOUS
 62
     5
 10
-273.57808165766983
 20
-18.46466771182747
 30
0.0
 11
-273.66165212947232
 21
-18.45286648881995
 31
0.0
  0
LINE
  8
DETAIL
  6
CONTINUOUS
 62
     5
 10
-273.66165212947232
 20
-18.45286648881995
 30
0.0
 11
-273.66165212947232
 21
-18.45286648881995
 31
0.0
  0
LINE
  8
DETAIL
  6
CONTINUOUS
 62
     5
 10
-273.66165212947232
 20
-18.45286648881995
 30
0.0
 11
-273.7448258245513
 21
-18.440123990838629
 31
0.0
  0
LINE
  8
DETAIL
  6
CONTINUOUS
 62
     5
 10
-273.7448258245513
 20
-18.440123990838629
 30
0.0
 11
-273.82762190775912
 21
-18.42646509303756
 31
0.0
  0
LINE
  8
DETAIL
  6
CONTINUOUS
 62
     5
 10
-273.82762190775912
 20
-18.42646509303756
 30
0.0
 11
-273.82762190775912
 21
-18.42646509303756
 31
0.0
  0
LINE
  8
DETAIL
  6
CONTINUOUS
 62
     5
 10
-273.82762190775912
 20
-18.42646509303756
 30
0.0
 11
-273.910284739909
 21
-18.411885311337301
 31
0.0
  0
LINE
  8
DETAIL
  6
CONTINUOUS
 62
     5
 10
-273.910284739909
 20
-18.411885311337301
 30
0.0
 11
-273.99295957114828
 21
-18.396365830011291
 31
0.0
  0
LINE
  8
DETAIL
  6
CONTINUOUS
 62
     5
 10
-273.99295957114828
 20
-18.396365830011291
 30
0.0
 11
-273.99295957114828
 21
-18.396365830011291
 31
0.0
  0
LINE
  8
DETAIL
  6
CONTINUOUS
 62
     5
 10
-273.99295957114828
 20
-18.396365830011291
 30
0.0
 11
-274.07561601099752
 21
-18.379924358390671
 31
0.0
  0
LINE
  8
DETAIL
  6
CONTINUOUS
 62
     5
 10
-274.07561601099752
 20
-18.379924358390671
 30
0.0
 11
-274.15762021712271
 21
-18.362739037679489
 31
0.0
  0
LINE
  8
DETAIL
  6
CONTINUOUS
 62
     5
 10
-274.15762021712271
 20
-18.362739037679489
 30
0.0
 11
-274.15762021712271
 21
-18.362739037679489
 31
0.0
  0
LINE
  8
DETAIL
  6
CONTINUOUS
 62
     5
 10
-274.15762021712271
 20
-18.362739037679489
 30
0.0
 11
-274.23881571374858
 21
-18.344871268090738
 31
0.0
  0
LINE
  8
DETAIL
  6
CONTINUOUS
 62
     5
 10
-274.23881571374858
 20
-18.344871268090738
 30
0.0
 11
-274.32155894316469
 21
-18.32575505398108
 31
0.0
  0
LINE
  8
DETAIL
  6
CONTINUOUS
 62
     5
 10
-274.32155894316469
 20
-18.32575505398108
 30
0.0
 11
-274.32155894316469
 21
-18.32575505398108
 31
0.0
  0
LINE
  8
DETAIL
  6
CONTINUOUS
 62
     5
 10
-274.32155894316469
 20
-18.32575505398108
 30
0.0
 11
-274.40783506419939
 21
-18.30490516408906
 31
0.0
  0
LINE
  8
DETAIL
  6
CONTINUOUS
 62
     5
 10
-274.40783506419939
 20
-18.30490516408906
 30
0.0
 11
-274.49563118377
 21
-18.282786820545649
 31
0.0
  0
LINE
  8
DETAIL
  6
CONTINUOUS
 62
     5
 10
-274.49563118377
 20
-18.282786820545649
 30
0.0
 11
-274.49563118377
 21
-18.282786820545649
 31
0.0
  0
LINE
  8
DETAIL
  6
CONTINUOUS
 62
     5
 10
-274.49563118377
 20
-18.282786820545649
 30
0.0
 11
-274.58257079341138
 21
-18.2599587305989
 31
0.0
  0
LINE
  8
DETAIL
  6
CONTINUOUS
 62
     5
 10
-274.58257079341138
 20
-18.2599587305989
 30
0.0
 11
-274.66882097504907
 21
-18.23640308858467
 31
0.0
  0
LINE
  8
DETAIL
  6
CONTINUOUS
 62
     5
 10
-274.66882097504907
 20
-18.23640308858467
 30
0.0
 11
-274.66882097504907
 21
-18.23640308858467
 31
0.0
  0
LINE
  8
DETAIL
  6
CONTINUOUS
 62
     5
 10
-274.66882097504907
 20
-18.23640308858467
 30
0.0
 11
-274.7550164334466
 21
-18.212002295334969
 31
0.0
  0
LINE
  8
DETAIL
  6
CONTINUOUS
 62
     5
 10
-274.7550164334466
 20
-18.212002295334969
 30
0.0
 11
-274.84111877433497
 21
-18.186816090574101
 31
0.0
  0
LINE
  8
DETAIL
  6
CONTINUOUS
 62
     5
 10
-274.84111877433497
 20
-18.186816090574101
 30
0.0
 11
-274.84111877433497
 21
-18.186816090574101
 31
0.0
  0
LINE
  8
DETAIL
  6
CONTINUOUS
 62
     5
 10
-274.84111877433497
 20
-18.186816090574101
 30
0.0
 11
-274.9269585301231
 21
-18.160915338083779
 31
0.0
  0
LINE
  8
DETAIL
  6
CONTINUOUS
 62
     5
 10
-274.9269585301231
 20
-18.160915338083779
 30
0.0
 11
-275.01251503896037
 21
-18.134238058989581
 31
0.0
  0
LINE
  8
DETAIL
  6
CONTINUOUS
 62
     5
 10
-275.01251503896037
 20
-18.134238058989581
 30
0.0
 11
-275.01251503896037
 21
-18.134238058989581
 31
0.0
  0
LINE
  8
DETAIL
  6
CONTINUOUS
 62
     5
 10
-275.01251503896037
 20
-18.134238058989581
 30
0.0
 11
-275.09782430945052
 21
-18.10677757168526
 31
0.0
  0
LINE
  8
DETAIL
  6
CONTINUOUS
 62
     5
 10
-275.09782430945052
 20
-18.10677757168526
 30
0.0
 11
-275.18300022625817
 21
-18.078881226308571
 31
0.0
  0
LINE
  8
DETAIL
  6
CONTINUOUS
 62
     5
 10
-270.17594804037662
 20
-18.078881226308571
 30
0.0
 11
-270.2610972137586
 21
-18.106768977437351
 31
0.0
  0
LINE
  8
DETAIL
  6
CONTINUOUS
 62
     5
 10
-270.2610972137586
 20
-18.106768977437351
 30
0.0
 11
-270.34637977436159
 21
-18.134221177196419
 31
0.0
  0
LINE
  8
DETAIL
  6
CONTINUOUS
 62
     5
 10
-270.34637977436159
 20
-18.134221177196419
 30
0.0
 11
-270.34637977436159
 21
-18.134221177196419
 31
0.0
  0
LINE
  8
DETAIL
  6
CONTINUOUS
 62
     5
 10
-270.34637977436159
 20
-18.134221177196419
 30
0.0
 11
-270.43190953140669
 21
-18.160890699936541
 31
0.0
  0
LINE
  8
DETAIL
  6
CONTINUOUS
 62
     5
 10
-270.43190953140669
 20
-18.160890699936541
 30
0.0
 11
-270.51772198211142
 21
-18.186784122886252
 31
0.0
  0
LINE
  8
DETAIL
  6
CONTINUOUS
 62
     5
 10
-270.51772198211142
 20
-18.186784122886252
 30
0.0
 11
-270.51772198211142
 21
-18.186784122886252
 31
0.0
  0
LINE
  8
DETAIL
  6
CONTINUOUS
 62
     5
 10
-270.51772198211142
 20
-18.186784122886252
 30
0.0
 11
-270.60379636107928
 21
-18.211963367980051
 31
0.0
  0
LINE
  8
DETAIL
  6
CONTINUOUS
 62
     5
 10
-270.60379636107928
 20
-18.211963367980051
 30
0.0
 11
-270.68996516445941
 21
-18.23635803309821
 31
0.0
  0
LINE
  8
DETAIL
  6
CONTINUOUS
 62
     5
 10
-270.68996516445941
 20
-18.23635803309821
 30
0.0
 11
-270.68996516445941
 21
-18.23635803309821
 31
0.0
  0
LINE
  8
DETAIL
  6
CONTINUOUS
 62
     5
 10
-270.68996516445941
 20
-18.23635803309821
 30
0.0
 11
-270.77619052024193
 21
-18.25990853344058
 31
0.0
  0
LINE
  8
DETAIL
  6
CONTINUOUS
 62
     5
 10
-270.77619052024193
 20
-18.25990853344058
 30
0.0
 11
-270.86309982223929
 21
-18.282730877550879
 31
0.0
  0
LINE
  8
DETAIL
  6
CONTINUOUS
 62
     5
 10
-270.86309982223929
 20
-18.282730877550879
 30
0.0
 11
-270.86309982223929
 21
-18.282730877550879
 31
0.0
  0
LINE
  8
DETAIL
  6
CONTINUOUS
 62
     5
 10
-270.86309982223929
 20
-18.282730877550879
 30
0.0
 11
-270.95085819951078
 21
-18.30484245997809
 31
0.0
  0
LINE
  8
DETAIL
  6
CONTINUOUS
 62
     5
 10
-270.95085819951078
 20
-18.30484245997809
 30
0.0
 11
-271.03711645628482
 21
-18.325690625965649
 31
0.0
  0
LINE
  8
DETAIL
  6
CONTINUOUS
 62
     5
 10
-271.03711645628482
 20
-18.325690625965649
 30
0.0
 11
-271.03711645628482
 21
-18.325690625965649
 31
0.0
  0
LINE
  8
DETAIL
  6
CONTINUOUS
 62
     5
 10
-271.03711645628482
 20
-18.325690625965649
 30
0.0
 11
-271.11988480096812
 21
-18.344815129585751
 31
0.0
  0
LINE
  8
DETAIL
  6
CONTINUOUS
 62
     5
 10
-271.11988480096812
 20
-18.344815129585751
 30
0.0
 11
-271.20112538350349
 21
-18.362695409539921
 31
0.0
  0
LINE
  8
DETAIL
  6
CONTINUOUS
 62
     5
 10
-271.20112538350349
 20
-18.362695409539921
 30
0.0
 11
-271.20112538350349
 21
-18.362695409539921
 31
0.0
  0
LINE
  8
DETAIL
  6
CONTINUOUS
 62
     5
 10
-271.20112538350349
 20
-18.362695409539921
 30
0.0
 11
-271.2831674792078
 21
-18.3798907717877
 31
0.0
  0
LINE
  8
DETAIL
  6
CONTINUOUS
 62
     5
 10
-271.2831674792078
 20
-18.3798907717877
 30
0.0
 11
-271.36585692335069
 21
-18.39634030669038
 31
0.0
  0
LINE
  8
DETAIL
  6
CONTINUOUS
 62
     5
 10
-271.36585692335069
 20
-18.39634030669038
 30
0.0
 11
-271.36585692335069
 21
-18.39634030669038
 31
0.0
  0
LINE
  8
DETAIL
  6
CONTINUOUS
 62
     5
 10
-271.36585692335069
 20
-18.39634030669038
 30
0.0
 11
-271.44856723366053
 21
-18.411867640213249
 31
0.0
  0
LINE
  8
DETAIL
  6
CONTINUOUS
 62
     5
 10
-271.44856723366053
 20
-18.411867640213249
 30
0.0
 11
-271.53126609773523
 21
-18.426454756332529
 31
0.0
  0
LINE
  8
DETAIL
  6
CONTINUOUS
 62
     5
 10
-271.53126609773523
 20
-18.426454756332529
 30
0.0
 11
-271.53126609773523
 21
-18.426454756332529
 31
0.0
  0
LINE
  8
DETAIL
  6
CONTINUOUS
 62
     5
 10
-271.53126609773523
 20
-18.426454756332529
 30
0.0
 11
-271.61409643578099
 21
-18.44011992441472
 31
0.0
  0
LINE
  8
DETAIL
  6
CONTINUOUS
 62
     5
 10
-271.61409643578099
 20
-18.44011992441472
 30
0.0
 11
-271.69730792856399
 21
-18.45286819738271
 31
0.0
  0
LINE
  8
DETAIL
  6
CONTINUOUS
 62
     5
 10
-271.69730792856399
 20
-18.45286819738271
 30
0.0
 11
-271.69730792856399
 21
-18.45286819738271
 31
0.0
  0
LINE
  8
DETAIL
  6
CONTINUOUS
 62
     5
 10
-271.69730792856399
 20
-18.45286819738271
 30
0.0
 11
-271.78092164396321
 21
-18.46467495099068
 31
0.0
  0
LINE
  8
DETAIL
  6
CONTINUOUS
 62
     5
 10
-271.78092164396321
 20
-18.46467495099068
 30
0.0
 11
-271.86393743774693
 21
-18.475410068755991
 31
0.0
  0
LINE
  8
DETAIL
  6
CONTINUOUS
 62
     5
 10
-271.86393743774693
 20
-18.475410068755991
 30
0.0
 11
-271.86393743774693
 21
-18.475410068755991
 31
0.0
  0
LINE
  8
DETAIL
  6
CONTINUOUS
 62
     5
 10
-271.86393743774693
 20
-18.475410068755991
 30
0.0
 11
-271.94551607667057
 21
-18.484970902390959
 31
0.0
  0
LINE
  8
DETAIL
  6
CONTINUOUS
 62
     5
 10
-271.94551607667057
 20
-18.484970902390959
 30
0.0
 11
-272.02648318355068
 21
-18.49347016860656
 31
0.0
  0
LINE
  8
DETAIL
  6
CONTINUOUS
 62
     5
 10
-272.02648318355068
 20
-18.49347016860656
 30
0.0
 11
-272.02648318355068
 21
-18.49347016860656
 31
0.0
  0
LINE
  8
DETAIL
  6
CONTINUOUS
 62
     5
 10
-272.02648318355068
 20
-18.49347016860656
 30
0.0
 11
-272.10781506793683
 21
-18.501035420510561
 31
0.0
  0
LINE
  8
DETAIL
  6
CONTINUOUS
 62
     5
 10
-272.10781506793683
 20
-18.501035420510561
 30
0.0
 11
-272.18942593026441
 21
-18.507638191786778
 31
0.0
  0
LINE
  8
DETAIL
  6
CONTINUOUS
 62
     5
 10
-272.18942593026441
 20
-18.507638191786778
 30
0.0
 11
-272.18942593026441
 21
-18.507638191786778
 31
0.0
  0
LINE
  8
DETAIL
  6
CONTINUOUS
 62
     5
 10
-272.18942593026441
 20
-18.507638191786778
 30
0.0
 11
-272.27103571839461
 21
-18.513230768726881
 31
0.0
  0
LINE
  8
DETAIL
  6
CONTINUOUS
 62
     5
 10
-272.27103571839461
 20
-18.513230768726881
 30
0.0
 11
-272.35264947901118
 21
-18.517844467466031
 31
0.0
  0
LINE
  8
DETAIL
  6
CONTINUOUS
 62
     5
 10
-272.35264947901118
 20
-18.517844467466031
 30
0.0
 11
-272.35264947901118
 21
-18.517844467466031
 31
0.0
  0
LINE
  8
DETAIL
  6
CONTINUOUS
 62
     5
 10
-272.35264947901118
 20
-18.517844467466031
 30
0.0
 11
-272.43432396195931
 21
-18.521490336612601
 31
0.0
  0
LINE
  8
DETAIL
  6
CONTINUOUS
 62
     5
 10
-272.43432396195931
 20
-18.521490336612601
 30
0.0
 11
-272.51603763091271
 21
-18.52401932481575
 31
0.0
  0
LINE
  8
DETAIL
  6
CONTINUOUS
 62
     5
 10
-272.51603763091271
 20
-18.52401932481575
 30
0.0
 11
-272.51603763091271
 21
-18.52401932481575
 31
0.0
  0
LINE
  8
DETAIL
  6
CONTINUOUS
 62
     5
 10
-272.51603763091271
 20
-18.52401932481575
 30
0.0
 11
-272.59775638946849
 21
-18.525382698231279
 31
0.0
  0
LINE
  8
DETAIL
  6
CONTINUOUS
 62
     5
 10
-272.59775638946849
 20
-18.525382698231279
 30
0.0
 11
-272.67947418709127
 21
-18.52609309300567
 31
0.0
  0
LINE
  8
DETAIL
  6
CONTINUOUS
 62
     5
 10
-275.18300022625817
 20
-18.078881226308571
 30
0.0
 11
-275.2681493996588
 21
-18.106768977437351
 31
0.0
  0
LINE
  8
DETAIL
  6
CONTINUOUS
 62
     5
 10
-275.2681493996588
 20
-18.106768977437351
 30
0.0
 11
-275.35343196029322
 21
-18.13422117719665
 31
0.0
  0
LINE
  8
DETAIL
  6
CONTINUOUS
 62
     5
 10
-275.35343196029322
 20
-18.13422117719665
 30
0.0
 11
-275.35343196029322
 21
-18.13422117719665
 31
0.0
  0
LINE
  8
DETAIL
  6
CONTINUOUS
 62
     5
 10
-275.35343196029322
 20
-18.13422117719665
 30
0.0
 11
-275.43896171739112
 21
-18.160890699936431
 31
0.0
  0
LINE
  8
DETAIL
  6
CONTINUOUS
 62
     5
 10
-275.43896171739112
 20
-18.160890699936431
 30
0.0
 11
-275.52477416816367
 21
-18.186784122885001
 31
0.0
  0
LINE
  8
DETAIL
  6
CONTINUOUS
 62
     5
 10
-275.52477416816367
 20
-18.186784122885001
 30
0.0
 11
-275.52477416816367
 21
-18.186784122885001
 31
0.0
  0
LINE
  8
DETAIL
  6
CONTINUOUS
 62
     5
 10
-275.52477416816367
 20
-18.186784122885001
 30
0.0
 11
-275.61084854720548
 21
-18.211963367976519
 31
0.0
  0
LINE
  8
DETAIL
  6
CONTINUOUS
 62
     5
 10
-275.61084854720548
 20
-18.211963367976519
 30
0.0
 11
-275.69701735066042
 21
-18.236358033090369
 31
0.0
  0
LINE
  8
DETAIL
  6
CONTINUOUS
 62
     5
 10
-275.69701735066042
 20
-18.236358033090369
 30
0.0
 11
-275.69701735066042
 21
-18.236358033090369
 31
0.0
  0
LINE
  8
DETAIL
  6
CONTINUOUS
 62
     5
 10
-275.69701735066042
 20
-18.236358033090369
 30
0.0
 11
-275.78324270651427
 21
-18.25990853342773
 31
0.0
  0
LINE
  8
DETAIL
  6
CONTINUOUS
 62
     5
 10
-275.78324270651427
 20
-18.25990853342773
 30
0.0
 11
-275.87015200857383
 21
-18.282730877530071
 31
0.0
  0
LINE
  8
DETAIL
  6
CONTINUOUS
 62
     5
 10
-275.87015200857383
 20
-18.282730877530071
 30
0.0
 11
-275.87015200857383
 21
-18.282730877530071
 31
0.0
  0
LINE
  8
DETAIL
  6
CONTINUOUS
 62
     5
 10
-275.87015200857383
 20
-18.282730877530071
 30
0.0
 11
-275.95791038589317
 21
-18.304842459947391
 31
0.0
  0
LINE
  8
DETAIL
  6
CONTINUOUS
 62
     5
 10
-275.95791038589317
 20
-18.304842459947391
 30
0.0
 11
-276.04416864269479
 21
-18.32569062592086
 31
0.0
  0
LINE
  8
DETAIL
  6
CONTINUOUS
 62
     5
 10
-276.04416864269479
 20
-18.32569062592086
 30
0.0
 11
-276.04416864269479
 21
-18.32569062592086
 31
0.0
  0
LINE
  8
DETAIL
  6
CONTINUOUS
 62
     5
 10
-276.04416864269479
 20
-18.32569062592086
 30
0.0
 11
-276.12693698737888
 21
-18.344815129523909
 31
0.0
  0
LINE
  8
DETAIL
  6
CONTINUOUS
 62
     5
 10
-276.12693698737888
 20
-18.344815129523909
 30
0.0
 11
-276.20817756988322
 21
-18.362695409456251
 31
0.0
  0
LINE
  8
DETAIL
  6
CONTINUOUS
 62
     5
 10
-276.20817756988322
 20
-18.362695409456251
 30
0.0
 11
-276.20817756988322
 21
-18.362695409456251
 31
0.0
  0
LINE
  8
DETAIL
  6
CONTINUOUS
 62
     5
 10
-276.20817756988322
 20
-18.362695409456251
 30
0.0
 11
-276.29021966553182
 21
-18.379890771676401
 31
0.0
  0
LINE
  8
DETAIL
  6
CONTINUOUS
 62
     5
 10
-276.29021966553182
 20
-18.379890771676401
 30
0.0
 11
-276.37290910964248
 21
-18.396340306549519
 31
0.0
  0
LINE
  8
DETAIL
  6
CONTINUOUS
 62
     5
 10
-276.37290910964248
 20
-18.396340306549519
 30
0.0
 11
-276.37290910964248
 21
-18.396340306549519
 31
0.0
  0
LINE
  8
DETAIL
  6
CONTINUOUS
 62
     5
 10
-276.37290910964248
 20
-18.396340306549519
 30
0.0
 11
-276.4556194199572
 21
-18.41186764004124
 31
0.0
  0
LINE
  8
DETAIL
  6
CONTINUOUS
 62
     5
 10
-276.4556194199572
 20
-18.41186764004124
 30
0.0
 11
-276.53831828391208
 21
-18.426454756108569
 31
0.0
  0
LINE
  8
DETAIL
  6
CONTINUOUS
 62
     5
 10
-276.53831828391208
 20
-18.426454756108569
 30
0.0
 11
-276.53831828391208
 21
-18.426454756108569
 31
0.0
  0
LINE
  8
DETAIL
  6
CONTINUOUS
 62
     5
 10
-276.53831828391208
 20
-18.426454756108569
 30
0.0
 11
-276.62114862167442
 21
-18.440119924112079
 31
0.0
  0
LINE
  8
DETAIL
  6
CONTINUOUS
 62
     5
 10
-276.62114862167442
 20
-18.440119924112079
 30
0.0
 11
-276.70436011463238
 21
-18.452868197042111
 31
0.0
  0
LINE
  8
DETAIL
  6
CONTINUOUS
 62
     5
 10
-276.70436011463238
 20
-18.452868197042111
 30
0.0
 11
-276.70436011463238
 21
-18.452868197042111
 31
0.0
  0
LINE
  8
DETAIL
  6
CONTINUOUS
 62
     5
 10
-276.70436011463238
 20
-18.452868197042111
 30
0.0
 11
-276.78797383083469
 21
-18.464674950668499
 31
0.0
  0
LINE
  8
DETAIL
  6
CONTINUOUS
 62
     5
 10
-276.78797383083469
 20
-18.464674950668499
 30
0.0
 11
-276.87098962374279
 21
-18.475410068258039
 31
0.0
  0
LINE
  8
DETAIL
  6
CONTINUOUS
 62
     5
 10
-276.87098962374279
 20
-18.475410068258039
 30
0.0
 11
-276.87098962374279
 21
-18.475410068258039
 31
0.0
  0
LINE
  8
DETAIL
  6
CONTINUOUS
 62
     5
 10
-276.87098962374279
 20
-18.475410068258039
 30
0.0
 11
-276.95256825816108
 21
-18.48497090132037
 31
0.0
  0
LINE
  8
DETAIL
  6
CONTINUOUS
 62
     5
 10
-276.95256825816108
 20
-18.48497090132037
 30
0.0
 11
-277.03353535884889
 21
-18.493470166838851
 31
0.0
  0
LINE
  8
DETAIL
  6
CONTINUOUS
 62
     5
 10
-277.03353535884889
 20
-18.493470166838851
 30
0.0
 11
-277.03353535884889
 21
-18.493470166838851
 31
0.0
  0
LINE
  8
DETAIL
  6
CONTINUOUS
 62
     5
 10
-277.03353535884889
 20
-18.493470166838851
 30
0.0
 11
-277.11486723766029
 21
-18.50103541822762
 31
0.0
  0
LINE
  8
DETAIL
  6
CONTINUOUS
 62
     5
 10
-277.11486723766029
 20
-18.50103541822762
 30
0.0
 11
-277.19647809486582
 21
-18.507638189141289
 31
0.0
  0
LINE
  8
DETAIL
  6
CONTINUOUS
 62
     5
 10
-277.19647809486582
 20
-18.507638189141289
 30
0.0
 11
-277.19647809486582
 21
-18.507638189141289
 31
0.0
  0
LINE
  8
DETAIL
  6
CONTINUOUS
 62
     5
 10
-277.19647809486582
 20
-18.507638189141289
 30
0.0
 11
-277.27808787770982
 21
-18.513230765778872
 31
0.0
  0
LINE
  8
DETAIL
  6
CONTINUOUS
 62
     5
 10
-277.27808787770982
 20
-18.513230765778872
 30
0.0
 11
-277.35970163292041
 21
-18.517844464273139
 31
0.0
  0
LINE
  8
DETAIL
  6
CONTINUOUS
 62
     5
 10
-277.35970163292041
 20
-18.517844464273139
 30
0.0
 11
-277.35970163292041
 21
-18.517844464273139
 31
0.0
  0
LINE
  8
DETAIL
  6
CONTINUOUS
 62
     5
 10
-277.35970163292041
 20
-18.517844464273139
 30
0.0
 11
-277.44137611050837
 21
-18.52149033324531
 31
0.0
  0
LINE
  8
DETAIL
  6
CONTINUOUS
 62
     5
 10
-277.44137611050837
 20
-18.52149033324531
 30
0.0
 11
-277.52308977413759
 21
-18.524019321340351
 31
0.0
  0
LINE
  8
DETAIL
  6
CONTINUOUS
 62
     5
 10
-277.52308977413759
 20
-18.524019321340351
 30
0.0
 11
-277.52308977413759
 21
-18.524019321340351
 31
0.0
  0
LINE
  8
DETAIL
  6
CONTINUOUS
 62
     5
 10
-277.52308977413759
 20
-18.524019321340351
 30
0.0
 11
-277.604808527361
 21
-18.52538269470222
 31
0.0
  0
LINE
  8
DETAIL
  6
CONTINUOUS
 62
     5
 10
-277.604808527361
 20
-18.52538269470222
 30
0.0
 11
-277.68652631964318
 21
-18.526093089450001
 31
0.0
  0
LINE
  8
DETAIL
  6
CONTINUOUS
 62
     5
 10
2.5035260924964859
 20
-213.30042313117059
 30
0.0
 11
-2.5035260933850618
 21
-213.30042313117059
 31
0.0
  0
LINE
  8
DETAIL
  6
CONTINUOUS
 62
     5
 10
-304.52891396392079
 20
-49.469675600028609
 30
0.0
 11
-304.52891396392079
 21
-69.497884344442923
 31
0.0
  0
LINE
  8
DETAIL
  6
CONTINUOUS
 62
     5
 10
-86.121297602849154
 20
-225.31734837799721
 30
0.0
 11
-86.121297602849154
 21
-221.3117066296476
 31
0.0
  0
LINE
  8
DETAIL
  6
CONTINUOUS
 62
     5
 10
-63.536710476389089
 20
-225.31734837799721
 30
0.0
 11
-63.536710476389089
 21
-221.3117066296476
 31
0.0
  0
LINE
  8
DETAIL
  6
CONTINUOUS
 62
     5
 10
-2.5035260933850618
 20
-213.30042313117059
 30
0.0
 11
-2.5035260933850618
 21
-221.3117066296476
 31
0.0
  0
LINE
  8
DETAIL
  6
CONTINUOUS
 62
     5
 10
2.5035260924964859
 20
-213.30042313117059
 30
0.0
 11
2.5035260924964859
 21
-221.3117066296476
 31
0.0
  0
LINE
  8
DETAIL
  6
CONTINUOUS
 62
     5
 10
304.52891396303221
 20
-49.469675600028609
 30
0.0
 11
304.52891396303221
 21
-69.497884344442923
 31
0.0
  0
ARC
  8
DETAIL
  6
CONTINUOUS
 62
     5
 10
-353.99858956306019
 20
-69.497884344442923
 30
0.0
 40
49.469675599139592
 50
291.8865553766932
 51
0.0
  0
ARC
  8
DETAIL
  6
CONTINUOUS
 62
     5
 10
-333.97038081864588
 20
-49.469675600028609
 30
0.0
 40
29.441466854725039
 50
0.0
 51
90.0
  0
CIRCLE
  8
DETAIL
  6
CONTINUOUS
 62
     5
 10
0.0
 20
-237.33427362482391
 30
0.0
 40
3.004231311706576
  0
ARC
  8
DETAIL
  6
CONTINUOUS
 62
     5
 10
353.99858956217213
 20
-69.497884344442923
 30
0.0
 40
49.469675599139578
 50
180.0
 51
248.11344462330669
  0
ARC
  8
DETAIL
  6
CONTINUOUS
 62
     5
 10
333.97038081775742
 20
-49.469675600028609
 30
0.0
 40
29.441466854724919
 50
90.0
 51
180.0
  0
LINE
  8
NOTE
  6
CONTINUOUS
 62
     4
 10
-325.45839210095852
 20
-39.208952782375832
 30
0.0
 11
-325.45839210095852
 21
16.33566800169967
 31
0.0
  0
LINE
  8
BASIS
  6
DASHDOT
 62
     6
 10
0.0
 20
-311.37759462435002
 30
0.0
 11
0.0
 21
56.693166799351268
 31
0.0
  0
LINE
  8
NOTE
  6
CONTINUOUS
 62
     4
 10
325.45839210095892
 20
-39.208952782376173
 30
0.0
 11
325.45839210095892
 21
16.33566800169945
 31
0.0
  0
LINE
  8
OUTLINE
  6
CONTINUOUS
 62
     3
 10
-351.99576868888562
 20
-3.0042313117066901
 30
0.0
 11
-353.49788434473908
 21
-3.0042313117066901
 31
0.0
  0
LINE
  8
OUTLINE
  6
CONTINUOUS
 62
     3
 10
-65.291960508053535
 20
-266.37517630524718
 30
0.0
 11
-89.626234132877016
 21
-266.37517630524718
 31
0.0
  0
ARC
  8
DETAIL
  6
CONTINUOUS
 62
     5
 10
-199.1554922427504
 20
-164.047203646659
 30
0.0
 40
103.0063780046454
 50
177.87384027859869
 51
252.6549390869464
  0
ARC
  8
DETAIL
  6
CONTINUOUS
 62
     5
 10
-192.3968606649396
 20
-163.74244256332719
 30
0.0
 40
105.5040997660544
 50
178.08980352068329
 51
249.1987009955989
  0
ARC
  8
DETAIL
  6
CONTINUOUS
 62
     5
 10
-205.63273584973689
 20
-163.62025433932271
 30
0.0
 40
69.633055928675603
 50
177.20574552810001
 51
253.32303383661679
  0
ARC
  8
DETAIL
  6
CONTINUOUS
 62
     5
 10
-289.76258595998797
 20
-7.4461952550151693
 30
0.0
 40
2.5741176821537999
 50
193.75309099307819
 51
266.01978658190222
  0
ARC
  8
DETAIL
  6
CONTINUOUS
 62
     5
 10
-307.26625569296363
 20
-11.20540249646527
 30
0.0
 40
15.32989741952237
 50
11.847110796187801
 51
32.352258999254097
  0
ARC
  8
DETAIL
  6
CONTINUOUS
 62
     5
 10
-289.49897617272558
 20
-8.1059036737112251
 30
0.0
 40
6.4297773854417102
 50
193.71719054505161
 51
266.05568703857131
  0
ARC
  8
DETAIL
  6
CONTINUOUS
 62
     5
 10
-301.84540253838782
 20
-10.49373956130745
 30
0.0
 40
6.1608031212456176
 50
8.0537890791513789
 51
60.965231042872183
  0
ARC
  8
DETAIL
  6
CONTINUOUS
 62
     5
 10
-339.10210747641668
 20
-8.1760123686117367
 30
0.0
 40
6.357444455886327
 50
196.3130023071601
 51
266.33449621903668
  0
ARC
  8
DETAIL
  6
CONTINUOUS
 62
     5
 10
-352.0401234107419
 20
-10.849754421873969
 30
0.0
 40
6.8939468978616842
 50
7.4010422265216986
 51
56.23757357254604
  0
ARC
  8
DETAIL
  6
CONTINUOUS
 62
     5
 10
-185.30286605375699
 20
-244.80882940295439
 30
0.0
 40
132.04997266193229
 50
108.2504678012895
 51
132.8960570282714
  0
ARC
  8
DETAIL
  6
CONTINUOUS
 62
     5
 10
725.15587974282607
 20
1702.798967228279
 30
0.0
 40
1942.3860021971291
 50
249.73933157502469
 51
251.72498071974439
  0
ARC
  8
DETAIL
  6
CONTINUOUS
 62
     5
 10
-39.461578273152099
 20
-571.84558914455965
 30
0.0
 40
471.46456718663052
 50
69.358247924321418
 51
73.670004051122518
  0
ARC
  8
DETAIL
  6
CONTINUOUS
 62
     5
 10
-124.940605615735
 20
99.211338922182904
 30
0.0
 40
340.71263351660031
 50
310.71935940467489
 51
320.08575250183122
  0
ARC
  8
DETAIL
  6
CONTINUOUS
 62
     5
 10
102.53796527553961
 20
-160.12903259381019
 30
0.0
 40
5.3299020939907313
 50
167.9850332967587
 51
293.28076463034421
  0
ARC
  8
DETAIL
  6
CONTINUOUS
 62
     5
 10
-14.00388289771354
 20
345.71619626533283
 30
0.0
 40
524.34147906505018
 50
283.07820681765003
 51
297.49262458167448
  0
ARC
  8
DETAIL
  6
CONTINUOUS
 62
     5
 10
646.69532585800698
 20
1396.304492170246
 30
0.0
 40
1626.6209961657839
 50
252.2028449115771
 51
253.72917988992961
  0
ARC
  8
DETAIL
  6
CONTINUOUS
 62
     5
 10
133.89663082771651
 20
-235.807166077733
 30
0.0
 40
94.05369219958051
 50
52.1114750961924
 51
70.603259398531819
  0
ARC
  8
DETAIL
  6
CONTINUOUS
 62
     5
 10
190.86539471386709
 20
-163.28688890872391
 30
0.0
 40
1.8823645920130201
 50
272.64128828139297
 51
65.112775411927686
  0
ARC
  8
DETAIL
  6
CONTINUOUS
 62
     5
 10
199.1554922427504
 20
-164.047203646659
 30
0.0
 40
103.0063780046454
 50
287.3450609130536
 51
2.126159721401244
  0
ARC
  8
DETAIL
  6
CONTINUOUS
 62
     5
 10
192.3968606649396
 20
-163.74244256332719
 30
0.0
 40
105.5040997660544
 50
290.80129900440107
 51
1.9101964793166311
  0
ARC
  8
DETAIL
  6
CONTINUOUS
 62
     5
 10
205.63273584973689
 20
-163.62025433932271
 30
0.0
 40
69.633055928675603
 50
286.67696616338321
 51
2.79425447189998
  0
ARC
  8
DETAIL
  6
CONTINUOUS
 62
     5
 10
289.76258595998797
 20
-7.4461952550151693
 30
0.0
 40
2.5741176821537999
 50
273.98021341809778
 51
346.24690900692178
  0
ARC
  8
DETAIL
  6
CONTINUOUS
 62
     5
 10
307.26625569296363
 20
-11.20540249646527
 30
0.0
 40
15.32989741952237
 50
147.6477410007459
 51
168.15288920381221
  0
ARC
  8
DETAIL
  6
CONTINUOUS
 62
     5
 10
289.49897617272558
 20
-8.1059036737112251
 30
0.0
 40
6.4297773854417102
 50
273.94431296142869
 51
346.28280945494839
  0
ARC
  8
DETAIL
  6
CONTINUOUS
 62
     5
 10
301.84540253838782
 20
-10.49373956130745
 30
0.0
 40
6.1608031212456176
 50
119.0347689571278
 51
171.94621092084861
  0
ARC
  8
DETAIL
  6
CONTINUOUS
 62
     5
 10
339.10210747641668
 20
-8.1760123686117367
 30
0.0
 40
6.357444455886327
 50
273.66550378096332
 51
343.68699769283978
  0
ARC
  8
DETAIL
  6
CONTINUOUS
 62
     5
 10
352.0401234107419
 20
-10.849754421873969
 30
0.0
 40
6.8939468978616842
 50
123.762426427454
 51
172.5989577734783
  0
ARC
  8
OUTLINE
  6
CONTINUOUS
 62
     3
 10
-199.1554922427504
 20
-164.04720364665741
 30
0.0
 40
103.0063780046454
 50
177.8738402786004
 51
252.6549390869464
  0
ARC
  8
OUTLINE
  6
CONTINUOUS
 62
     3
 10
-339.10210747641668
 20
-8.1760123686101451
 30
0.0
 40
6.357444455886327
 50
196.3130023071617
 51
266.33449621903668
  0
ARC
  8
OUTLINE
  6
CONTINUOUS
 62
     3
 10
199.1554922427508
 20
-164.04720364665741
 30
0.0
 40
103.0063780046454
 50
287.3450609130536
 51
2.1261597213996168
  0
ARC
  8
OUTLINE
  6
CONTINUOUS
 62
     3
 10
339.10210747641668
 20
-8.1760123686101451
 30
0.0
 40
6.357444455886327
 50
273.66550378096332
 51
343.6869976928383
  0
TEXT
  8
ETC
  6
CONTINUOUS
 62
    61
 10
471.41862793972001
 20
302.51503619017649
 30
0.0
 40
40.0
  1
EWG-60ETA2
 41
0.9
  0
TEXT
  8
ETC
  6
CONTINUOUS
 62
    61
 10
471.41862793972001
 20
236.51503619017649
 30
0.0
 40
40.0
  1
EWG-60ETA2-PR
 41
0.9
  0
ENDSEC
  0
EOF
