  0
SECTION
  2
HEADER
  9
$ACADVER
  1
AC1009
  9
$DWGCODEPAGE
  3
dos932
  9
$INSBASE
 10
0.0
 20
0.0
 30
0.0
  9
$EXTMIN
 10
-701.53196595089139
 20
-467.8344609772721
 30
-0.0015258207003583
  9
$EXTMAX
 10
1221.3363765405211
 20
801.72730318937283
 30
0.0000000349246037
  9
$LIMMIN
 10
-2970.0
 20
-2100.0
  9
$LIMMAX
 10
2970.0
 20
2100.0
  9
$ORTHOMODE
 70
     1
  9
$REGENMODE
 70
     1
  9
$FILLMODE
 70
     1
  9
$QTEXTMODE
 70
     0
  9
$MIRRTEXT
 70
     0
  9
$LTSCALE
 40
20.0
  9
$ATTMODE
 70
     1
  9
$TEXTSIZE
 40
64.0
  9
$TRACEWID
 40
0.05
  9
$TEXTSTYLE
  7
STANDARD
  9
$CLAYER
  8
SIZE
  9
$CELTYPE
  6
CONTINUOUS
  9
$CECOLOR
 62
     7
  9
$DIMSCALE
 40
1.0
  9
$DIMASZ
 40
12.0
  9
$DIMEXO
 40
20.0
  9
$DIMDLI
 40
200.0
  9
$DIMRND
 40
0.0
  9
$DIMDLE
 40
0.0
  9
$DIMEXE
 40
20.0
  9
$DIMTP
 40
0.0
  9
$DIMTM
 40
0.0
  9
$DIMTXT
 40
64.0
  9
$DIMCEN
 40
0.09
  9
$DIMTSZ
 40
0.0
  9
$DIMTOL
 70
     0
  9
$DIMLIM
 70
     0
  9
$DIMTIH
 70
     0
  9
$DIMTOH
 70
     0
  9
$DIMSE1
 70
     0
  9
$DIMSE2
 70
     0
  9
$DIMTAD
 70
     1
  9
$DIMZIN
 70
     8
  9
$DIMBLK
  1

  9
$DIMASO
 70
     1
  9
$DIMSHO
 70
     0
  9
$DIMPOST
  1

  9
$DIMAPOST
  1

  9
$DIMALT
 70
     0
  9
$DIMALTD
 70
     2
  9
$DIMALTF
 40
25.399999999999999
  9
$DIMLFAC
 40
1.0
  9
$DIMTOFL
 70
     1
  9
$DIMTVP
 40
0.0
  9
$DIMTIX
 70
     1
  9
$DIMSOXD
 70
     0
  9
$DIMSAH
 70
     0
  9
$DIMBLK1
  1

  9
$DIMBLK2
  1

  9
$DIMSTYLE
  2
STANDARD
  9
$DIMCLRD
 70
     7
  9
$DIMCLRE
 70
     7
  9
$DIMCLRT
 70
     7
  9
$DIMTFAC
 40
1.0
  9
$DIMGAP
 40
25.0
  9
$LUNITS
 70
     2
  9
$LUPREC
 70
     4
  9
$SKETCHINC
 40
0.1
  9
$FILLETRAD
 40
3.0
  9
$AUNITS
 70
     1
  9
$AUPREC
 70
     3
  9
$MENU
  1
ACAD
  9
$ELEVATION
 40
0.0
  9
$PELEVATION
 40
0.0
  9
$THICKNESS
 40
0.0
  9
$LIMCHECK
 70
     0
  9
$CHAMFERA
 40
0.0
  9
$CHAMFERB
 40
0.0
  9
$SKPOLY
 70
     0
  9
$TDCREATE
 40
2453019.62301037
  9
$TDUPDATE
 40
2458949.457996435
  9
$TDINDWG
 40
1.7548770949
  9
$TDUSRTIMER
 40
1.7548770949
  9
$USRTIMER
 70
     1
  9
$ANGBASE
 50
0.0
  9
$ANGDIR
 70
     0
  9
$PDMODE
 70
     3
  9
$PDSIZE
 40
-2.0
  9
$PLINEWID
 40
0.0
  9
$SPLFRAME
 70
     0
  9
$SPLINETYPE
 70
     6
  9
$SPLINESEGS
 70
     8
  9
$SURFTAB1
 70
     6
  9
$SURFTAB2
 70
     6
  9
$SURFTYPE
 70
     6
  9
$SURFU
 70
     6
  9
$SURFV
 70
     6
  9
$UCSNAME
  2

  9
$UCSORG
 10
0.0
 20
0.0
 30
0.0
  9
$UCSXDIR
 10
1.0
 20
0.0
 30
0.0
  9
$UCSYDIR
 10
0.0
 20
1.0
 30
0.0
  9
$PUCSNAME
  2

  9
$PUCSORG
 10
0.0
 20
0.0
 30
0.0
  9
$PUCSXDIR
 10
1.0
 20
0.0
 30
0.0
  9
$PUCSYDIR
 10
0.0
 20
1.0
 30
0.0
  9
$USERI1
 70
     0
  9
$USERI2
 70
     0
  9
$USERI3
 70
     0
  9
$USERI4
 70
     0
  9
$USERI5
 70
     0
  9
$USERR1
 40
20.0
  9
$USERR2
 40
0.0
  9
$USERR3
 40
0.0
  9
$USERR4
 40
0.0
  9
$USERR5
 40
0.0
  9
$WORLDVIEW
 70
     1
  9
$SHADEDGE
 70
     3
  9
$SHADEDIF
 70
    70
  9
$TILEMODE
 70
     1
  9
$MAXACTVP
 70
    48
  9
$PINSBASE
 10
0.0
 20
0.0
 30
0.0
  9
$PLIMCHECK
 70
     0
  9
$PEXTMIN
 10
-100000000000000000000.0
 20
-100000000000000000000.0
 30
-100000000000000000000.0
  9
$PEXTMAX
 10
100000000000000000000.0
 20
100000000000000000000.0
 30
100000000000000000000.0
  9
$PLIMMIN
 10
0.0
 20
0.0
  9
$PLIMMAX
 10
12.0
 20
9.0
  9
$UNITMODE
 70
     0
  9
$VISRETAIN
 70
     0
  9
$PLINEGEN
 70
     0
  9
$PSLTSCALE
 70
     0
  9
$TREEDEPTH
 70
  3020
  9
$ATTDIA
 70
     0
  9
$ATTREQ
 70
     1
  9
$BLIPMODE
 70
     1
  9
$COORDS
 70
     1
  9
$DRAGMODE
 70
     2
  9
$OSMODE
 70
     0
  9
$HANDLING
 70
     0
  9
$HANDSEED
  5
FCC9
  0
ENDSEC
  0
SECTION
  2
TABLES
  0
TABLE
  2
LTYPE
 70
     2
  0
LTYPE
  2
CONTINUOUS
 70
     0
  3
実線
 72
    65
 73
     0
 40
0.0
  0
LTYPE
  2
DASHDOT
 70
     0
  3
____ _ ____ _ ____ _ ____ _ ____ _ ____ _ ____
 72
    65
 73
     4
 40
5.5
 49
4.0
 49
-0.6
 49
0.3
 49
-0.6
  0
ENDTAB
  0
TABLE
  2
LAYER
 70
    12
  0
LAYER
  2
0
 70
     0
 62
     7
  6
CONTINUOUS
  0
LAYER
  2
BASIS
 70
     0
 62
     6
  6
DASHDOT
  0
LAYER
  2
OUTLINE
 70
     0
 62
     3
  6
CONTINUOUS
  0
LAYER
  2
DETAIL
 70
     0
 62
     5
  6
CONTINUOUS
  0
LAYER
  2
SIZE
 70
     0
 62
    30
  6
CONTINUOUS
  0
LAYER
  2
ARRANGE
 70
     0
 62
     1
  6
CONTINUOUS
  0
LAYER
  2
DEFPOINTS
 70
     0
 62
     7
  6
CONTINUOUS
  0
LAYER
  2
ETC
 70
     0
 62
    61
  6
CONTINUOUS
  0
LAYER
  2
FIX
 70
     0
 62
    11
  6
CONTINUOUS
  0
LAYER
  2
NOTE
 70
     0
 62
     4
  6
CONTINUOUS
  0
LAYER
  2
SERVICESPACE
 70
    64
 62
     2
  6
DASHDOT
  0
LAYER
  2
SYMBOLLINE
 70
    64
 62
    15
  6
CONTINUOUS
  0
ENDTAB
  0
TABLE
  2
STYLE
 70
     1
  0
STYLE
  2
STANDARD
 70
     0
 40
64.0
 41
0.9
 50
0.0
 71
     0
 42
64.0
  3
SIMPLEX.shx
  4
BIGFONT.shx
  0
ENDTAB
  0
TABLE
  2
APPID
 70
    19
  0
APPID
  2
ACAD
 70
     0
  0
APPID
  2
AUTOCAD_POSTSCRIPT_FIGURE
 70
     0
  0
APPID
  2
ACAD_EXEMPT_FROM_CAD_STANDARDS
 70
     0
  0
APPID
  2
ACAD_PSEXT
 70
     0
  0
APPID
  2
ACAUTHENVIRON
 70
     0
  0
APPID
  2
GENIUS_GENOENT_13
 70
     0
  0
APPID
  2
GENIUS_GENCFG_13
 70
     0
  0
APPID
  2
GENIUS_GENCFG0_13
 70
     0
  0
APPID
  2
GENIUS_GENCFG1_13
 70
     0
  0
APPID
  2
GENIUS_GENCFG2_13
 70
     0
  0
APPID
  2
GENIUS_GENCFG3_13
 70
     0
  0
APPID
  2
GENIUS_GENCFG4_13
 70
     0
  0
APPID
  2
GENIUS_GEVCFG0_13
 70
     0
  0
APPID
  2
CONTENTBLOCKICON
 70
     0
  0
APPID
  2
CONTENTBLOCKDESCRIPTION
 70
     0
  0
APPID
  2
ACAD_NAV_VCDISPLAY
 70
     0
  0
APPID
  2
ACAD_MLEADERVER
 70
     0
  0
APPID
  2
ACDBDYNAMICBLOCKTRUENAME
 70
     0
  0
APPID
  2
ACDBDYNAMICBLOCKGUID
 70
     0
  0
ENDTAB
  0
TABLE
  2
DIMSTYLE
 70
     1
  0
DIMSTYLE
  2
STANDARD
 70
     0
  3

  4

  5
_ORIGIN
  6

  7

 40
1.0
 41
12.0
 42
20.0
 43
200.0
 44
20.0
 45
0.0
 46
0.0
 47
0.0
 48
0.0
140
64.0
141
0.09
142
0.0
143
25.399999999999999
144
1.0
145
0.0
146
1.0
147
25.0
 71
     0
 72
     0
 73
     0
 74
     0
 75
     0
 76
     0
 77
     1
 78
     8
170
     0
171
     2
172
     1
173
     0
174
     1
175
     0
176
     7
177
     7
178
     7
  0
ENDTAB
  0
TABLE
  2
VIEW
 70
     1
  0
VIEW
  2
ALL
 70
     0
 40
4282.6198079999986
 10
0.0
 20
41.309904000000003
 41
5940.0
 11
0.0
 21
0.0
 31
1.0
 12
0.0
 22
0.0
 32
0.0
 42
50.0
 43
0.0
 44
0.0
 50
0.0
 71
     0
  0
ENDTAB
  0
TABLE
  2
UCS
 70
     0
  0
ENDTAB
  0
TABLE
  2
VPORT
 70
     1
  0
VPORT
  2
*ACTIVE
 70
     0
 10
0.0
 20
0.0
 11
1.0
 21
1.0
 12
259.90220529481502
 22
166.94642110605031
 13
0.0
 23
0.0
 14
1.0
 24
1.0
 15
0.0
 25
0.0
 16
0.0
 26
0.0
 36
1.0
 17
0.0
 27
0.0
 37
0.0
 40
1277.9787482384679
 41
1.747787610619469
 42
50.0
 43
0.0
 44
0.0
 50
0.0
 51
0.0
 71
     0
 72
  1000
 73
     1
 74
     3
 75
     0
 76
     0
 77
     0
 78
     0
  0
ENDTAB
  0
ENDSEC
  0
SECTION
  2
BLOCKS
  0
BLOCK
  8
0
  2
_ORIGIN
 70
     0
 10
0.0
 20
0.0
 30
0.0
  3
_ORIGIN
  1
_ORIGIN
  0
CIRCLE
  8
0
  6
CONTINUOUS
 62
     7
 10
0.0
 20
0.0
 30
0.0
 40
0.5
  0
LINE
  8
0
  6
CONTINUOUS
 62
     7
 10
0.0
 20
0.0
 30
0.0
 11
-1.0
 21
0.0
 31
0.0
  0
ENDBLK
  8
0
  0
ENDSEC
  0
SECTION
  2
ENTITIES
  0
POINT
  8
ARRANGE
  6
CONTINUOUS
 62
     1
 10
-0.0000000000004547
 20
0.0000000000000568
 30
0.0
  0
CIRCLE
  8
ARRANGE
  6
CONTINUOUS
 62
     1
 10
-0.0000000000004547
 20
0.0000000000000568
 30
0.0
 40
40.0
  0
TEXT
  8
ETC
  6
CONTINUOUS
 62
    61
 10
469.50603037044982
 20
737.42474095903026
 30
0.0
 40
64.0
  1
EWG-60FTA2-H_2
 41
0.9
  0
TEXT
  8
ETC
  6
CONTINUOUS
 62
    61
 10
465.32003637044932
 20
619.46943094419885
 30
0.0
 40
64.0
  1
産業扇
 41
0.9
  0
TEXT
  8
ETC
  6
CONTINUOUS
 62
    61
 10
516.02143461900516
 20
511.32065805797362
 30
0.0
 40
40.0
  1
EWG-60FTA2-H
 41
0.9
  0
CIRCLE
  8
FIX
  6
CONTINUOUS
 62
    11
 10
-325.45840918142181
 20
325.45840918053318
 30
0.0
 40
9.8378378699999995
  0
CIRCLE
  8
FIX
  6
CONTINUOUS
 62
    11
 10
325.45840918053352
 20
325.45840918053318
 30
0.0
 40
9.8378378699999995
  0
LINE
  8
SIZE
  6
CONTINUOUS
 62
    30
 10
-325.45840918142181
 20
385.00198699000691
 30
0.0
 11
-325.45840918142181
 21
432.52168773023919
 31
0.0
  0
LINE
  8
SIZE
  6
CONTINUOUS
 62
    30
 10
325.45840918053352
 20
385.00198699000691
 30
0.0
 11
325.45840918053352
 21
432.52168773023919
 31
0.0
  0
LINE
  8
SIZE
  6
CONTINUOUS
 62
    30
 10
-313.45840918142181
 20
412.52168773023919
 30
0.0
 11
313.45840918053352
 21
412.52168773023919
 31
0.0
  0
CIRCLE
  8
SIZE
  6
CONTINUOUS
 62
    30
 10
-325.45840918142181
 20
412.52168773023919
 30
0.0
 40
6.0
  0
LINE
  8
SIZE
  6
CONTINUOUS
 62
    30
 10
-325.45840918142181
 20
412.52168773023919
 30
0.0
 11
-313.45840918142181
 21
412.52168773023919
 31
0.0
  0
CIRCLE
  8
SIZE
  6
CONTINUOUS
 62
    30
 10
325.45840918053352
 20
412.52168773023919
 30
0.0
 40
6.0
  0
LINE
  8
SIZE
  6
CONTINUOUS
 62
    30
 10
325.45840918053352
 20
412.52168773023919
 30
0.0
 11
313.45840918053352
 21
412.52168773023919
 31
0.0
  0
TEXT
  8
SIZE
  6
CONTINUOUS
 62
    30
 10
-73.858287344895558
 20
437.52168773023919
 30
0.0
 40
64.0
  1
650
 41
0.9
 72
     1
 11
0.1988555122472917
 21
437.52168773023919
 31
0.0
  0
POINT
  8
DEFPOINTS
  6
CONTINUOUS
 62
    30
 10
-325.45840918142181
 20
365.00198699000691
 30
0.0
  0
POINT
  8
DEFPOINTS
  6
CONTINUOUS
 62
    30
 10
325.45840918053352
 20
365.00198699000691
 30
0.0
  0
POINT
  8
DEFPOINTS
  6
CONTINUOUS
 62
    30
 10
325.45840918053352
 20
412.52168773023919
 30
0.0
  0
LINE
  8
SIZE
  6
CONTINUOUS
 62
    30
 10
-355.00001863046651
 20
334.94359903775808
 30
0.0
 11
-355.00001863046651
 21
560.52207631173223
 31
0.0
  0
LINE
  8
SIZE
  6
CONTINUOUS
 62
    30
 10
355.00001862957782
 20
334.94359903775808
 30
0.0
 11
355.00001862957782
 21
560.52207631173223
 31
0.0
  0
LINE
  8
SIZE
  6
CONTINUOUS
 62
    30
 10
-343.00001863046651
 20
540.52207631173223
 30
0.0
 11
343.00001862957782
 21
540.52207631173223
 31
0.0
  0
CIRCLE
  8
SIZE
  6
CONTINUOUS
 62
    30
 10
-355.00001863046651
 20
540.52207631173223
 30
0.0
 40
6.0
  0
LINE
  8
SIZE
  6
CONTINUOUS
 62
    30
 10
-355.00001863046651
 20
540.52207631173223
 30
0.0
 11
-343.00001863046651
 21
540.52207631173223
 31
0.0
  0
CIRCLE
  8
SIZE
  6
CONTINUOUS
 62
    30
 10
355.00001862957782
 20
540.52207631173223
 30
0.0
 40
6.0
  0
LINE
  8
SIZE
  6
CONTINUOUS
 62
    30
 10
355.00001862957782
 20
540.52207631173223
 30
0.0
 11
343.00001862957782
 21
540.52207631173223
 31
0.0
  0
TEXT
  8
SIZE
  6
CONTINUOUS
 62
    30
 10
-69.357416653639021
 20
565.52207631173223
 30
0.0
 40
64.0
  1
710
 41
0.9
 72
     1
 11
-0.7859880822104515
 21
565.52207631173223
 31
0.0
  0
POINT
  8
DEFPOINTS
  6
CONTINUOUS
 62
    30
 10
-355.00001863046651
 20
314.94359903775808
 30
0.0
  0
POINT
  8
DEFPOINTS
  6
CONTINUOUS
 62
    30
 10
355.00001862957782
 20
314.94359903775808
 30
0.0
  0
POINT
  8
DEFPOINTS
  6
CONTINUOUS
 62
    30
 10
355.00001862957782
 20
540.52207631173223
 30
0.0
  0
LINE
  8
SIZE
  6
CONTINUOUS
 62
    30
 10
-334.94359903864688
 20
-355.00001863046651
 30
0.0
 11
-550.18153839828562
 21
-355.00001863046651
 31
0.0
  0
LINE
  8
SIZE
  6
CONTINUOUS
 62
    30
 10
-334.94359903864688
 20
355.00001862957748
 30
0.0
 11
-550.1815383982854
 21
355.00001862957782
 31
0.0
  0
LINE
  8
SIZE
  6
CONTINUOUS
 62
    30
 10
-530.18153839828562
 20
-343.00001863046651
 30
0.0
 11
-530.1815383982854
 21
343.00001862957771
 31
0.0
  0
CIRCLE
  8
SIZE
  6
CONTINUOUS
 62
    30
 10
-530.18153839828562
 20
-355.00001863046651
 30
0.0
 40
6.0
  0
LINE
  8
SIZE
  6
CONTINUOUS
 62
    30
 10
-530.18153839828562
 20
-355.00001863046651
 30
0.0
 11
-530.18153839828562
 21
-343.00001863046651
 31
0.0
  0
CIRCLE
  8
SIZE
  6
CONTINUOUS
 62
    30
 10
-530.1815383982854
 20
355.00001862957782
 30
0.0
 40
6.0
  0
LINE
  8
SIZE
  6
CONTINUOUS
 62
    30
 10
-530.1815383982854
 20
355.00001862957782
 30
0.0
 11
-530.1815383982854
 21
343.00001862957771
 31
0.0
  0
TEXT
  8
SIZE
  6
CONTINUOUS
 62
    30
 10
-555.18153839828551
 20
-75.79136313220944
 30
0.0
 40
64.0
  1
710
 50
90.0
 41
0.9
 72
     1
 11
-555.18153839828551
 21
-7.2199345607808709
 31
0.0
  0
POINT
  8
DEFPOINTS
  6
CONTINUOUS
 62
    30
 10
-314.94359903864688
 20
-355.00001863046651
 30
0.0
  0
POINT
  8
DEFPOINTS
  6
CONTINUOUS
 62
    30
 10
-314.94359903864688
 20
355.00001862957748
 30
0.0
  0
POINT
  8
DEFPOINTS
  6
CONTINUOUS
 62
    30
 10
-530.1815383982854
 20
355.00001862957782
 30
0.0
  0
TEXT
  8
NOTE
  6
CONTINUOUS
 62
     4
 10
-701.41944929161173
 20
444.53014267605658
 30
0.0
 40
64.0
  1
4-φ14
 41
0.9
  0
LINE
  8
DETAIL
  6
CONTINUOUS
 62
     4
 10
-327.76016881433668
 20
331.22786339061958
 30
0.0
 11
-325.45840918142181
 21
325.45840918053318
 31
0.0
  0
LINE
  8
DETAIL
  6
CONTINUOUS
 62
     4
 10
-325.45840918142181
 20
325.45840918053318
 30
0.0
 11
-330.33652439709329
 21
329.30401592494059
 31
0.0
  0
LINE
  8
DETAIL
  6
CONTINUOUS
 62
     4
 10
-325.45840918142181
 20
325.45840918053318
 30
0.0
 11
-332.63828403000838
 21
335.07347013502709
 31
0.0
  0
LINE
  8
NOTE
  6
CONTINUOUS
 62
     4
 10
-332.63828403000849
 20
335.07347013502692
 30
0.0
 11
-392.87659214875458
 21
415.74270414978719
 31
0.0
  0
LINE
  8
NOTE
  6
CONTINUOUS
 62
     4
 10
-392.87659214875458
 20
415.74270414978719
 30
0.0
 11
-701.41944929161173
 21
415.74270414978719
 31
0.0
  0
LINE
  8
NOTE
  6
CONTINUOUS
 62
     4
 10
365.00198699000731
 20
-325.45840918142193
 30
0.0
 11
285.91483137105962
 21
-325.45840918142193
 31
0.0
  0
LINE
  8
NOTE
  6
CONTINUOUS
 62
     4
 10
325.45840918053352
 20
-285.91483137194803
 30
0.0
 11
325.45840918053352
 21
-365.00198699089532
 31
0.0
  0
LINE
  8
NOTE
  6
CONTINUOUS
 62
     4
 10
-285.91483137194808
 20
-325.45840918142193
 30
0.0
 11
-365.0019869908956
 21
-325.45840918142193
 31
0.0
  0
LINE
  8
NOTE
  6
CONTINUOUS
 62
     4
 10
-325.45840918142181
 20
-285.91483137194791
 30
0.0
 11
-325.45840918142181
 21
-365.00198699089532
 31
0.0
  0
LINE
  8
NOTE
  6
CONTINUOUS
 62
     4
 10
365.00198699000731
 20
325.45840918053318
 30
0.0
 11
285.91483137105962
 21
325.45840918053318
 31
0.0
  0
LINE
  8
NOTE
  6
CONTINUOUS
 62
     4
 10
325.45840918053352
 20
365.00198699000691
 30
0.0
 11
325.45840918053352
 21
285.91483137105939
 31
0.0
  0
LINE
  8
NOTE
  6
CONTINUOUS
 62
     4
 10
-285.91483137194768
 20
325.45840918053318
 30
0.0
 11
-365.00198699089532
 21
325.45840918053318
 31
0.0
  0
LINE
  8
NOTE
  6
CONTINUOUS
 62
     4
 10
-325.45840918142181
 20
365.00198699000691
 30
0.0
 11
-325.45840918142181
 21
285.91483137105939
 31
0.0
  0
LINE
  8
BASIS
  6
DASHDOT
 62
     6
 10
0.0000000000001137
 20
-391.75900216631982
 30
0.0
 11
0.0000000000001137
 21
391.7590021663197
 31
0.0
  0
LINE
  8
BASIS
  6
DASHDOT
 62
     6
 10
-383.75585329492043
 20
0.0000000000000568
 30
0.0
 11
383.75585329492083
 21
0.0000000000000568
 31
0.0
  0
CIRCLE
  8
FIX
  6
CONTINUOUS
 62
    11
 10
325.45840918053352
 20
-325.45840918142193
 30
0.0
 40
9.8378378699999995
  0
CIRCLE
  8
FIX
  6
CONTINUOUS
 62
    11
 10
-325.45840918142181
 20
-325.45840918142193
 30
0.0
 40
9.8378378699999995
  0
TEXT
  8
NOTE
  6
CONTINUOUS
 62
     4
 10
412.07154759760192
 20
-431.144539214698
 30
0.0
 40
64.0
  1
EL
 41
0.9
  0
LINE
  8
SIZE
  6
CONTINUOUS
 62
    30
 10
-385.00198699089532
 20
325.45840918053318
 30
0.0
 11
-437.24421945758462
 21
325.45840918053318
 31
0.0
  0
LINE
  8
SIZE
  6
CONTINUOUS
 62
    30
 10
-385.0019869908956
 20
-325.45840918142181
 30
0.0
 11
-437.24421945758479
 21
-325.45840918142181
 31
0.0
  0
LINE
  8
SIZE
  6
CONTINUOUS
 62
    30
 10
-417.24421945758462
 20
313.45840918053318
 30
0.0
 11
-417.24421945758479
 21
-313.45840918142181
 31
0.0
  0
CIRCLE
  8
SIZE
  6
CONTINUOUS
 62
    30
 10
-417.24421945758462
 20
325.45840918053318
 30
0.0
 40
6.0
  0
LINE
  8
SIZE
  6
CONTINUOUS
 62
    30
 10
-417.24421945758462
 20
325.45840918053318
 30
0.0
 11
-417.24421945758462
 21
313.45840918053318
 31
0.0
  0
CIRCLE
  8
SIZE
  6
CONTINUOUS
 62
    30
 10
-417.24421945758479
 20
-325.45840918142181
 30
0.0
 40
6.0
  0
LINE
  8
SIZE
  6
CONTINUOUS
 62
    30
 10
-417.24421945758479
 20
-325.45840918142181
 30
0.0
 11
-417.24421945758479
 21
-313.45840918142181
 31
0.0
  0
TEXT
  8
SIZE
  6
CONTINUOUS
 62
    30
 10
-442.24421945758479
 20
-74.057142857142736
 30
0.0
 40
64.0
  1
650
 50
90.0
 41
0.9
 72
     1
 11
-442.24421945758479
 21
0.0000000000001137
 31
0.0
  0
POINT
  8
DEFPOINTS
  6
CONTINUOUS
 62
    30
 10
-365.00198699089532
 20
325.45840918053318
 30
0.0
  0
POINT
  8
DEFPOINTS
  6
CONTINUOUS
 62
    30
 10
-365.0019869908956
 20
-325.45840918142193
 30
0.0
  0
POINT
  8
DEFPOINTS
  6
CONTINUOUS
 62
    30
 10
-417.24421945758479
 20
-325.45840918142181
 30
0.0
  0
LINE
  8
DETAIL
  6
CONTINUOUS
 62
     4
 10
285.97287072342732
 20
-307.06377234034193
 30
0.0
 11
284.06159296017142
 21
-301.15346637519218
 31
0.0
  0
LINE
  8
DETAIL
  6
CONTINUOUS
 62
     4
 10
284.06159296017142
 20
-301.15346637519218
 30
0.0
 11
288.67196731256888
 21
-305.31629565595239
 31
0.0
  0
LINE
  8
DETAIL
  6
CONTINUOUS
 62
     4
 10
284.06159296017142
 20
-301.15346637519218
 30
0.0
 11
290.58324507582512
 21
-311.22660162110202
 31
0.0
  0
LINE
  8
NOTE
  6
CONTINUOUS
 62
     4
 10
290.58324507582512
 20
-311.22660162110191
 30
0.0
 11
392.00277864375931
 21
-467.83165833607097
 31
0.0
  0
LINE
  8
NOTE
  6
CONTINUOUS
 62
     4
 10
392.00277864375931
 20
-467.83165833607097
 30
0.0
 11
514.03135007233072
 21
-467.83165833607097
 31
0.0
  0
LINE
  8
SIZE
  6
CONTINUOUS
 62
    30
 10
695.73704244328519
 20
349.04312758774722
 30
0.0
 11
87.271179586964308
 21
43.78292891281427
 31
0.0
  0
LINE
  8
SIZE
  6
CONTINUOUS
 62
    30
 10
-87.271179586964323
 20
-43.782928912814157
 30
0.0
 11
-97.997052745771157
 21
-49.163973883931419
 31
0.0
  0
TEXT
  8
SIZE
  6
CONTINUOUS
 62
    30
 10
470.46364163024077
 20
263.9958510569308
 30
0.0
 40
64.0
  1
φ200
 50
26.642384450218682
 41
0.9
 72
     1
 11
572.69653550961152
 21
315.28489683877967
 31
0.0
  0
LINE
  8
SIZE
  6
CONTINUOUS
 62
    30
 10
-76.54530642815736
 20
-38.401883941696951
 30
0.0
 11
76.545306428157346
 21
38.401883941697058
 31
0.0
  0
CIRCLE
  8
SIZE
  6
CONTINUOUS
 62
    30
 10
-76.54530642815736
 20
-38.401883941696951
 30
0.0
 40
6.0
  0
LINE
  8
SIZE
  6
CONTINUOUS
 62
    30
 10
-76.54530642815736
 20
-38.401883941696951
 30
0.0
 11
-87.271179586964323
 21
-43.782928912814157
 31
0.0
  0
CIRCLE
  8
SIZE
  6
CONTINUOUS
 62
    30
 10
76.545306428157346
 20
38.401883941697058
 30
0.0
 40
6.0
  0
LINE
  8
SIZE
  6
CONTINUOUS
 62
    30
 10
76.545306428157346
 20
38.401883941697058
 30
0.0
 11
87.271179586964308
 21
43.782928912814327
 31
0.0
  0
POINT
  8
DEFPOINTS
  6
CONTINUOUS
 62
    30
 10
76.545306428157346
 20
38.401883941697058
 30
0.0
  0
POINT
  8
DEFPOINTS
  6
CONTINUOUS
 62
    30
 10
-76.54530642815736
 20
-38.401883941696951
 30
0.0
  0
LINE
  8
DETAIL
  6
CONTINUOUS
 62
     5
 10
261.69085478095712
 20
-269.93627516576782
 30
0.0
 11
261.69085478095712
 21
-269.93627516576782
 31
0.0
  0
LINE
  8
DETAIL
  6
CONTINUOUS
 62
     5
 10
270.72688240403022
 20
-260.77173505158532
 30
0.0
 11
270.61723693998613
 21
-260.66687919526191
 31
0.0
  0
LINE
  8
DETAIL
  6
CONTINUOUS
 62
     5
 10
270.61723693998613
 20
-260.66687919526191
 30
0.0
 11
270.50542500941401
 21
-260.56423869826313
 31
0.0
  0
LINE
  8
DETAIL
  6
CONTINUOUS
 62
     5
 10
270.50542500941401
 20
-260.56423869826313
 30
0.0
 11
270.50542500941401
 21
-260.56423869826313
 31
0.0
  0
LINE
  8
DETAIL
  6
CONTINUOUS
 62
     5
 10
270.50542500941401
 20
-260.56423869826313
 30
0.0
 11
270.38978336754832
 21
-260.46558204267808
 31
0.0
  0
LINE
  8
DETAIL
  6
CONTINUOUS
 62
     5
 10
270.38978336754832
 20
-260.46558204267808
 30
0.0
 11
270.27066165666912
 21
-260.37089020165212
 31
0.0
  0
LINE
  8
DETAIL
  6
CONTINUOUS
 62
     5
 10
270.27066165666912
 20
-260.37089020165212
 30
0.0
 11
270.27066165666912
 21
-260.37089020165212
 31
0.0
  0
LINE
  8
DETAIL
  6
CONTINUOUS
 62
     5
 10
270.27066165666912
 20
-260.37089020165212
 30
0.0
 11
270.14872836849707
 21
-260.27979376770622
 31
0.0
  0
LINE
  8
DETAIL
  6
CONTINUOUS
 62
     5
 10
270.14872836849707
 20
-260.27979376770622
 30
0.0
 11
270.02391450547032
 21
-260.19230931980871
 31
0.0
  0
LINE
  8
DETAIL
  6
CONTINUOUS
 62
     5
 10
270.02391450547032
 20
-260.19230931980871
 30
0.0
 11
270.02391450547032
 21
-260.19230931980871
 31
0.0
  0
LINE
  8
DETAIL
  6
CONTINUOUS
 62
     5
 10
270.02391450547032
 20
-260.19230931980871
 30
0.0
 11
269.89620096522663
 21
-260.10861082432791
 31
0.0
  0
LINE
  8
DETAIL
  6
CONTINUOUS
 62
     5
 10
269.89620096522663
 20
-260.10861082432791
 30
0.0
 11
269.76650571549328
 21
-260.02911581078831
 31
0.0
  0
LINE
  8
DETAIL
  6
CONTINUOUS
 62
     5
 10
269.76650571549328
 20
-260.02911581078831
 30
0.0
 11
269.76650571549328
 21
-260.02911581078831
 31
0.0
  0
LINE
  8
DETAIL
  6
CONTINUOUS
 62
     5
 10
269.76650571549328
 20
-260.02911581078831
 30
0.0
 11
269.63522829375239
 21
-259.95396263973572
 31
0.0
  0
LINE
  8
DETAIL
  6
CONTINUOUS
 62
     5
 10
269.63522829375239
 20
-259.95396263973572
 30
0.0
 11
269.49975744641472
 21
-259.88192943264681
 31
0.0
  0
LINE
  8
DETAIL
  6
CONTINUOUS
 62
     5
 10
269.49975744641472
 20
-259.88192943264681
 30
0.0
 11
269.49975744641472
 21
-259.88192943264681
 31
0.0
  0
LINE
  8
DETAIL
  6
CONTINUOUS
 62
     5
 10
269.49975744641472
 20
-259.88192943264681
 30
0.0
 11
269.35787715416762
 21
-259.81202213014723
 31
0.0
  0
LINE
  8
DETAIL
  6
CONTINUOUS
 62
     5
 10
269.35787715416762
 20
-259.81202213014723
 30
0.0
 11
269.21196312587477
 21
-259.74551818853467
 31
0.0
  0
LINE
  8
DETAIL
  6
CONTINUOUS
 62
     5
 10
269.21196312587477
 20
-259.74551818853467
 30
0.0
 11
269.21196312587477
 21
-259.74551818853467
 31
0.0
  0
LINE
  8
DETAIL
  6
CONTINUOUS
 62
     5
 10
269.21196312587477
 20
-259.74551818853467
 30
0.0
 11
269.06484556587702
 21
-259.68386554256091
 31
0.0
  0
LINE
  8
DETAIL
  6
CONTINUOUS
 62
     5
 10
269.06484556587702
 20
-259.68386554256091
 30
0.0
 11
268.91658093225601
 21
-259.62692252512147
 31
0.0
  0
LINE
  8
DETAIL
  6
CONTINUOUS
 62
     5
 10
268.91658093225601
 20
-259.62692252512147
 30
0.0
 11
268.91658093225601
 21
-259.62692252512147
 31
0.0
  0
LINE
  8
DETAIL
  6
CONTINUOUS
 62
     5
 10
268.91658093225601
 20
-259.62692252512147
 30
0.0
 11
268.76662502853918
 21
-259.57424214453403
 31
0.0
  0
LINE
  8
DETAIL
  6
CONTINUOUS
 62
     5
 10
268.76662502853918
 20
-259.57424214453403
 30
0.0
 11
268.61480478629602
 21
-259.52574571264768
 31
0.0
  0
LINE
  8
DETAIL
  6
CONTINUOUS
 62
     5
 10
268.61480478629602
 20
-259.52574571264768
 30
0.0
 11
268.61480478629602
 21
-259.52574571264768
 31
0.0
  0
LINE
  8
DETAIL
  6
CONTINUOUS
 62
     5
 10
268.61480478629602
 20
-259.52574571264768
 30
0.0
 11
268.46136222763027
 21
-259.48147571412642
 31
0.0
  0
LINE
  8
DETAIL
  6
CONTINUOUS
 62
     5
 10
268.46136222763027
 20
-259.48147571412642
 30
0.0
 11
268.30782860873308
 21
-259.44159102135308
 31
0.0
  0
LINE
  8
DETAIL
  6
CONTINUOUS
 62
     5
 10
268.30782860873308
 20
-259.44159102135308
 30
0.0
 11
268.30782860873308
 21
-259.44159102135308
 31
0.0
  0
LINE
  8
DETAIL
  6
CONTINUOUS
 62
     5
 10
268.30782860873308
 20
-259.44159102135308
 30
0.0
 11
268.15467547821999
 21
-259.40607114003751
 31
0.0
  0
LINE
  8
DETAIL
  6
CONTINUOUS
 62
     5
 10
268.15467547821999
 20
-259.40607114003751
 30
0.0
 11
267.99684632030562
 21
-259.37406172147797
 31
0.0
  0
LINE
  8
DETAIL
  6
CONTINUOUS
 62
     5
 10
267.99684632030562
 20
-259.37406172147797
 30
0.0
 11
267.99684632030562
 21
-259.37406172147797
 31
0.0
  0
LINE
  8
DETAIL
  6
CONTINUOUS
 62
     5
 10
267.99684632030562
 20
-259.37406172147797
 30
0.0
 11
267.83012131029358
 21
-259.34489544418437
 31
0.0
  0
LINE
  8
DETAIL
  6
CONTINUOUS
 62
     5
 10
267.83012131029358
 20
-259.34489544418437
 30
0.0
 11
267.65915545223771
 21
-259.31948694992701
 31
0.0
  0
LINE
  8
DETAIL
  6
CONTINUOUS
 62
     5
 10
267.65915545223771
 20
-259.31948694992701
 30
0.0
 11
267.65915545223771
 21
-259.31948694992701
 31
0.0
  0
LINE
  8
DETAIL
  6
CONTINUOUS
 62
     5
 10
267.65915545223771
 20
-259.31948694992701
 30
0.0
 11
267.48920968895533
 21
-259.29886337587777
 31
0.0
  0
LINE
  8
DETAIL
  6
CONTINUOUS
 62
     5
 10
267.48920968895533
 20
-259.29886337587777
 30
0.0
 11
267.31909388956961
 21
-259.28291987755563
 31
0.0
  0
LINE
  8
DETAIL
  6
CONTINUOUS
 62
     5
 10
267.31909388956961
 20
-259.28291987755563
 30
0.0
 11
267.31909388956961
 21
-259.28291987755563
 31
0.0
  0
LINE
  8
DETAIL
  6
CONTINUOUS
 62
     5
 10
267.31909388956961
 20
-259.28291987755563
 30
0.0
 11
267.14730561354003
 21
-259.27127763042012
 31
0.0
  0
LINE
  8
DETAIL
  6
CONTINUOUS
 62
     5
 10
267.14730561354003
 20
-259.27127763042012
 30
0.0
 11
266.97754425536448
 21
-259.26359387135602
 31
0.0
  0
LINE
  8
DETAIL
  6
CONTINUOUS
 62
     5
 10
266.97754425536448
 20
-259.26359387135602
 30
0.0
 11
266.97754425536448
 21
-259.26359387135602
 31
0.0
  0
LINE
  8
DETAIL
  6
CONTINUOUS
 62
     5
 10
266.97754425536448
 20
-259.26359387135602
 30
0.0
 11
266.81122060168508
 21
-259.25978178659233
 31
0.0
  0
LINE
  8
DETAIL
  6
CONTINUOUS
 62
     5
 10
266.81122060168508
 20
-259.25978178659233
 30
0.0
 11
266.63538917268352
 21
-259.26074229832062
 31
0.0
  0
LINE
  8
DETAIL
  6
CONTINUOUS
 62
     5
 10
266.63538917268352
 20
-259.26074229832062
 30
0.0
 11
266.63538917268352
 21
-259.26074229832062
 31
0.0
  0
LINE
  8
DETAIL
  6
CONTINUOUS
 62
     5
 10
266.63538917268352
 20
-259.26074229832062
 30
0.0
 11
266.44657122962752
 21
-259.26662651140441
 31
0.0
  0
LINE
  8
DETAIL
  6
CONTINUOUS
 62
     5
 10
266.44657122962752
 20
-259.26662651140441
 30
0.0
 11
266.29351126459022
 21
-259.27359852544112
 31
0.0
  0
LINE
  8
DETAIL
  6
CONTINUOUS
 62
     5
 10
266.29351126459022
 20
-259.27359852544112
 30
0.0
 11
266.29351126459022
 21
-259.27359852544112
 31
0.0
  0
LINE
  8
DETAIL
  6
CONTINUOUS
 62
     5
 10
266.29351126459022
 20
-259.27359852544112
 30
0.0
 11
266.21740521865922
 21
-259.27807211062162
 31
0.0
  0
LINE
  8
DETAIL
  6
CONTINUOUS
 62
     5
 10
266.21740521865922
 20
-259.27807211062162
 30
0.0
 11
266.17703159817222
 21
-259.28144672478038
 31
0.0
  0
LINE
  8
DETAIL
  6
CONTINUOUS
 62
     5
 10
266.17703159817222
 20
-259.28144672478038
 30
0.0
 11
266.17703159817222
 21
-259.28144672478038
 31
0.0
  0
LINE
  8
DETAIL
  6
CONTINUOUS
 62
     5
 10
266.17703159817222
 20
-259.28144672478038
 30
0.0
 11
266.12363016208758
 21
-259.28580920314278
 31
0.0
  0
LINE
  8
DETAIL
  6
CONTINUOUS
 62
     5
 10
266.12363016208758
 20
-259.28580920314278
 30
0.0
 11
266.06070311459399
 21
-259.29101020285037
 31
0.0
  0
LINE
  8
DETAIL
  6
CONTINUOUS
 62
     5
 10
266.06070311459399
 20
-259.29101020285037
 30
0.0
 11
266.06070311459399
 21
-259.29101020285037
 31
0.0
  0
LINE
  8
DETAIL
  6
CONTINUOUS
 62
     5
 10
266.06070311459399
 20
-259.29101020285037
 30
0.0
 11
266.00131807311692
 21
-259.29648748034782
 31
0.0
  0
LINE
  8
DETAIL
  6
CONTINUOUS
 62
     5
 10
266.00131807311692
 20
-259.29648748034782
 30
0.0
 11
265.94454186280137
 21
-259.3022633673724
 31
0.0
  0
LINE
  8
DETAIL
  6
CONTINUOUS
 62
     5
 10
265.94454186280137
 20
-259.3022633673724
 30
0.0
 11
265.94454186280137
 21
-259.3022633673724
 31
0.0
  0
LINE
  8
DETAIL
  6
CONTINUOUS
 62
     5
 10
265.94454186280137
 20
-259.3022633673724
 30
0.0
 11
265.88687629169402
 21
-259.30848080871323
 31
0.0
  0
LINE
  8
DETAIL
  6
CONTINUOUS
 62
     5
 10
265.88687629169402
 20
-259.30848080871323
 30
0.0
 11
265.82856389173878
 21
-259.31518062606762
 31
0.0
  0
LINE
  8
DETAIL
  6
CONTINUOUS
 62
     5
 10
265.82856389173878
 20
-259.31518062606762
 30
0.0
 11
265.82856389173878
 21
-259.31518062606762
 31
0.0
  0
LINE
  8
DETAIL
  6
CONTINUOUS
 62
     5
 10
265.82856389173878
 20
-259.31518062606762
 30
0.0
 11
265.77054185002868
 21
-259.32233408962782
 31
0.0
  0
LINE
  8
DETAIL
  6
CONTINUOUS
 62
     5
 10
265.77054185002868
 20
-259.32233408962782
 30
0.0
 11
265.71278525035302
 21
-259.32973638665732
 31
0.0
  0
LINE
  8
DETAIL
  6
CONTINUOUS
 62
     5
 10
252.22657667731659
 20
-273.15718807055038
 30
0.0
 11
252.22107630660301
 21
-273.76426357209021
 31
0.0
  0
LINE
  8
DETAIL
  6
CONTINUOUS
 62
     5
 10
252.22107630660301
 20
-273.76426357209021
 30
0.0
 11
252.22155634963411
 21
-273.90640482170841
 31
0.0
  0
LINE
  8
DETAIL
  6
CONTINUOUS
 62
     5
 10
252.22155634963411
 20
-273.90640482170841
 30
0.0
 11
252.22155634963411
 21
-273.90640482170841
 31
0.0
  0
LINE
  8
DETAIL
  6
CONTINUOUS
 62
     5
 10
252.22155634963411
 20
-273.90640482170841
 30
0.0
 11
252.22520400663021
 21
-274.04853466435708
 31
0.0
  0
LINE
  8
DETAIL
  6
CONTINUOUS
 62
     5
 10
252.22520400663021
 20
-274.04853466435708
 30
0.0
 11
252.23194752416569
 21
-274.19044999387472
 31
0.0
  0
LINE
  8
DETAIL
  6
CONTINUOUS
 62
     5
 10
252.23194752416569
 20
-274.19044999387472
 30
0.0
 11
252.23194752416569
 21
-274.19044999387472
 31
0.0
  0
LINE
  8
DETAIL
  6
CONTINUOUS
 62
     5
 10
252.23194752416569
 20
-274.19044999387472
 30
0.0
 11
252.24147394232949
 21
-274.33204368791831
 31
0.0
  0
LINE
  8
DETAIL
  6
CONTINUOUS
 62
     5
 10
252.24147394232949
 20
-274.33204368791831
 30
0.0
 11
252.25397708451709
 21
-274.47376802846208
 31
0.0
  0
LINE
  8
DETAIL
  6
CONTINUOUS
 62
     5
 10
252.25397708451709
 20
-274.47376802846208
 30
0.0
 11
252.25397708451709
 21
-274.47376802846208
 31
0.0
  0
LINE
  8
DETAIL
  6
CONTINUOUS
 62
     5
 10
252.25397708451709
 20
-274.47376802846208
 30
0.0
 11
252.26963858895689
 21
-274.61569961150349
 31
0.0
  0
LINE
  8
DETAIL
  6
CONTINUOUS
 62
     5
 10
252.26963858895689
 20
-274.61569961150349
 30
0.0
 11
252.28808456989989
 21
-274.75585288481642
 31
0.0
  0
LINE
  8
DETAIL
  6
CONTINUOUS
 62
     5
 10
252.28808456989989
 20
-274.75585288481642
 30
0.0
 11
252.28808456989989
 21
-274.75585288481642
 31
0.0
  0
LINE
  8
DETAIL
  6
CONTINUOUS
 62
     5
 10
252.28808456989989
 20
-274.75585288481642
 30
0.0
 11
252.30923108875439
 21
-274.89364905626229
 31
0.0
  0
LINE
  8
DETAIL
  6
CONTINUOUS
 62
     5
 10
252.30923108875439
 20
-274.89364905626229
 30
0.0
 11
252.33470951952651
 21
-275.03619852228343
 31
0.0
  0
LINE
  8
DETAIL
  6
CONTINUOUS
 62
     5
 10
252.33470951952651
 20
-275.03619852228343
 30
0.0
 11
252.33470951952651
 21
-275.03619852228343
 31
0.0
  0
LINE
  8
DETAIL
  6
CONTINUOUS
 62
     5
 10
252.33470951952651
 20
-275.03619852228343
 30
0.0
 11
252.36599705110871
 21
-275.18947056376197
 31
0.0
  0
LINE
  8
DETAIL
  6
CONTINUOUS
 62
     5
 10
252.36599705110871
 20
-275.18947056376197
 30
0.0
 11
252.40223881934
 21
-275.34718081076892
 31
0.0
  0
LINE
  8
DETAIL
  6
CONTINUOUS
 62
     5
 10
252.40223881934
 20
-275.34718081076892
 30
0.0
 11
252.40223881934
 21
-275.34718081076892
 31
0.0
  0
LINE
  8
DETAIL
  6
CONTINUOUS
 62
     5
 10
252.40223881934
 20
-275.34718081076892
 30
0.0
 11
252.4423169411136
 21
-275.50193550536142
 31
0.0
  0
LINE
  8
DETAIL
  6
CONTINUOUS
 62
     5
 10
252.4423169411136
 20
-275.50193550536142
 30
0.0
 11
252.48639351059251
 21
-275.65415698835949
 31
0.0
  0
LINE
  8
DETAIL
  6
CONTINUOUS
 62
     5
 10
252.48639351059251
 20
-275.65415698835949
 30
0.0
 11
252.48639351059251
 21
-275.65415698835949
 31
0.0
  0
LINE
  8
DETAIL
  6
CONTINUOUS
 62
     5
 10
252.48639351059251
 20
-275.65415698835949
 30
0.0
 11
252.5348381133131
 21
-275.80565004436022
 31
0.0
  0
LINE
  8
DETAIL
  6
CONTINUOUS
 62
     5
 10
252.5348381133131
 20
-275.80565004436022
 30
0.0
 11
252.5875703230399
 21
-275.95593313431021
 31
0.0
  0
LINE
  8
DETAIL
  6
CONTINUOUS
 62
     5
 10
252.5875703230399
 20
-275.95593313431021
 30
0.0
 11
252.5875703230399
 21
-275.95593313431021
 31
0.0
  0
LINE
  8
DETAIL
  6
CONTINUOUS
 62
     5
 10
252.5875703230399
 20
-275.95593313431021
 30
0.0
 11
252.64452722804961
 21
-276.1042854372028
 31
0.0
  0
LINE
  8
DETAIL
  6
CONTINUOUS
 62
     5
 10
252.64452722804961
 20
-276.1042854372028
 30
0.0
 11
252.70616598643821
 21
-276.25131532787572
 31
0.0
  0
LINE
  8
DETAIL
  6
CONTINUOUS
 62
     5
 10
252.70616598643821
 20
-276.25131532787572
 30
0.0
 11
252.70616598643821
 21
-276.25131532787572
 31
0.0
  0
LINE
  8
DETAIL
  6
CONTINUOUS
 62
     5
 10
252.70616598643821
 20
-276.25131532787572
 30
0.0
 11
252.77266620687871
 21
-276.39720586519638
 31
0.0
  0
LINE
  8
DETAIL
  6
CONTINUOUS
 62
     5
 10
252.77266620687871
 20
-276.39720586519638
 30
0.0
 11
252.84257723054239
 21
-276.53910964831181
 31
0.0
  0
LINE
  8
DETAIL
  6
CONTINUOUS
 62
     5
 10
252.84257723054239
 20
-276.53910964831181
 30
0.0
 11
252.84257723054239
 21
-276.53910964831181
 31
0.0
  0
LINE
  8
DETAIL
  6
CONTINUOUS
 62
     5
 10
252.84257723054239
 20
-276.53910964831181
 30
0.0
 11
252.91461143471841
 21
-276.67458678999373
 31
0.0
  0
LINE
  8
DETAIL
  6
CONTINUOUS
 62
     5
 10
252.91461143471841
 20
-276.67458678999373
 30
0.0
 11
252.9897636086765
 21
-276.80585791723632
 31
0.0
  0
LINE
  8
DETAIL
  6
CONTINUOUS
 62
     5
 10
252.9897636086765
 20
-276.80585791723632
 30
0.0
 11
252.9897636086765
 21
-276.80585791723632
 31
0.0
  0
LINE
  8
DETAIL
  6
CONTINUOUS
 62
     5
 10
252.9897636086765
 20
-276.80585791723632
 30
0.0
 11
253.069258355019
 21
-276.93555148014309
 31
0.0
  0
LINE
  8
DETAIL
  6
CONTINUOUS
 62
     5
 10
253.069258355019
 20
-276.93555148014309
 30
0.0
 11
253.15295711769139
 21
-277.06326670703783
 31
0.0
  0
LINE
  8
DETAIL
  6
CONTINUOUS
 62
     5
 10
253.15295711769139
 20
-277.06326670703783
 30
0.0
 11
253.15295711769139
 21
-277.06326670703783
 31
0.0
  0
LINE
  8
DETAIL
  6
CONTINUOUS
 62
     5
 10
253.15295711769139
 20
-277.06326670703783
 30
0.0
 11
253.24044163727351
 21
-277.18808102251973
 31
0.0
  0
LINE
  8
DETAIL
  6
CONTINUOUS
 62
     5
 10
253.24044163727351
 20
-277.18808102251973
 30
0.0
 11
253.33153799953121
 21
-277.31001385807241
 31
0.0
  0
LINE
  8
DETAIL
  6
CONTINUOUS
 62
     5
 10
253.33153799953121
 20
-277.31001385807241
 30
0.0
 11
253.33153799953121
 21
-277.31001385807241
 31
0.0
  0
LINE
  8
DETAIL
  6
CONTINUOUS
 62
     5
 10
253.33153799953121
 20
-277.31001385807241
 30
0.0
 11
253.42622982100531
 21
-277.42913544546252
 31
0.0
  0
LINE
  8
DETAIL
  6
CONTINUOUS
 62
     5
 10
253.42622982100531
 20
-277.42913544546252
 30
0.0
 11
253.52488649614071
 21
-277.54477721069622
 31
0.0
  0
LINE
  8
DETAIL
  6
CONTINUOUS
 62
     5
 10
253.52488649614071
 20
-277.54477721069622
 30
0.0
 11
253.52488649614071
 21
-277.54477721069622
 31
0.0
  0
LINE
  8
DETAIL
  6
CONTINUOUS
 62
     5
 10
253.52488649614071
 20
-277.54477721069622
 30
0.0
 11
253.627526999656
 21
-277.65658918237767
 31
0.0
  0
LINE
  8
DETAIL
  6
CONTINUOUS
 62
     5
 10
253.627526999656
 20
-277.65658918237767
 30
0.0
 11
253.73238284946251
 21
-277.76623460526451
 31
0.0
  0
LINE
  8
DETAIL
  6
CONTINUOUS
 62
     5
 10
284.59494374823328
 20
-272.94034644068722
 30
0.0
 11
284.7020070963502
 21
-273.05230023009881
 31
0.0
  0
LINE
  8
DETAIL
  6
CONTINUOUS
 62
     5
 10
284.7020070963502
 20
-273.05230023009881
 30
0.0
 11
284.80680844594389
 21
-273.16646609635461
 31
0.0
  0
LINE
  8
DETAIL
  6
CONTINUOUS
 62
     5
 10
284.80680844594389
 20
-273.16646609635461
 30
0.0
 11
284.80680844594389
 21
-273.16646609635461
 31
0.0
  0
LINE
  8
DETAIL
  6
CONTINUOUS
 62
     5
 10
284.80680844594389
 20
-273.16646609635461
 30
0.0
 11
284.90754208371351
 21
-273.28454229988853
 31
0.0
  0
LINE
  8
DETAIL
  6
CONTINUOUS
 62
     5
 10
284.90754208371351
 20
-273.28454229988853
 30
0.0
 11
285.00422743724158
 21
-273.40617183549813
 31
0.0
  0
LINE
  8
DETAIL
  6
CONTINUOUS
 62
     5
 10
285.00422743724158
 20
-273.40617183549813
 30
0.0
 11
285.00422743724158
 21
-273.40617183549813
 31
0.0
  0
LINE
  8
DETAIL
  6
CONTINUOUS
 62
     5
 10
285.00422743724158
 20
-273.40617183549813
 30
0.0
 11
285.09724169105527
 21
-273.53067213744953
 31
0.0
  0
LINE
  8
DETAIL
  6
CONTINUOUS
 62
     5
 10
285.09724169105527
 20
-273.53067213744953
 30
0.0
 11
285.18656791656622
 21
-273.65811366352432
 31
0.0
  0
LINE
  8
DETAIL
  6
CONTINUOUS
 62
     5
 10
285.18656791656622
 20
-273.65811366352432
 30
0.0
 11
285.18656791656622
 21
-273.65811366352432
 31
0.0
  0
LINE
  8
DETAIL
  6
CONTINUOUS
 62
     5
 10
285.18656791656622
 20
-273.65811366352432
 30
0.0
 11
285.27202848479902
 21
-273.78851592027712
 31
0.0
  0
LINE
  8
DETAIL
  6
CONTINUOUS
 62
     5
 10
285.27202848479902
 20
-273.78851592027712
 30
0.0
 11
285.35319707835862
 21
-273.92094158583973
 31
0.0
  0
LINE
  8
DETAIL
  6
CONTINUOUS
 62
     5
 10
285.35319707835862
 20
-273.92094158583973
 30
0.0
 11
285.35319707835862
 21
-273.92094158583973
 31
0.0
  0
LINE
  8
DETAIL
  6
CONTINUOUS
 62
     5
 10
285.35319707835862
 20
-273.92094158583973
 30
0.0
 11
285.42993242444447
 21
-274.05498270378132
 31
0.0
  0
LINE
  8
DETAIL
  6
CONTINUOUS
 62
     5
 10
285.42993242444447
 20
-274.05498270378132
 30
0.0
 11
285.50348211705898
 21
-274.19330560785022
 31
0.0
  0
LINE
  8
DETAIL
  6
CONTINUOUS
 62
     5
 10
285.50348211705898
 20
-274.19330560785022
 30
0.0
 11
285.50348211705898
 21
-274.19330560785022
 31
0.0
  0
LINE
  8
DETAIL
  6
CONTINUOUS
 62
     5
 10
285.50348211705898
 20
-274.19330560785022
 30
0.0
 11
285.57486114092791
 21
-274.33817299891552
 31
0.0
  0
LINE
  8
DETAIL
  6
CONTINUOUS
 62
     5
 10
285.57486114092791
 20
-274.33817299891552
 30
0.0
 11
285.64276517687688
 21
-274.48715875615551
 31
0.0
  0
LINE
  8
DETAIL
  6
CONTINUOUS
 62
     5
 10
285.64276517687688
 20
-274.48715875615551
 30
0.0
 11
285.64276517687688
 21
-274.48715875615551
 31
0.0
  0
LINE
  8
DETAIL
  6
CONTINUOUS
 62
     5
 10
285.64276517687688
 20
-274.48715875615551
 30
0.0
 11
285.7057158155996
 21
-274.63737298558442
 31
0.0
  0
LINE
  8
DETAIL
  6
CONTINUOUS
 62
     5
 10
285.7057158155996
 20
-274.63737298558442
 30
0.0
 11
285.76385759116391
 21
-274.78875952225093
 31
0.0
  0
LINE
  8
DETAIL
  6
CONTINUOUS
 62
     5
 10
285.76385759116391
 20
-274.78875952225093
 30
0.0
 11
285.76385759116391
 21
-274.78875952225093
 31
0.0
  0
LINE
  8
DETAIL
  6
CONTINUOUS
 62
     5
 10
285.76385759116391
 20
-274.78875952225093
 30
0.0
 11
285.81764687465619
 21
-274.94187441642532
 31
0.0
  0
LINE
  8
DETAIL
  6
CONTINUOUS
 62
     5
 10
285.81764687465619
 20
-274.94187441642532
 30
0.0
 11
285.86716444186311
 21
-275.09688885023201
 31
0.0
  0
LINE
  8
DETAIL
  6
CONTINUOUS
 62
     5
 10
285.86716444186311
 20
-275.09688885023201
 30
0.0
 11
285.86716444186311
 21
-275.09688885023201
 31
0.0
  0
LINE
  8
DETAIL
  6
CONTINUOUS
 62
     5
 10
285.86716444186311
 20
-275.09688885023201
 30
0.0
 11
285.91236702920207
 21
-275.25355422464622
 31
0.0
  0
LINE
  8
DETAIL
  6
CONTINUOUS
 62
     5
 10
285.91236702920207
 20
-275.25355422464622
 30
0.0
 11
285.95309081091699
 21
-275.41032768419512
 31
0.0
  0
LINE
  8
DETAIL
  6
CONTINUOUS
 62
     5
 10
285.95309081091699
 20
-275.41032768419512
 30
0.0
 11
285.95309081091699
 21
-275.41032768419512
 31
0.0
  0
LINE
  8
DETAIL
  6
CONTINUOUS
 62
     5
 10
285.95309081091699
 20
-275.41032768419512
 30
0.0
 11
285.98935628170682
 21
-275.56673328277822
 31
0.0
  0
LINE
  8
DETAIL
  6
CONTINUOUS
 62
     5
 10
285.98935628170682
 20
-275.56673328277822
 30
0.0
 11
286.02204178026898
 21
-275.72785696823553
 31
0.0
  0
LINE
  8
DETAIL
  6
CONTINUOUS
 62
     5
 10
286.02204178026898
 20
-275.72785696823553
 30
0.0
 11
286.02204178026898
 21
-275.72785696823553
 31
0.0
  0
LINE
  8
DETAIL
  6
CONTINUOUS
 62
     5
 10
286.02204178026898
 20
-275.72785696823553
 30
0.0
 11
286.0518302856504
 21
-275.89798676595552
 31
0.0
  0
LINE
  8
DETAIL
  6
CONTINUOUS
 62
     5
 10
286.0518302856504
 20
-275.89798676595552
 30
0.0
 11
286.07776549429008
 21
-276.07265711758521
 31
0.0
  0
LINE
  8
DETAIL
  6
CONTINUOUS
 62
     5
 10
286.07776549429008
 20
-276.07265711758521
 30
0.0
 11
286.07776549429008
 21
-276.07265711758521
 31
0.0
  0
LINE
  8
DETAIL
  6
CONTINUOUS
 62
     5
 10
286.07776549429008
 20
-276.07265711758521
 30
0.0
 11
286.09879264137322
 21
-276.24657334452439
 31
0.0
  0
LINE
  8
DETAIL
  6
CONTINUOUS
 62
     5
 10
286.09879264137322
 20
-276.24657334452439
 30
0.0
 11
286.1151023996776
 21
-276.41987787092887
 31
0.0
  0
LINE
  8
DETAIL
  6
CONTINUOUS
 62
     5
 10
286.1151023996776
 20
-276.41987787092887
 30
0.0
 11
286.1151023996776
 21
-276.41987787092887
 31
0.0
  0
LINE
  8
DETAIL
  6
CONTINUOUS
 62
     5
 10
286.1151023996776
 20
-276.41987787092887
 30
0.0
 11
286.12710397518788
 21
-276.59381732191122
 31
0.0
  0
LINE
  8
DETAIL
  6
CONTINUOUS
 62
     5
 10
286.12710397518788
 20
-276.59381732191122
 30
0.0
 11
286.13483526912722
 21
-276.76861802365602
 31
0.0
  0
LINE
  8
DETAIL
  6
CONTINUOUS
 62
     5
 10
286.13483526912722
 20
-276.76861802365602
 30
0.0
 11
286.13483526912722
 21
-276.76861802365602
 31
0.0
  0
LINE
  8
DETAIL
  6
CONTINUOUS
 62
     5
 10
286.13483526912722
 20
-276.76861802365602
 30
0.0
 11
286.13830130189189
 21
-276.94391225085508
 31
0.0
  0
LINE
  8
DETAIL
  6
CONTINUOUS
 62
     5
 10
286.13830130189189
 20
-276.94391225085508
 30
0.0
 11
286.13774687533697
 21
-277.11797637115387
 31
0.0
  0
LINE
  8
DETAIL
  6
CONTINUOUS
 62
     5
 10
286.13774687533697
 20
-277.11797637115387
 30
0.0
 11
286.13774687533697
 21
-277.11797637115387
 31
0.0
  0
LINE
  8
DETAIL
  6
CONTINUOUS
 62
     5
 10
286.13774687533697
 20
-277.11797637115387
 30
0.0
 11
286.13332978141312
 21
-277.29035875721422
 31
0.0
  0
LINE
  8
DETAIL
  6
CONTINUOUS
 62
     5
 10
286.13332978141312
 20
-277.29035875721422
 30
0.0
 11
286.12461999100168
 21
-277.46705170881143
 31
0.0
  0
LINE
  8
DETAIL
  6
CONTINUOUS
 62
     5
 10
286.12461999100168
 20
-277.46705170881143
 30
0.0
 11
286.12461999100168
 21
-277.46705170881143
 31
0.0
  0
LINE
  8
DETAIL
  6
CONTINUOUS
 62
     5
 10
286.12461999100168
 20
-277.46705170881143
 30
0.0
 11
286.11119608201841
 21
-277.65308937896077
 31
0.0
  0
LINE
  8
DETAIL
  6
CONTINUOUS
 62
     5
 10
286.11119608201841
 20
-277.65308937896077
 30
0.0
 11
286.09325888158332
 21
-277.84322940651577
 31
0.0
  0
LINE
  8
DETAIL
  6
CONTINUOUS
 62
     5
 10
286.09325888158332
 20
-277.84322940651577
 30
0.0
 11
286.09325888158332
 21
-277.84322940651577
 31
0.0
  0
LINE
  8
DETAIL
  6
CONTINUOUS
 62
     5
 10
286.09325888158332
 20
-277.84322940651577
 30
0.0
 11
286.07111764747168
 21
-278.03127670986618
 31
0.0
  0
LINE
  8
DETAIL
  6
CONTINUOUS
 62
     5
 10
286.07111764747168
 20
-278.03127670986618
 30
0.0
 11
286.04489311086343
 21
-278.21750183970221
 31
0.0
  0
LINE
  8
DETAIL
  6
CONTINUOUS
 62
     5
 10
286.04489311086343
 20
-278.21750183970221
 30
0.0
 11
286.04489311086343
 21
-278.21750183970221
 31
0.0
  0
LINE
  8
DETAIL
  6
CONTINUOUS
 62
     5
 10
286.04489311086343
 20
-278.21750183970221
 30
0.0
 11
286.01464195534572
 21
-278.40345610148961
 31
0.0
  0
LINE
  8
DETAIL
  6
CONTINUOUS
 62
     5
 10
286.01464195534572
 20
-278.40345610148961
 30
0.0
 11
285.9803532007204
 21
-278.58934818750072
 31
0.0
  0
LINE
  8
DETAIL
  6
CONTINUOUS
 62
     5
 10
285.9803532007204
 20
-278.58934818750072
 30
0.0
 11
285.9803532007204
 21
-278.58934818750072
 31
0.0
  0
LINE
  8
DETAIL
  6
CONTINUOUS
 62
     5
 10
285.9803532007204
 20
-278.58934818750072
 30
0.0
 11
285.94211374627662
 21
-278.77477734182793
 31
0.0
  0
LINE
  8
DETAIL
  6
CONTINUOUS
 62
     5
 10
285.94211374627662
 20
-278.77477734182793
 30
0.0
 11
285.90046967303277
 21
-278.95824762904277
 31
0.0
  0
LINE
  8
DETAIL
  6
CONTINUOUS
 62
     5
 10
285.90046967303277
 20
-278.95824762904277
 30
0.0
 11
285.90046967303277
 21
-278.95824762904277
 31
0.0
  0
LINE
  8
DETAIL
  6
CONTINUOUS
 62
     5
 10
285.90046967303277
 20
-278.95824762904277
 30
0.0
 11
285.85563959165569
 21
-279.13942015165622
 31
0.0
  0
LINE
  8
DETAIL
  6
CONTINUOUS
 62
     5
 10
285.85563959165569
 20
-279.13942015165622
 30
0.0
 11
285.80607304967788
 21
-279.32367934345831
 31
0.0
  0
LINE
  8
DETAIL
  6
CONTINUOUS
 62
     5
 10
285.80607304967788
 20
-279.32367934345831
 30
0.0
 11
285.80607304967788
 21
-279.32367934345831
 31
0.0
  0
LINE
  8
DETAIL
  6
CONTINUOUS
 62
     5
 10
285.80607304967788
 20
-279.32367934345831
 30
0.0
 11
285.75041955054002
 21
-279.51553419640192
 31
0.0
  0
LINE
  8
DETAIL
  6
CONTINUOUS
 62
     5
 10
285.75041955054002
 20
-279.51553419640192
 30
0.0
 11
285.68989748444011
 21
-279.71026860381221
 31
0.0
  0
LINE
  8
DETAIL
  6
CONTINUOUS
 62
     5
 10
285.68989748444011
 20
-279.71026860381221
 30
0.0
 11
285.68989748444011
 21
-279.71026860381221
 31
0.0
  0
LINE
  8
DETAIL
  6
CONTINUOUS
 62
     5
 10
285.68989748444011
 20
-279.71026860381221
 30
0.0
 11
285.62599996859598
 21
-279.90232135486309
 31
0.0
  0
LINE
  8
DETAIL
  6
CONTINUOUS
 62
     5
 10
285.62599996859598
 20
-279.90232135486309
 30
0.0
 11
285.55875014153128
 21
-280.09197592074958
 31
0.0
  0
LINE
  8
DETAIL
  6
CONTINUOUS
 62
     5
 10
285.55875014153128
 20
-280.09197592074958
 30
0.0
 11
285.55875014153128
 21
-280.09197592074958
 31
0.0
  0
LINE
  8
DETAIL
  6
CONTINUOUS
 62
     5
 10
285.55875014153128
 20
-280.09197592074958
 30
0.0
 11
285.48786671835268
 21
-280.28065390447182
 31
0.0
  0
LINE
  8
DETAIL
  6
CONTINUOUS
 62
     5
 10
285.48786671835268
 20
-280.28065390447182
 30
0.0
 11
285.41332069917752
 21
-280.46848475422672
 31
0.0
  0
LINE
  8
DETAIL
  6
CONTINUOUS
 62
     5
 10
285.41332069917752
 20
-280.46848475422672
 30
0.0
 11
285.41332069917752
 21
-280.46848475422672
 31
0.0
  0
LINE
  8
DETAIL
  6
CONTINUOUS
 62
     5
 10
285.41332069917752
 20
-280.46848475422672
 30
0.0
 11
285.33526136503713
 21
-280.65510586380782
 31
0.0
  0
LINE
  8
DETAIL
  6
CONTINUOUS
 62
     5
 10
285.33526136503713
 20
-280.65510586380782
 30
0.0
 11
285.25429883560457
 21
-280.83947856419962
 31
0.0
  0
LINE
  8
DETAIL
  6
CONTINUOUS
 62
     5
 10
285.25429883560457
 20
-280.83947856419962
 30
0.0
 11
285.25429883560457
 21
-280.83947856419962
 31
0.0
  0
LINE
  8
DETAIL
  6
CONTINUOUS
 62
     5
 10
285.25429883560457
 20
-280.83947856419962
 30
0.0
 11
285.17063453031818
 21
-281.02139427219379
 31
0.0
  0
LINE
  8
DETAIL
  6
CONTINUOUS
 62
     5
 10
285.17063453031818
 20
-281.02139427219379
 30
0.0
 11
285.08237422903977
 21
-281.20464081062511
 31
0.0
  0
LINE
  8
DETAIL
  6
CONTINUOUS
 62
     5
 10
285.08237422903977
 20
-281.20464081062511
 30
0.0
 11
285.08237422903977
 21
-281.20464081062511
 31
0.0
  0
LINE
  8
DETAIL
  6
CONTINUOUS
 62
     5
 10
285.08237422903977
 20
-281.20464081062511
 30
0.0
 11
284.98789787938102
 21
-281.39237886311878
 31
0.0
  0
LINE
  8
DETAIL
  6
CONTINUOUS
 62
     5
 10
284.98789787938102
 20
-281.39237886311878
 30
0.0
 11
284.88877773953072
 21
-281.58126415043017
 31
0.0
  0
LINE
  8
DETAIL
  6
CONTINUOUS
 62
     5
 10
284.88877773953072
 20
-281.58126415043017
 30
0.0
 11
284.88877773953072
 21
-281.58126415043017
 31
0.0
  0
LINE
  8
DETAIL
  6
CONTINUOUS
 62
     5
 10
284.88877773953072
 20
-281.58126415043017
 30
0.0
 11
284.78690159223612
 21
-281.76736372370351
 31
0.0
  0
LINE
  8
DETAIL
  6
CONTINUOUS
 62
     5
 10
284.78690159223612
 20
-281.76736372370351
 30
0.0
 11
284.68222700790761
 21
-281.95089491851371
 31
0.0
  0
LINE
  8
DETAIL
  6
CONTINUOUS
 62
     5
 10
284.68222700790761
 20
-281.95089491851371
 30
0.0
 11
284.68222700790761
 21
-281.95089491851371
 31
0.0
  0
LINE
  8
DETAIL
  6
CONTINUOUS
 62
     5
 10
284.68222700790761
 20
-281.95089491851371
 30
0.0
 11
284.57433347660037
 21
-282.13286761914662
 31
0.0
  0
LINE
  8
DETAIL
  6
CONTINUOUS
 62
     5
 10
284.57433347660037
 20
-282.13286761914662
 30
0.0
 11
284.46321837928582
 21
-282.31331162029443
 31
0.0
  0
LINE
  8
DETAIL
  6
CONTINUOUS
 62
     5
 10
284.46321837928582
 20
-282.31331162029443
 30
0.0
 11
284.46321837928582
 21
-282.31331162029443
 31
0.0
  0
LINE
  8
DETAIL
  6
CONTINUOUS
 62
     5
 10
284.46321837928582
 20
-282.31331162029443
 30
0.0
 11
284.34904823183189
 21
-282.49195421273572
 31
0.0
  0
LINE
  8
DETAIL
  6
CONTINUOUS
 62
     5
 10
284.34904823183189
 20
-282.49195421273572
 30
0.0
 11
284.23224819878271
 21
-282.66829276119051
 31
0.0
  0
LINE
  8
DETAIL
  6
CONTINUOUS
 62
     5
 10
284.23224819878271
 20
-282.66829276119051
 30
0.0
 11
284.23224819878271
 21
-282.66829276119051
 31
0.0
  0
LINE
  8
DETAIL
  6
CONTINUOUS
 62
     5
 10
284.23224819878271
 20
-282.66829276119051
 30
0.0
 11
284.11294498544493
 21
-282.84224209731991
 31
0.0
  0
LINE
  8
DETAIL
  6
CONTINUOUS
 62
     5
 10
284.11294498544493
 20
-282.84224209731991
 30
0.0
 11
283.98981281151362
 21
-283.01561684662062
 31
0.0
  0
LINE
  8
DETAIL
  6
CONTINUOUS
 62
     5
 10
283.98981281151362
 20
-283.01561684662062
 30
0.0
 11
283.98981281151362
 21
-283.01561684662062
 31
0.0
  0
LINE
  8
DETAIL
  6
CONTINUOUS
 62
     5
 10
283.98981281151362
 20
-283.01561684662062
 30
0.0
 11
283.86173243325783
 21
-283.18991931393742
 31
0.0
  0
LINE
  8
DETAIL
  6
CONTINUOUS
 62
     5
 10
283.86173243325783
 20
-283.18991931393742
 30
0.0
 11
283.72986323887437
 21
-283.36350272768522
 31
0.0
  0
LINE
  8
DETAIL
  6
CONTINUOUS
 62
     5
 10
283.72986323887437
 20
-283.36350272768522
 30
0.0
 11
283.72986323887437
 21
-283.36350272768522
 31
0.0
  0
LINE
  8
DETAIL
  6
CONTINUOUS
 62
     5
 10
283.72986323887437
 20
-283.36350272768522
 30
0.0
 11
283.59557553597932
 21
-283.53443423863712
 31
0.0
  0
LINE
  8
DETAIL
  6
CONTINUOUS
 62
     5
 10
283.59557553597932
 20
-283.53443423863712
 30
0.0
 11
283.45880467795541
 21
-283.70278576343401
 31
0.0
  0
LINE
  8
DETAIL
  6
CONTINUOUS
 62
     5
 10
283.45880467795541
 20
-283.70278576343401
 30
0.0
 11
283.45880467795541
 21
-283.70278576343401
 31
0.0
  0
LINE
  8
DETAIL
  6
CONTINUOUS
 62
     5
 10
283.45880467795541
 20
-283.70278576343401
 30
0.0
 11
283.3192444177667
 21
-283.86901824046862
 31
0.0
  0
LINE
  8
DETAIL
  6
CONTINUOUS
 62
     5
 10
283.3192444177667
 20
-283.86901824046862
 30
0.0
 11
283.17705706093608
 21
-284.03314392927268
 31
0.0
  0
LINE
  8
DETAIL
  6
CONTINUOUS
 62
     5
 10
283.17705706093608
 20
-284.03314392927268
 30
0.0
 11
283.17705706093608
 21
-284.03314392927268
 31
0.0
  0
LINE
  8
DETAIL
  6
CONTINUOUS
 62
     5
 10
283.17705706093608
 20
-284.03314392927268
 30
0.0
 11
283.03241223712632
 21
-284.19501040705762
 31
0.0
  0
LINE
  8
DETAIL
  6
CONTINUOUS
 62
     5
 10
283.03241223712632
 20
-284.19501040705762
 30
0.0
 11
282.88504031999747
 21
-284.35425520060681
 31
0.0
  0
LINE
  8
DETAIL
  6
CONTINUOUS
 62
     5
 10
282.88504031999747
 20
-284.35425520060681
 30
0.0
 11
282.88504031999747
 21
-284.35425520060681
 31
0.0
  0
LINE
  8
DETAIL
  6
CONTINUOUS
 62
     5
 10
282.88504031999747
 20
-284.35425520060681
 30
0.0
 11
282.73488398707309
 21
-284.51078554423913
 31
0.0
  0
LINE
  8
DETAIL
  6
CONTINUOUS
 62
     5
 10
282.73488398707309
 20
-284.51078554423913
 30
0.0
 11
282.58317438731927
 21
-284.66579755284192
 31
0.0
  0
LINE
  8
DETAIL
  6
CONTINUOUS
 62
     5
 10
279.04265364752501
 20
-288.20631829352482
 30
0.0
 11
278.88764163892228
 21
-288.35802789304711
 31
0.0
  0
LINE
  8
DETAIL
  6
CONTINUOUS
 62
     5
 10
278.88764163892228
 20
-288.35802789304711
 30
0.0
 11
278.73111129529002
 21
-288.50818422576913
 31
0.0
  0
LINE
  8
DETAIL
  6
CONTINUOUS
 62
     5
 10
278.73111129529002
 20
-288.50818422576913
 30
0.0
 11
278.73111129529002
 21
-288.50818422576913
 31
0.0
  0
LINE
  8
DETAIL
  6
CONTINUOUS
 62
     5
 10
278.73111129529002
 20
-288.50818422576913
 30
0.0
 11
278.57186650174089
 21
-288.65555614274479
 31
0.0
  0
LINE
  8
DETAIL
  6
CONTINUOUS
 62
     5
 10
278.57186650174089
 20
-288.65555614274479
 30
0.0
 11
278.41000002395617
 21
-288.80020096644478
 31
0.0
  0
LINE
  8
DETAIL
  6
CONTINUOUS
 62
     5
 10
278.41000002395617
 20
-288.80020096644478
 30
0.0
 11
278.41000002395617
 21
-288.80020096644478
 31
0.0
  0
LINE
  8
DETAIL
  6
CONTINUOUS
 62
     5
 10
278.41000002395617
 20
-288.80020096644478
 30
0.0
 11
278.24587433515183
 21
-288.94238832319502
 31
0.0
  0
LINE
  8
DETAIL
  6
CONTINUOUS
 62
     5
 10
278.24587433515183
 20
-288.94238832319502
 30
0.0
 11
278.07964185811721
 21
-289.08194858332882
 31
0.0
  0
LINE
  8
DETAIL
  6
CONTINUOUS
 62
     5
 10
278.07964185811721
 20
-289.08194858332882
 30
0.0
 11
278.07964185811721
 21
-289.08194858332882
 31
0.0
  0
LINE
  8
DETAIL
  6
CONTINUOUS
 62
     5
 10
278.07964185811721
 20
-289.08194858332882
 30
0.0
 11
277.91129033332032
 21
-289.21871944131948
 31
0.0
  0
LINE
  8
DETAIL
  6
CONTINUOUS
 62
     5
 10
277.91129033332032
 20
-289.21871944131948
 30
0.0
 11
277.74035882236848
 21
-289.35300714419822
 31
0.0
  0
LINE
  8
DETAIL
  6
CONTINUOUS
 62
     5
 10
277.74035882236848
 20
-289.35300714419822
 30
0.0
 11
277.74035882236848
 21
-289.35300714419822
 31
0.0
  0
LINE
  8
DETAIL
  6
CONTINUOUS
 62
     5
 10
277.74035882236848
 20
-289.35300714419822
 30
0.0
 11
277.56677540862103
 21
-289.48487633857582
 31
0.0
  0
LINE
  8
DETAIL
  6
CONTINUOUS
 62
     5
 10
277.56677540862103
 20
-289.48487633857582
 30
0.0
 11
277.39247294130399
 21
-289.61295671683013
 31
0.0
  0
LINE
  8
DETAIL
  6
CONTINUOUS
 62
     5
 10
277.39247294130399
 20
-289.61295671683013
 30
0.0
 11
277.39247294130399
 21
-289.61295671683013
 31
0.0
  0
LINE
  8
DETAIL
  6
CONTINUOUS
 62
     5
 10
277.39247294130399
 20
-289.61295671683013
 30
0.0
 11
277.21909819200363
 21
-289.73608889076161
 31
0.0
  0
LINE
  8
DETAIL
  6
CONTINUOUS
 62
     5
 10
277.21909819200363
 20
-289.73608889076161
 30
0.0
 11
277.04514885587349
 21
-289.85539210409922
 31
0.0
  0
LINE
  8
DETAIL
  6
CONTINUOUS
 62
     5
 10
277.04514885587349
 20
-289.85539210409922
 30
0.0
 11
277.04514885587349
 21
-289.85539210409922
 31
0.0
  0
LINE
  8
DETAIL
  6
CONTINUOUS
 62
     5
 10
277.04514885587349
 20
-289.85539210409922
 30
0.0
 11
276.86881030741932
 21
-289.97219213714868
 31
0.0
  0
LINE
  8
DETAIL
  6
CONTINUOUS
 62
     5
 10
276.86881030741932
 20
-289.97219213714868
 30
0.0
 11
276.69016771497758
 21
-290.08636228460227
 31
0.0
  0
LINE
  8
DETAIL
  6
CONTINUOUS
 62
     5
 10
276.69016771497758
 20
-290.08636228460227
 30
0.0
 11
276.69016771497758
 21
-290.08636228460227
 31
0.0
  0
LINE
  8
DETAIL
  6
CONTINUOUS
 62
     5
 10
276.69016771497758
 20
-290.08636228460227
 30
0.0
 11
276.50972371383023
 21
-290.19747738191683
 31
0.0
  0
LINE
  8
DETAIL
  6
CONTINUOUS
 62
     5
 10
276.50972371383023
 20
-290.19747738191683
 30
0.0
 11
276.3277510131972
 21
-290.30537091322373
 31
0.0
  0
LINE
  8
DETAIL
  6
CONTINUOUS
 62
     5
 10
276.3277510131972
 20
-290.30537091322373
 30
0.0
 11
276.3277510131972
 21
-290.30537091322373
 31
0.0
  0
LINE
  8
DETAIL
  6
CONTINUOUS
 62
     5
 10
276.3277510131972
 20
-290.30537091322373
 30
0.0
 11
276.14421981838711
 21
-290.41004549755252
 31
0.0
  0
LINE
  8
DETAIL
  6
CONTINUOUS
 62
     5
 10
276.14421981838711
 20
-290.41004549755252
 30
0.0
 11
275.95812024511372
 21
-290.51192164484712
 31
0.0
  0
LINE
  8
DETAIL
  6
CONTINUOUS
 62
     5
 10
275.95812024511372
 20
-290.51192164484712
 30
0.0
 11
275.95812024511372
 21
-290.51192164484712
 31
0.0
  0
LINE
  8
DETAIL
  6
CONTINUOUS
 62
     5
 10
275.95812024511372
 20
-290.51192164484712
 30
0.0
 11
275.76923495780221
 21
-290.61104178469782
 31
0.0
  0
LINE
  8
DETAIL
  6
CONTINUOUS
 62
     5
 10
275.76923495780221
 20
-290.61104178469782
 30
0.0
 11
275.58149690530848
 21
-290.70551813435662
 31
0.0
  0
LINE
  8
DETAIL
  6
CONTINUOUS
 62
     5
 10
275.58149690530848
 20
-290.70551813435662
 30
0.0
 11
275.58149690530848
 21
-290.70551813435662
 31
0.0
  0
LINE
  8
DETAIL
  6
CONTINUOUS
 62
     5
 10
275.58149690530848
 20
-290.70551813435662
 30
0.0
 11
275.39825036687722
 21
-290.79377843563481
 31
0.0
  0
LINE
  8
DETAIL
  6
CONTINUOUS
 62
     5
 10
275.39825036687722
 20
-290.79377843563481
 30
0.0
 11
275.21633465888152
 21
-290.87744274092142
 31
0.0
  0
LINE
  8
DETAIL
  6
CONTINUOUS
 62
     5
 10
275.21633465888152
 20
-290.87744274092142
 30
0.0
 11
275.21633465888152
 21
-290.87744274092142
 31
0.0
  0
LINE
  8
DETAIL
  6
CONTINUOUS
 62
     5
 10
275.21633465888152
 20
-290.87744274092142
 30
0.0
 11
275.03196195848682
 21
-290.95840527035392
 31
0.0
  0
LINE
  8
DETAIL
  6
CONTINUOUS
 62
     5
 10
275.03196195848682
 20
-290.95840527035392
 30
0.0
 11
274.84534084889992
 21
-291.03646460449397
 31
0.0
  0
LINE
  8
DETAIL
  6
CONTINUOUS
 62
     5
 10
274.84534084889992
 20
-291.03646460449397
 30
0.0
 11
274.84534084889992
 21
-291.03646460449397
 31
0.0
  0
LINE
  8
DETAIL
  6
CONTINUOUS
 62
     5
 10
274.84534084889992
 20
-291.03646460449397
 30
0.0
 11
274.65750999913479
 21
-291.11101062366902
 31
0.0
  0
LINE
  8
DETAIL
  6
CONTINUOUS
 62
     5
 10
274.65750999913479
 20
-291.11101062366902
 30
0.0
 11
274.46883201539748
 21
-291.18189404684802
 31
0.0
  0
LINE
  8
DETAIL
  6
CONTINUOUS
 62
     5
 10
274.46883201539748
 20
-291.18189404684802
 30
0.0
 11
274.46883201539748
 21
-291.18189404684802
 31
0.0
  0
LINE
  8
DETAIL
  6
CONTINUOUS
 62
     5
 10
274.46883201539748
 20
-291.18189404684802
 30
0.0
 11
274.27917744949048
 21
-291.24914387391232
 31
0.0
  0
LINE
  8
DETAIL
  6
CONTINUOUS
 62
     5
 10
274.27917744949048
 20
-291.24914387391232
 30
0.0
 11
274.08712469841203
 21
-291.31304138975702
 31
0.0
  0
LINE
  8
DETAIL
  6
CONTINUOUS
 62
     5
 10
274.08712469841203
 20
-291.31304138975702
 30
0.0
 11
274.08712469841203
 21
-291.31304138975702
 31
0.0
  0
LINE
  8
DETAIL
  6
CONTINUOUS
 62
     5
 10
274.08712469841203
 20
-291.31304138975702
 30
0.0
 11
273.89239029096512
 21
-291.37356345585653
 31
0.0
  0
LINE
  8
DETAIL
  6
CONTINUOUS
 62
     5
 10
273.89239029096512
 20
-291.37356345585653
 30
0.0
 11
273.70053543797741
 21
-291.42921695499462
 31
0.0
  0
LINE
  8
DETAIL
  6
CONTINUOUS
 62
     5
 10
273.70053543797741
 20
-291.42921695499462
 30
0.0
 11
273.70053543797741
 21
-291.42921695499462
 31
0.0
  0
LINE
  8
DETAIL
  6
CONTINUOUS
 62
     5
 10
273.70053543797741
 20
-291.42921695499462
 30
0.0
 11
273.51627624612519
 21
-291.47878349697203
 31
0.0
  0
LINE
  8
DETAIL
  6
CONTINUOUS
 62
     5
 10
273.51627624612519
 20
-291.47878349697203
 30
0.0
 11
273.33510372345643
 21
-291.52361357834923
 31
0.0
  0
LINE
  8
DETAIL
  6
CONTINUOUS
 62
     5
 10
273.33510372345643
 20
-291.52361357834923
 30
0.0
 11
273.33510372345643
 21
-291.52361357834923
 31
0.0
  0
LINE
  8
DETAIL
  6
CONTINUOUS
 62
     5
 10
273.33510372345643
 20
-291.52361357834923
 30
0.0
 11
273.15163343618332
 21
-291.56525765159301
 31
0.0
  0
LINE
  8
DETAIL
  6
CONTINUOUS
 62
     5
 10
273.15163343618332
 20
-291.56525765159301
 30
0.0
 11
272.96620428179688
 21
-291.60349710603703
 31
0.0
  0
LINE
  8
DETAIL
  6
CONTINUOUS
 62
     5
 10
272.96620428179688
 20
-291.60349710603703
 30
0.0
 11
272.96620428179688
 21
-291.60349710603703
 31
0.0
  0
LINE
  8
DETAIL
  6
CONTINUOUS
 62
     5
 10
272.96620428179688
 20
-291.60349710603703
 30
0.0
 11
272.78031219572921
 21
-291.63778586066201
 31
0.0
  0
LINE
  8
DETAIL
  6
CONTINUOUS
 62
     5
 10
272.78031219572921
 20
-291.63778586066201
 30
0.0
 11
272.59435793389071
 21
-291.66803701617988
 31
0.0
  0
LINE
  8
DETAIL
  6
CONTINUOUS
 62
     5
 10
272.59435793389071
 20
-291.66803701617988
 30
0.0
 11
272.59435793389071
 21
-291.66803701617988
 31
0.0
  0
LINE
  8
DETAIL
  6
CONTINUOUS
 62
     5
 10
272.59435793389071
 20
-291.66803701617988
 30
0.0
 11
272.40813280401181
 21
-291.69426155278802
 31
0.0
  0
LINE
  8
DETAIL
  6
CONTINUOUS
 62
     5
 10
272.40813280401181
 20
-291.69426155278802
 30
0.0
 11
272.22008550062873
 21
-291.71640278689978
 31
0.0
  0
LINE
  8
DETAIL
  6
CONTINUOUS
 62
     5
 10
272.22008550062873
 20
-291.71640278689978
 30
0.0
 11
272.22008550062873
 21
-291.71640278689978
 31
0.0
  0
LINE
  8
DETAIL
  6
CONTINUOUS
 62
     5
 10
272.22008550062873
 20
-291.71640278689978
 30
0.0
 11
272.02994547305542
 21
-291.73433998733458
 31
0.0
  0
LINE
  8
DETAIL
  6
CONTINUOUS
 62
     5
 10
272.02994547305542
 20
-291.73433998733458
 30
0.0
 11
271.84390780290403
 21
-291.74776389631847
 31
0.0
  0
LINE
  8
DETAIL
  6
CONTINUOUS
 62
     5
 10
271.84390780290403
 20
-291.74776389631847
 30
0.0
 11
271.84390780290403
 21
-291.74776389631847
 31
0.0
  0
LINE
  8
DETAIL
  6
CONTINUOUS
 62
     5
 10
271.84390780290403
 20
-291.74776389631847
 30
0.0
 11
271.66721485132001
 21
-291.75647368672958
 31
0.0
  0
LINE
  8
DETAIL
  6
CONTINUOUS
 62
     5
 10
271.66721485132001
 20
-291.75647368672958
 30
0.0
 11
271.49483246528712
 21
-291.76089078065462
 31
0.0
  0
LINE
  8
DETAIL
  6
CONTINUOUS
 62
     5
 10
271.49483246528712
 20
-291.76089078065462
 30
0.0
 11
271.49483246528712
 21
-291.76089078065462
 31
0.0
  0
LINE
  8
DETAIL
  6
CONTINUOUS
 62
     5
 10
271.49483246528712
 20
-291.76089078065462
 30
0.0
 11
271.32076834502482
 21
-291.76144520721323
 31
0.0
  0
LINE
  8
DETAIL
  6
CONTINUOUS
 62
     5
 10
271.32076834502482
 20
-291.76144520721323
 30
0.0
 11
271.14547411786742
 21
-291.75797917445442
 31
0.0
  0
LINE
  8
DETAIL
  6
CONTINUOUS
 62
     5
 10
271.14547411786742
 20
-291.75797917445442
 30
0.0
 11
271.14547411786742
 21
-291.75797917445442
 31
0.0
  0
LINE
  8
DETAIL
  6
CONTINUOUS
 62
     5
 10
271.14547411786742
 20
-291.75797917445442
 30
0.0
 11
270.97067341616702
 21
-291.75024788052502
 31
0.0
  0
LINE
  8
DETAIL
  6
CONTINUOUS
 62
     5
 10
270.97067341616702
 20
-291.75024788052502
 30
0.0
 11
270.79673396522838
 21
-291.73824630502918
 31
0.0
  0
LINE
  8
DETAIL
  6
CONTINUOUS
 62
     5
 10
270.79673396522838
 20
-291.73824630502918
 30
0.0
 11
270.79673396522838
 21
-291.73824630502918
 31
0.0
  0
LINE
  8
DETAIL
  6
CONTINUOUS
 62
     5
 10
270.79673396522838
 20
-291.73824630502918
 30
0.0
 11
270.62342943886222
 21
-291.72193654674561
 31
0.0
  0
LINE
  8
DETAIL
  6
CONTINUOUS
 62
     5
 10
270.62342943886222
 20
-291.72193654674561
 30
0.0
 11
270.44951321195242
 21
-291.70090939969032
 31
0.0
  0
LINE
  8
DETAIL
  6
CONTINUOUS
 62
     5
 10
270.44951321195242
 20
-291.70090939969032
 30
0.0
 11
270.44951321195242
 21
-291.70090939969032
 31
0.0
  0
LINE
  8
DETAIL
  6
CONTINUOUS
 62
     5
 10
270.44951321195242
 20
-291.70090939969032
 30
0.0
 11
270.27484286034058
 21
-291.67497419108702
 31
0.0
  0
LINE
  8
DETAIL
  6
CONTINUOUS
 62
     5
 10
270.27484286034058
 20
-291.67497419108702
 30
0.0
 11
270.1047130626232
 21
-291.64518568574908
 31
0.0
  0
LINE
  8
DETAIL
  6
CONTINUOUS
 62
     5
 10
270.1047130626232
 20
-291.64518568574908
 30
0.0
 11
270.1047130626232
 21
-291.64518568574908
 31
0.0
  0
LINE
  8
DETAIL
  6
CONTINUOUS
 62
     5
 10
270.1047130626232
 20
-291.64518568574908
 30
0.0
 11
269.94358937715259
 21
-291.61250018723632
 31
0.0
  0
LINE
  8
DETAIL
  6
CONTINUOUS
 62
     5
 10
269.94358937715259
 20
-291.61250018723632
 30
0.0
 11
269.78718377854318
 21
-291.57623471650078
 31
0.0
  0
LINE
  8
DETAIL
  6
CONTINUOUS
 62
     5
 10
269.78718377854318
 20
-291.57623471650078
 30
0.0
 11
269.78718377854318
 21
-291.57623471650078
 31
0.0
  0
LINE
  8
DETAIL
  6
CONTINUOUS
 62
     5
 10
269.78718377854318
 20
-291.57623471650078
 30
0.0
 11
269.63041031896
 21
-291.53551093484282
 31
0.0
  0
LINE
  8
DETAIL
  6
CONTINUOUS
 62
     5
 10
269.63041031896
 20
-291.53551093484282
 30
0.0
 11
269.47374494450668
 21
-291.49030834755962
 31
0.0
  0
LINE
  8
DETAIL
  6
CONTINUOUS
 62
     5
 10
269.47374494450668
 20
-291.49030834755962
 30
0.0
 11
269.47374494450668
 21
-291.49030834755962
 31
0.0
  0
LINE
  8
DETAIL
  6
CONTINUOUS
 62
     5
 10
269.47374494450668
 20
-291.49030834755962
 30
0.0
 11
269.31873051066037
 21
-291.44079078040483
 31
0.0
  0
LINE
  8
DETAIL
  6
CONTINUOUS
 62
     5
 10
269.31873051066037
 20
-291.44079078040483
 30
0.0
 11
269.16561561644932
 21
-291.38700149695711
 31
0.0
  0
LINE
  8
DETAIL
  6
CONTINUOUS
 62
     5
 10
269.16561561644932
 20
-291.38700149695711
 30
0.0
 11
269.16561561644932
 21
-291.38700149695711
 31
0.0
  0
LINE
  8
DETAIL
  6
CONTINUOUS
 62
     5
 10
269.16561561644932
 20
-291.38700149695711
 30
0.0
 11
269.01422907975342
 21
-291.32885972142702
 31
0.0
  0
LINE
  8
DETAIL
  6
CONTINUOUS
 62
     5
 10
269.01422907975342
 20
-291.32885972142702
 30
0.0
 11
268.86401485030672
 21
-291.26590908272482
 31
0.0
  0
LINE
  8
DETAIL
  6
CONTINUOUS
 62
     5
 10
268.86401485030672
 20
-291.26590908272482
 30
0.0
 11
268.86401485030672
 21
-291.26590908272482
 31
0.0
  0
LINE
  8
DETAIL
  6
CONTINUOUS
 62
     5
 10
268.86401485030672
 20
-291.26590908272482
 30
0.0
 11
268.71502909306372
 21
-291.1980050467796
 31
0.0
  0
LINE
  8
DETAIL
  6
CONTINUOUS
 62
     5
 10
268.71502909306372
 20
-291.1980050467796
 30
0.0
 11
268.57016170201422
 21
-291.1266260228951
 31
0.0
  0
LINE
  8
DETAIL
  6
CONTINUOUS
 62
     5
 10
268.57016170201422
 20
-291.1266260228951
 30
0.0
 11
268.57016170201422
 21
-291.1266260228951
 31
0.0
  0
LINE
  8
DETAIL
  6
CONTINUOUS
 62
     5
 10
268.57016170201422
 20
-291.1266260228951
 30
0.0
 11
268.43183879798067
 21
-291.05307633024643
 31
0.0
  0
LINE
  8
DETAIL
  6
CONTINUOUS
 62
     5
 10
268.43183879798067
 20
-291.05307633024643
 30
0.0
 11
268.29779768009053
 21
-290.97634098411481
 31
0.0
  0
LINE
  8
DETAIL
  6
CONTINUOUS
 62
     5
 10
268.29779768009053
 20
-290.97634098411481
 30
0.0
 11
268.29779768009053
 21
-290.97634098411481
 31
0.0
  0
LINE
  8
DETAIL
  6
CONTINUOUS
 62
     5
 10
268.29779768009053
 20
-290.97634098411481
 30
0.0
 11
268.16537201459113
 21
-290.89517239050872
 31
0.0
  0
LINE
  8
DETAIL
  6
CONTINUOUS
 62
     5
 10
268.16537201459113
 20
-290.89517239050872
 30
0.0
 11
268.03496975790802
 21
-290.80971182223942
 31
0.0
  0
LINE
  8
DETAIL
  6
CONTINUOUS
 62
     5
 10
268.03496975790802
 20
-290.80971182223942
 30
0.0
 11
268.03496975790802
 21
-290.80971182223942
 31
0.0
  0
LINE
  8
DETAIL
  6
CONTINUOUS
 62
     5
 10
268.03496975790802
 20
-290.80971182223942
 30
0.0
 11
267.90752823190468
 21
-290.72038559671222
 31
0.0
  0
LINE
  8
DETAIL
  6
CONTINUOUS
 62
     5
 10
267.90752823190468
 20
-290.72038559671222
 30
0.0
 11
267.78302793002302
 21
-290.62737134290819
 31
0.0
  0
LINE
  8
DETAIL
  6
CONTINUOUS
 62
     5
 10
267.78302793002302
 20
-290.62737134290819
 30
0.0
 11
267.78302793002302
 21
-290.62737134290819
 31
0.0
  0
LINE
  8
DETAIL
  6
CONTINUOUS
 62
     5
 10
267.78302793002302
 20
-290.62737134290819
 30
0.0
 11
267.66139839447709
 21
-290.53068598942662
 31
0.0
  0
LINE
  8
DETAIL
  6
CONTINUOUS
 62
     5
 10
267.66139839447709
 20
-290.53068598942662
 30
0.0
 11
267.54332219099177
 21
-290.42995235176159
 31
0.0
  0
LINE
  8
DETAIL
  6
CONTINUOUS
 62
     5
 10
267.54332219099177
 20
-290.42995235176159
 30
0.0
 11
267.54332219099177
 21
-290.42995235176159
 31
0.0
  0
LINE
  8
DETAIL
  6
CONTINUOUS
 62
     5
 10
267.54332219099177
 20
-290.42995235176159
 30
0.0
 11
267.42915632476519
 21
-290.32515100234173
 31
0.0
  0
LINE
  8
DETAIL
  6
CONTINUOUS
 62
     5
 10
267.42915632476519
 20
-290.32515100234173
 30
0.0
 11
267.31720253537082
 21
-290.21808765443882
 31
0.0
  0
LINE
  8
DETAIL
  6
CONTINUOUS
 62
     5
 10
255.37999535562969
 20
-279.40905753080261
 30
0.0
 11
255.48485120688781
 21
-279.51870296268982
 31
0.0
  0
LINE
  8
DETAIL
  6
CONTINUOUS
 62
     5
 10
280.22985973691021
 20
-282.31248290154338
 30
0.0
 11
280.36280113854701
 21
-282.17664763648509
 31
0.0
  0
LINE
  8
DETAIL
  6
CONTINUOUS
 62
     5
 10
280.36280113854701
 20
-282.17664763648509
 30
0.0
 11
280.4943814301148
 21
-282.03948187162371
 31
0.0
  0
LINE
  8
DETAIL
  6
CONTINUOUS
 62
     5
 10
280.4943814301148
 20
-282.03948187162371
 30
0.0
 11
280.4943814301148
 21
-282.03948187162371
 31
0.0
  0
LINE
  8
DETAIL
  6
CONTINUOUS
 62
     5
 10
280.4943814301148
 20
-282.03948187162371
 30
0.0
 11
280.62352176976327
 21
-281.89993746502029
 31
0.0
  0
LINE
  8
DETAIL
  6
CONTINUOUS
 62
     5
 10
280.62352176976327
 20
-281.89993746502029
 30
0.0
 11
280.75027238851862
 21
-281.75809570620112
 31
0.0
  0
LINE
  8
DETAIL
  6
CONTINUOUS
 62
     5
 10
280.75027238851862
 20
-281.75809570620112
 30
0.0
 11
280.75027238851862
 21
-281.75809570620112
 31
0.0
  0
LINE
  8
DETAIL
  6
CONTINUOUS
 62
     5
 10
280.75027238851862
 20
-281.75809570620112
 30
0.0
 11
280.87486955686433
 21
-281.61427422635228
 31
0.0
  0
LINE
  8
DETAIL
  6
CONTINUOUS
 62
     5
 10
280.87486955686433
 20
-281.61427422635228
 30
0.0
 11
280.99716463024322
 21
-281.46860659184392
 31
0.0
  0
LINE
  8
DETAIL
  6
CONTINUOUS
 62
     5
 10
280.99716463024322
 20
-281.46860659184392
 30
0.0
 11
280.99716463024322
 21
-281.46860659184392
 31
0.0
  0
LINE
  8
DETAIL
  6
CONTINUOUS
 62
     5
 10
280.99716463024322
 20
-281.46860659184392
 30
0.0
 11
281.11701538215982
 21
-281.32108205979301
 31
0.0
  0
LINE
  8
DETAIL
  6
CONTINUOUS
 62
     5
 10
281.11701538215982
 20
-281.32108205979301
 30
0.0
 11
281.23469017341017
 21
-281.17129671512112
 31
0.0
  0
LINE
  8
DETAIL
  6
CONTINUOUS
 62
     5
 10
281.23469017341017
 20
-281.17129671512112
 30
0.0
 11
281.23469017341017
 21
-281.17129671512112
 31
0.0
  0
LINE
  8
DETAIL
  6
CONTINUOUS
 62
     5
 10
281.23469017341017
 20
-281.17129671512112
 30
0.0
 11
281.35024565308248
 21
-281.01918753810151
 31
0.0
  0
LINE
  8
DETAIL
  6
CONTINUOUS
 62
     5
 10
281.35024565308248
 20
-281.01918753810151
 30
0.0
 11
281.46248103614181
 21
-280.86644826260101
 31
0.0
  0
LINE
  8
DETAIL
  6
CONTINUOUS
 62
     5
 10
281.46248103614181
 20
-280.86644826260101
 30
0.0
 11
281.46248103614181
 21
-280.86644826260101
 31
0.0
  0
LINE
  8
DETAIL
  6
CONTINUOUS
 62
     5
 10
281.46248103614181
 20
-280.86644826260101
 30
0.0
 11
281.57038036385342
 21
-280.71452193589113
 31
0.0
  0
LINE
  8
DETAIL
  6
CONTINUOUS
 62
     5
 10
281.57038036385342
 20
-280.71452193589113
 30
0.0
 11
281.67492441680469
 21
-280.56209210527021
 31
0.0
  0
LINE
  8
DETAIL
  6
CONTINUOUS
 62
     5
 10
281.67492441680469
 20
-280.56209210527021
 30
0.0
 11
281.67492441680469
 21
-280.56209210527021
 31
0.0
  0
LINE
  8
DETAIL
  6
CONTINUOUS
 62
     5
 10
281.67492441680469
 20
-280.56209210527021
 30
0.0
 11
281.77727496124447
 21
-280.40756863499121
 31
0.0
  0
LINE
  8
DETAIL
  6
CONTINUOUS
 62
     5
 10
281.77727496124447
 20
-280.40756863499121
 30
0.0
 11
281.87732096674853
 21
-280.25102615709949
 31
0.0
  0
LINE
  8
DETAIL
  6
CONTINUOUS
 62
     5
 10
281.87732096674853
 20
-280.25102615709949
 30
0.0
 11
281.87732096674853
 21
-280.25102615709949
 31
0.0
  0
LINE
  8
DETAIL
  6
CONTINUOUS
 62
     5
 10
281.87732096674853
 20
-280.25102615709949
 30
0.0
 11
281.97468986644998
 21
-280.09290512518822
 31
0.0
  0
LINE
  8
DETAIL
  6
CONTINUOUS
 62
     5
 10
281.97468986644998
 20
-280.09290512518822
 30
0.0
 11
282.06923574438218
 21
-279.93344451125182
 31
0.0
  0
LINE
  8
DETAIL
  6
CONTINUOUS
 62
     5
 10
282.06923574438218
 20
-279.93344451125182
 30
0.0
 11
282.06923574438218
 21
-279.93344451125182
 31
0.0
  0
LINE
  8
DETAIL
  6
CONTINUOUS
 62
     5
 10
282.06923574438218
 20
-279.93344451125182
 30
0.0
 11
282.16096089557118
 21
-279.77261820653553
 31
0.0
  0
LINE
  8
DETAIL
  6
CONTINUOUS
 62
     5
 10
282.16096089557118
 20
-279.77261820653553
 30
0.0
 11
282.2502338081128
 21
-279.60954126088882
 31
0.0
  0
LINE
  8
DETAIL
  6
CONTINUOUS
 62
     5
 10
282.2502338081128
 20
-279.60954126088882
 30
0.0
 11
282.2502338081128
 21
-279.60954126088882
 31
0.0
  0
LINE
  8
DETAIL
  6
CONTINUOUS
 62
     5
 10
282.2502338081128
 20
-279.60954126088882
 30
0.0
 11
282.33709166257592
 21
-279.44402322560842
 31
0.0
  0
LINE
  8
DETAIL
  6
CONTINUOUS
 62
     5
 10
282.33709166257592
 20
-279.44402322560842
 30
0.0
 11
282.41988021634802
 21
-279.27951049917351
 31
0.0
  0
LINE
  8
DETAIL
  6
CONTINUOUS
 62
     5
 10
282.41988021634802
 20
-279.27951049917351
 30
0.0
 11
282.41988021634802
 21
-279.27951049917351
 31
0.0
  0
LINE
  8
DETAIL
  6
CONTINUOUS
 62
     5
 10
282.41988021634802
 20
-279.27951049917351
 30
0.0
 11
282.49722171741098
 21
-279.11893363556072
 31
0.0
  0
LINE
  8
DETAIL
  6
CONTINUOUS
 62
     5
 10
282.49722171741098
 20
-279.11893363556072
 30
0.0
 11
282.57053579930169
 21
-278.95952296355313
 31
0.0
  0
LINE
  8
DETAIL
  6
CONTINUOUS
 62
     5
 10
282.57053579930169
 20
-278.95952296355313
 30
0.0
 11
282.57053579930169
 21
-278.95952296355313
 31
0.0
  0
LINE
  8
DETAIL
  6
CONTINUOUS
 62
     5
 10
282.57053579930169
 20
-278.95952296355313
 30
0.0
 11
282.64148234564732
 21
-278.79795925695862
 31
0.0
  0
LINE
  8
DETAIL
  6
CONTINUOUS
 62
     5
 10
282.64148234564732
 20
-278.79795925695862
 30
0.0
 11
282.70988485487942
 21
-278.63442529488032
 31
0.0
  0
LINE
  8
DETAIL
  6
CONTINUOUS
 62
     5
 10
282.70988485487942
 20
-278.63442529488032
 30
0.0
 11
282.70988485487942
 21
-278.63442529488032
 31
0.0
  0
LINE
  8
DETAIL
  6
CONTINUOUS
 62
     5
 10
282.70988485487942
 20
-278.63442529488032
 30
0.0
 11
282.77520868605012
 21
-278.46983125120062
 31
0.0
  0
LINE
  8
DETAIL
  6
CONTINUOUS
 62
     5
 10
282.77520868605012
 20
-278.46983125120062
 30
0.0
 11
282.83732302588641
 21
-278.30449487362921
 31
0.0
  0
LINE
  8
DETAIL
  6
CONTINUOUS
 62
     5
 10
282.83732302588641
 20
-278.30449487362921
 30
0.0
 11
282.83732302588641
 21
-278.30449487362921
 31
0.0
  0
LINE
  8
DETAIL
  6
CONTINUOUS
 62
     5
 10
282.83732302588641
 20
-278.30449487362921
 30
0.0
 11
282.89625328665818
 21
-278.13830272818223
 31
0.0
  0
LINE
  8
DETAIL
  6
CONTINUOUS
 62
     5
 10
282.89625328665818
 20
-278.13830272818223
 30
0.0
 11
282.95224595513048
 21
-277.97000908027422
 31
0.0
  0
LINE
  8
DETAIL
  6
CONTINUOUS
 62
     5
 10
282.95224595513048
 20
-277.97000908027422
 30
0.0
 11
282.95224595513048
 21
-277.97000908027422
 31
0.0
  0
LINE
  8
DETAIL
  6
CONTINUOUS
 62
     5
 10
282.95224595513048
 20
-277.97000908027422
 30
0.0
 11
283.00528075527677
 21
-277.79936552731442
 31
0.0
  0
LINE
  8
DETAIL
  6
CONTINUOUS
 62
     5
 10
283.00528075527677
 20
-277.79936552731442
 30
0.0
 11
283.05404928541628
 21
-277.63124529528892
 31
0.0
  0
LINE
  8
DETAIL
  6
CONTINUOUS
 62
     5
 10
283.05404928541628
 20
-277.63124529528892
 30
0.0
 11
283.05404928541628
 21
-277.63124529528892
 31
0.0
  0
LINE
  8
DETAIL
  6
CONTINUOUS
 62
     5
 10
283.05404928541628
 20
-277.63124529528892
 30
0.0
 11
283.09748388403523
 21
-277.46978105499892
 31
0.0
  0
LINE
  8
DETAIL
  6
CONTINUOUS
 62
     5
 10
283.09748388403523
 20
-277.46978105499892
 30
0.0
 11
283.13676797595338
 21
-277.31102162792678
 31
0.0
  0
LINE
  8
DETAIL
  6
CONTINUOUS
 62
     5
 10
283.13676797595338
 20
-277.31102162792678
 30
0.0
 11
283.13676797595338
 21
-277.31102162792678
 31
0.0
  0
LINE
  8
DETAIL
  6
CONTINUOUS
 62
     5
 10
283.13676797595338
 20
-277.31102162792678
 30
0.0
 11
283.17326020508318
 21
-277.15024869580043
 31
0.0
  0
LINE
  8
DETAIL
  6
CONTINUOUS
 62
     5
 10
283.17326020508318
 20
-277.15024869580043
 30
0.0
 11
283.20676900537552
 21
-276.98775923064602
 31
0.0
  0
LINE
  8
DETAIL
  6
CONTINUOUS
 62
     5
 10
283.20676900537552
 20
-276.98775923064602
 30
0.0
 11
283.20676900537552
 21
-276.98775923064602
 31
0.0
  0
LINE
  8
DETAIL
  6
CONTINUOUS
 62
     5
 10
283.20676900537552
 20
-276.98775923064602
 30
0.0
 11
283.23681585222653
 21
-276.82486410371541
 31
0.0
  0
LINE
  8
DETAIL
  6
CONTINUOUS
 62
     5
 10
283.23681585222653
 20
-276.82486410371541
 30
0.0
 11
283.2633245967736
 21
-276.66191449286481
 31
0.0
  0
LINE
  8
DETAIL
  6
CONTINUOUS
 62
     5
 10
283.2633245967736
 20
-276.66191449286481
 30
0.0
 11
283.2633245967736
 21
-276.66191449286481
 31
0.0
  0
LINE
  8
DETAIL
  6
CONTINUOUS
 62
     5
 10
283.2633245967736
 20
-276.66191449286481
 30
0.0
 11
283.28630486083938
 21
-276.49872752342282
 31
0.0
  0
LINE
  8
DETAIL
  6
CONTINUOUS
 62
     5
 10
283.28630486083938
 20
-276.49872752342282
 30
0.0
 11
283.30570697323918
 21
-276.33394380400102
 31
0.0
  0
LINE
  8
DETAIL
  6
CONTINUOUS
 62
     5
 10
283.30570697323918
 20
-276.33394380400102
 30
0.0
 11
283.30570697323918
 21
-276.33394380400102
 31
0.0
  0
LINE
  8
DETAIL
  6
CONTINUOUS
 62
     5
 10
283.30570697323918
 20
-276.33394380400102
 30
0.0
 11
283.32142513860742
 21
-276.16732625409708
 31
0.0
  0
LINE
  8
DETAIL
  6
CONTINUOUS
 62
     5
 10
283.32142513860742
 20
-276.16732625409708
 30
0.0
 11
283.3331883578619
 21
-276.00430355347231
 31
0.0
  0
LINE
  8
DETAIL
  6
CONTINUOUS
 62
     5
 10
283.3331883578619
 20
-276.00430355347231
 30
0.0
 11
283.3331883578619
 21
-276.00430355347231
 31
0.0
  0
LINE
  8
DETAIL
  6
CONTINUOUS
 62
     5
 10
283.3331883578619
 20
-276.00430355347231
 30
0.0
 11
283.34082064847161
 21
-275.84946952374662
 31
0.0
  0
LINE
  8
DETAIL
  6
CONTINUOUS
 62
     5
 10
283.34082064847161
 20
-275.84946952374662
 30
0.0
 11
283.34469129783128
 21
-275.69841279372213
 31
0.0
  0
LINE
  8
DETAIL
  6
CONTINUOUS
 62
     5
 10
283.34469129783128
 20
-275.69841279372213
 30
0.0
 11
283.34469129783128
 21
-275.69841279372213
 31
0.0
  0
LINE
  8
DETAIL
  6
CONTINUOUS
 62
     5
 10
283.34469129783128
 20
-275.69841279372213
 30
0.0
 11
283.34517713558142
 21
-275.5458823790575
 31
0.0
  0
LINE
  8
DETAIL
  6
CONTINUOUS
 62
     5
 10
283.34517713558142
 20
-275.5458823790575
 30
0.0
 11
283.34213989042462
 21
-275.39227403566662
 31
0.0
  0
LINE
  8
DETAIL
  6
CONTINUOUS
 62
     5
 10
283.34213989042462
 20
-275.39227403566662
 30
0.0
 11
283.34213989042462
 21
-275.39227403566662
 31
0.0
  0
LINE
  8
DETAIL
  6
CONTINUOUS
 62
     5
 10
283.34213989042462
 20
-275.39227403566662
 30
0.0
 11
283.33536504526973
 21
-275.23909816303433
 31
0.0
  0
LINE
  8
DETAIL
  6
CONTINUOUS
 62
     5
 10
283.33536504526973
 20
-275.23909816303433
 30
0.0
 11
283.32484820080089
 21
-275.08667699467628
 31
0.0
  0
LINE
  8
DETAIL
  6
CONTINUOUS
 62
     5
 10
283.32484820080089
 20
-275.08667699467628
 30
0.0
 11
283.32484820080089
 21
-275.08667699467628
 31
0.0
  0
LINE
  8
DETAIL
  6
CONTINUOUS
 62
     5
 10
283.32484820080089
 20
-275.08667699467628
 30
0.0
 11
283.31055614460519
 21
-274.93481220352231
 31
0.0
  0
LINE
  8
DETAIL
  6
CONTINUOUS
 62
     5
 10
283.31055614460519
 20
-274.93481220352231
 30
0.0
 11
283.29213029411881
 21
-274.78241138612162
 31
0.0
  0
LINE
  8
DETAIL
  6
CONTINUOUS
 62
     5
 10
283.29213029411881
 20
-274.78241138612162
 30
0.0
 11
283.29213029411881
 21
-274.78241138612162
 31
0.0
  0
LINE
  8
DETAIL
  6
CONTINUOUS
 62
     5
 10
283.29213029411881
 20
-274.78241138612162
 30
0.0
 11
283.26940356494839
 21
-274.62934973780102
 31
0.0
  0
LINE
  8
DETAIL
  6
CONTINUOUS
 62
     5
 10
283.26940356494839
 20
-274.62934973780102
 30
0.0
 11
283.24330023553762
 21
-274.48026692537371
 31
0.0
  0
LINE
  8
DETAIL
  6
CONTINUOUS
 62
     5
 10
283.24330023553762
 20
-274.48026692537371
 30
0.0
 11
283.24330023553762
 21
-274.48026692537371
 31
0.0
  0
LINE
  8
DETAIL
  6
CONTINUOUS
 62
     5
 10
283.24330023553762
 20
-274.48026692537371
 30
0.0
 11
283.21465830385131
 21
-274.33907606698301
 31
0.0
  0
LINE
  8
DETAIL
  6
CONTINUOUS
 62
     5
 10
283.21465830385131
 20
-274.33907606698301
 30
0.0
 11
283.18287928309542
 21
-274.20201961460941
 31
0.0
  0
LINE
  8
DETAIL
  6
CONTINUOUS
 62
     5
 10
283.18287928309542
 20
-274.20201961460941
 30
0.0
 11
283.18287928309542
 21
-274.20201961460941
 31
0.0
  0
LINE
  8
DETAIL
  6
CONTINUOUS
 62
     5
 10
283.18287928309542
 20
-274.20201961460941
 30
0.0
 11
283.14719349503082
 21
-274.06464080983852
 31
0.0
  0
LINE
  8
DETAIL
  6
CONTINUOUS
 62
     5
 10
283.14719349503082
 20
-274.06464080983852
 30
0.0
 11
283.1075829803828
 21
-273.92735671884247
 31
0.0
  0
LINE
  8
DETAIL
  6
CONTINUOUS
 62
     5
 10
283.1075829803828
 20
-273.92735671884247
 30
0.0
 11
283.1075829803828
 21
-273.92735671884247
 31
0.0
  0
LINE
  8
DETAIL
  6
CONTINUOUS
 62
     5
 10
283.1075829803828
 20
-273.92735671884247
 30
0.0
 11
283.06419129780397
 21
-273.79151932837681
 31
0.0
  0
LINE
  8
DETAIL
  6
CONTINUOUS
 62
     5
 10
283.06419129780397
 20
-273.79151932837681
 30
0.0
 11
283.01705635867881
 21
-273.65734648294921
 31
0.0
  0
LINE
  8
DETAIL
  6
CONTINUOUS
 62
     5
 10
283.01705635867881
 20
-273.65734648294921
 30
0.0
 11
283.01705635867881
 21
-273.65734648294921
 31
0.0
  0
LINE
  8
DETAIL
  6
CONTINUOUS
 62
     5
 10
283.01705635867881
 20
-273.65734648294921
 30
0.0
 11
282.96610738010122
 21
-273.52468817760632
 31
0.0
  0
LINE
  8
DETAIL
  6
CONTINUOUS
 62
     5
 10
282.96610738010122
 20
-273.52468817760632
 30
0.0
 11
282.91094444926131
 21
-273.39305715180433
 31
0.0
  0
LINE
  8
DETAIL
  6
CONTINUOUS
 62
     5
 10
282.91094444926131
 20
-273.39305715180433
 30
0.0
 11
282.91094444926131
 21
-273.39305715180433
 31
0.0
  0
LINE
  8
DETAIL
  6
CONTINUOUS
 62
     5
 10
282.91094444926131
 20
-273.39305715180433
 30
0.0
 11
282.85144091259338
 21
-273.26250262225358
 31
0.0
  0
LINE
  8
DETAIL
  6
CONTINUOUS
 62
     5
 10
282.85144091259338
 20
-273.26250262225358
 30
0.0
 11
282.78889228340807
 21
-273.13555697028352
 31
0.0
  0
LINE
  8
DETAIL
  6
CONTINUOUS
 62
     5
 10
282.78889228340807
 20
-273.13555697028352
 30
0.0
 11
282.78889228340807
 21
-273.13555697028352
 31
0.0
  0
LINE
  8
DETAIL
  6
CONTINUOUS
 62
     5
 10
282.78889228340807
 20
-273.13555697028352
 30
0.0
 11
282.72444152180668
 21
-273.01434617805933
 31
0.0
  0
LINE
  8
DETAIL
  6
CONTINUOUS
 62
     5
 10
282.72444152180668
 20
-273.01434617805933
 30
0.0
 11
282.65719920818918
 21
-272.89688746647113
 31
0.0
  0
LINE
  8
DETAIL
  6
CONTINUOUS
 62
     5
 10
282.65719920818918
 20
-272.89688746647113
 30
0.0
 11
282.65719920818918
 21
-272.89688746647113
 31
0.0
  0
LINE
  8
DETAIL
  6
CONTINUOUS
 62
     5
 10
282.65719920818918
 20
-272.89688746647113
 30
0.0
 11
282.58607209008733
 21
-272.78084435749508
 31
0.0
  0
LINE
  8
DETAIL
  6
CONTINUOUS
 62
     5
 10
282.58607209008733
 20
-272.78084435749508
 30
0.0
 11
282.51118396326092
 21
-272.66657433872842
 31
0.0
  0
LINE
  8
DETAIL
  6
CONTINUOUS
 62
     5
 10
282.51118396326092
 20
-272.66657433872842
 30
0.0
 11
282.51118396326092
 21
-272.66657433872842
 31
0.0
  0
LINE
  8
DETAIL
  6
CONTINUOUS
 62
     5
 10
282.51118396326092
 20
-272.66657433872842
 30
0.0
 11
282.43290840481751
 21
-272.55489877469807
 31
0.0
  0
LINE
  8
DETAIL
  6
CONTINUOUS
 62
     5
 10
282.43290840481751
 20
-272.55489877469807
 30
0.0
 11
282.35140106901582
 21
-272.44580057203382
 31
0.0
  0
LINE
  8
DETAIL
  6
CONTINUOUS
 62
     5
 10
282.35140106901582
 20
-272.44580057203382
 30
0.0
 11
282.35140106901582
 21
-272.44580057203382
 31
0.0
  0
LINE
  8
DETAIL
  6
CONTINUOUS
 62
     5
 10
282.35140106901582
 20
-272.44580057203382
 30
0.0
 11
282.26667679019528
 21
-272.33921798938269
 31
0.0
  0
LINE
  8
DETAIL
  6
CONTINUOUS
 62
     5
 10
282.26667679019528
 20
-272.33921798938269
 30
0.0
 11
282.17840504584672
 21
-272.23574915136533
 31
0.0
  0
LINE
  8
DETAIL
  6
CONTINUOUS
 62
     5
 10
282.17840504584672
 20
-272.23574915136533
 30
0.0
 11
282.17840504584672
 21
-272.23574915136533
 31
0.0
  0
LINE
  8
DETAIL
  6
CONTINUOUS
 62
     5
 10
282.17840504584672
 20
-272.23574915136533
 30
0.0
 11
282.08656881180849
 21
-272.13570689759678
 31
0.0
  0
LINE
  8
DETAIL
  6
CONTINUOUS
 62
     5
 10
282.08656881180849
 20
-272.13570689759678
 30
0.0
 11
281.99275041414597
 21
-272.03760306170142
 31
0.0
  0
LINE
  8
DETAIL
  6
CONTINUOUS
 62
     5
 10
266.41445915638423
 20
-287.61589431946283
 30
0.0
 11
266.51256299227992
 21
-287.70971271712511
 31
0.0
  0
LINE
  8
DETAIL
  6
CONTINUOUS
 62
     5
 10
266.51256299227992
 20
-287.70971271712511
 30
0.0
 11
266.61260524604887
 21
-287.80154895116362
 31
0.0
  0
LINE
  8
DETAIL
  6
CONTINUOUS
 62
     5
 10
266.61260524604887
 20
-287.80154895116362
 30
0.0
 11
266.61260524604887
 21
-287.80154895116362
 31
0.0
  0
LINE
  8
DETAIL
  6
CONTINUOUS
 62
     5
 10
266.61260524604887
 20
-287.80154895116362
 30
0.0
 11
266.71607408406612
 21
-287.88982069551213
 31
0.0
  0
LINE
  8
DETAIL
  6
CONTINUOUS
 62
     5
 10
266.71607408406612
 20
-287.88982069551213
 30
0.0
 11
266.82265666671702
 21
-287.97454497433262
 31
0.0
  0
LINE
  8
DETAIL
  6
CONTINUOUS
 62
     5
 10
266.82265666671702
 20
-287.97454497433262
 30
0.0
 11
266.82265666671702
 21
-287.97454497433262
 31
0.0
  0
LINE
  8
DETAIL
  6
CONTINUOUS
 62
     5
 10
266.82265666671702
 20
-287.97454497433262
 30
0.0
 11
266.93175486938122
 21
-288.05605231013391
 31
0.0
  0
LINE
  8
DETAIL
  6
CONTINUOUS
 62
     5
 10
266.93175486938122
 20
-288.05605231013391
 30
0.0
 11
267.04343043341152
 21
-288.13432786857771
 31
0.0
  0
LINE
  8
DETAIL
  6
CONTINUOUS
 62
     5
 10
267.04343043341152
 20
-288.13432786857771
 30
0.0
 11
267.04343043341152
 21
-288.13432786857771
 31
0.0
  0
LINE
  8
DETAIL
  6
CONTINUOUS
 62
     5
 10
267.04343043341152
 20
-288.13432786857771
 30
0.0
 11
267.1577004521784
 21
-288.20921599540361
 31
0.0
  0
LINE
  8
DETAIL
  6
CONTINUOUS
 62
     5
 10
267.1577004521784
 20
-288.20921599540361
 30
0.0
 11
267.27374356115462
 21
-288.28034311350581
 31
0.0
  0
LINE
  8
DETAIL
  6
CONTINUOUS
 62
     5
 10
267.27374356115462
 20
-288.28034311350581
 30
0.0
 11
267.27374356115462
 21
-288.28034311350581
 31
0.0
  0
LINE
  8
DETAIL
  6
CONTINUOUS
 62
     5
 10
267.27374356115462
 20
-288.28034311350581
 30
0.0
 11
267.39120227274287
 21
-288.34758542712302
 31
0.0
  0
LINE
  8
DETAIL
  6
CONTINUOUS
 62
     5
 10
267.39120227274287
 20
-288.34758542712302
 30
0.0
 11
267.51241306496712
 21
-288.41203618872453
 31
0.0
  0
LINE
  8
DETAIL
  6
CONTINUOUS
 62
     5
 10
267.51241306496712
 20
-288.41203618872453
 30
0.0
 11
267.51241306496712
 21
-288.41203618872453
 31
0.0
  0
LINE
  8
DETAIL
  6
CONTINUOUS
 62
     5
 10
267.51241306496712
 20
-288.41203618872453
 30
0.0
 11
267.63935871693678
 21
-288.47458481791062
 31
0.0
  0
LINE
  8
DETAIL
  6
CONTINUOUS
 62
     5
 10
267.63935871693678
 20
-288.47458481791062
 30
0.0
 11
267.76991324648742
 21
-288.53408835457901
 31
0.0
  0
LINE
  8
DETAIL
  6
CONTINUOUS
 62
     5
 10
267.76991324648742
 20
-288.53408835457901
 30
0.0
 11
267.76991324648742
 21
-288.53408835457901
 31
0.0
  0
LINE
  8
DETAIL
  6
CONTINUOUS
 62
     5
 10
267.76991324648742
 20
-288.53408835457901
 30
0.0
 11
267.90154427228953
 21
-288.58925128542108
 31
0.0
  0
LINE
  8
DETAIL
  6
CONTINUOUS
 62
     5
 10
267.90154427228953
 20
-288.58925128542108
 30
0.0
 11
268.03420257763202
 21
-288.64020026400391
 31
0.0
  0
LINE
  8
DETAIL
  6
CONTINUOUS
 62
     5
 10
268.03420257763202
 20
-288.64020026400391
 30
0.0
 11
268.03420257763202
 21
-288.64020026400391
 31
0.0
  0
LINE
  8
DETAIL
  6
CONTINUOUS
 62
     5
 10
268.03420257763202
 20
-288.64020026400391
 30
0.0
 11
268.16837542306001
 21
-288.68733520313702
 31
0.0
  0
LINE
  8
DETAIL
  6
CONTINUOUS
 62
     5
 10
268.16837542306001
 20
-288.68733520313702
 30
0.0
 11
268.30421281352568
 21
-288.73072688572802
 31
0.0
  0
LINE
  8
DETAIL
  6
CONTINUOUS
 62
     5
 10
268.30421281352568
 20
-288.73072688572802
 30
0.0
 11
268.30421281352568
 21
-288.73072688572802
 31
0.0
  0
LINE
  8
DETAIL
  6
CONTINUOUS
 62
     5
 10
268.30421281352568
 20
-288.73072688572802
 30
0.0
 11
268.44149690452201
 21
-288.77033740039252
 31
0.0
  0
LINE
  8
DETAIL
  6
CONTINUOUS
 62
     5
 10
268.44149690452201
 20
-288.77033740039252
 30
0.0
 11
268.57887570929267
 21
-288.80602318847963
 31
0.0
  0
LINE
  8
DETAIL
  6
CONTINUOUS
 62
     5
 10
268.57887570929267
 20
-288.80602318847963
 30
0.0
 11
268.57887570929267
 21
-288.80602318847963
 31
0.0
  0
LINE
  8
DETAIL
  6
CONTINUOUS
 62
     5
 10
268.57887570929267
 20
-288.80602318847963
 30
0.0
 11
268.71593216166622
 21
-288.83780220926332
 31
0.0
  0
LINE
  8
DETAIL
  6
CONTINUOUS
 62
     5
 10
268.71593216166622
 20
-288.83780220926332
 30
0.0
 11
268.85712302005697
 21
-288.86644414098652
 31
0.0
  0
LINE
  8
DETAIL
  6
CONTINUOUS
 62
     5
 10
268.85712302005697
 20
-288.86644414098652
 30
0.0
 11
268.85712302005697
 21
-288.86644414098652
 31
0.0
  0
LINE
  8
DETAIL
  6
CONTINUOUS
 62
     5
 10
268.85712302005697
 20
-288.86644414098652
 30
0.0
 11
269.00620583248462
 21
-288.89254747044367
 31
0.0
  0
LINE
  8
DETAIL
  6
CONTINUOUS
 62
     5
 10
269.00620583248462
 20
-288.89254747044367
 30
0.0
 11
269.15926748080511
 21
-288.91527419966798
 31
0.0
  0
LINE
  8
DETAIL
  6
CONTINUOUS
 62
     5
 10
269.15926748080511
 20
-288.91527419966798
 30
0.0
 11
269.15926748080511
 21
-288.91527419966798
 31
0.0
  0
LINE
  8
DETAIL
  6
CONTINUOUS
 62
     5
 10
269.15926748080511
 20
-288.91527419966798
 30
0.0
 11
269.31166829820557
 21
-288.93370005021183
 31
0.0
  0
LINE
  8
DETAIL
  6
CONTINUOUS
 62
     5
 10
269.31166829820557
 20
-288.93370005021183
 30
0.0
 11
269.46353308935983
 21
-288.9479921064663
 31
0.0
  0
LINE
  8
DETAIL
  6
CONTINUOUS
 62
     5
 10
269.46353308935983
 20
-288.9479921064663
 30
0.0
 11
269.46353308935983
 21
-288.9479921064663
 31
0.0
  0
LINE
  8
DETAIL
  6
CONTINUOUS
 62
     5
 10
269.46353308935983
 20
-288.9479921064663
 30
0.0
 11
269.61595425771742
 21
-288.95850895099318
 31
0.0
  0
LINE
  8
DETAIL
  6
CONTINUOUS
 62
     5
 10
269.61595425771742
 20
-288.95850895099318
 30
0.0
 11
269.76913013034999
 21
-288.96528379620241
 31
0.0
  0
LINE
  8
DETAIL
  6
CONTINUOUS
 62
     5
 10
269.76913013034999
 20
-288.96528379620241
 30
0.0
 11
269.76913013034999
 21
-288.96528379620241
 31
0.0
  0
LINE
  8
DETAIL
  6
CONTINUOUS
 62
     5
 10
269.76913013034999
 20
-288.96528379620241
 30
0.0
 11
269.92273847374071
 21
-288.96832104140748
 31
0.0
  0
LINE
  8
DETAIL
  6
CONTINUOUS
 62
     5
 10
269.92273847374071
 20
-288.96832104140748
 30
0.0
 11
270.07526888840567
 21
-288.96783520369661
 31
0.0
  0
LINE
  8
DETAIL
  6
CONTINUOUS
 62
     5
 10
270.07526888840567
 20
-288.96783520369661
 30
0.0
 11
270.07526888840567
 21
-288.96783520369661
 31
0.0
  0
LINE
  8
DETAIL
  6
CONTINUOUS
 62
     5
 10
270.07526888840567
 20
-288.96783520369661
 30
0.0
 11
270.22632561843062
 21
-288.96396455436542
 31
0.0
  0
LINE
  8
DETAIL
  6
CONTINUOUS
 62
     5
 10
270.22632561843062
 20
-288.96396455436542
 30
0.0
 11
270.38115964815518
 21
-288.95633226376992
 31
0.0
  0
LINE
  8
DETAIL
  6
CONTINUOUS
 62
     5
 10
270.38115964815518
 20
-288.95633226376992
 30
0.0
 11
270.38115964815518
 21
-288.95633226376992
 31
0.0
  0
LINE
  8
DETAIL
  6
CONTINUOUS
 62
     5
 10
270.38115964815518
 20
-288.95633226376992
 30
0.0
 11
270.54418234878062
 21
-288.94456904451278
 31
0.0
  0
LINE
  8
DETAIL
  6
CONTINUOUS
 62
     5
 10
270.54418234878062
 20
-288.94456904451278
 30
0.0
 11
270.71079989868389
 21
-288.92885087912589
 31
0.0
  0
LINE
  8
DETAIL
  6
CONTINUOUS
 62
     5
 10
270.71079989868389
 20
-288.92885087912589
 30
0.0
 11
270.71079989868389
 21
-288.92885087912589
 31
0.0
  0
LINE
  8
DETAIL
  6
CONTINUOUS
 62
     5
 10
270.71079989868389
 20
-288.92885087912589
 30
0.0
 11
270.87558361810602
 21
-288.90944876669431
 31
0.0
  0
LINE
  8
DETAIL
  6
CONTINUOUS
 62
     5
 10
270.87558361810602
 20
-288.90944876669431
 30
0.0
 11
271.03877058754807
 21
-288.88646850258561
 31
0.0
  0
LINE
  8
DETAIL
  6
CONTINUOUS
 62
     5
 10
271.03877058754807
 20
-288.88646850258561
 30
0.0
 11
271.03877058754807
 21
-288.88646850258561
 31
0.0
  0
LINE
  8
DETAIL
  6
CONTINUOUS
 62
     5
 10
271.03877058754807
 20
-288.88646850258561
 30
0.0
 11
271.20172019839868
 21
-288.85995975798693
 31
0.0
  0
LINE
  8
DETAIL
  6
CONTINUOUS
 62
     5
 10
271.20172019839868
 20
-288.85995975798693
 30
0.0
 11
271.36461532532951
 21
-288.82991291107959
 31
0.0
  0
LINE
  8
DETAIL
  6
CONTINUOUS
 62
     5
 10
271.36461532532951
 20
-288.82991291107959
 30
0.0
 11
271.36461532532951
 21
-288.82991291107959
 31
0.0
  0
LINE
  8
DETAIL
  6
CONTINUOUS
 62
     5
 10
271.36461532532951
 20
-288.82991291107959
 30
0.0
 11
271.52710479048409
 21
-288.79640411072802
 31
0.0
  0
LINE
  8
DETAIL
  6
CONTINUOUS
 62
     5
 10
271.52710479048409
 20
-288.79640411072802
 30
0.0
 11
271.6878777226097
 21
-288.75991188153961
 31
0.0
  0
LINE
  8
DETAIL
  6
CONTINUOUS
 62
     5
 10
271.6878777226097
 20
-288.75991188153961
 30
0.0
 11
271.6878777226097
 21
-288.75991188153961
 31
0.0
  0
LINE
  8
DETAIL
  6
CONTINUOUS
 62
     5
 10
271.6878777226097
 20
-288.75991188153961
 30
0.0
 11
271.84663714968218
 21
-288.72062778956632
 31
0.0
  0
LINE
  8
DETAIL
  6
CONTINUOUS
 62
     5
 10
271.84663714968218
 20
-288.72062778956632
 30
0.0
 11
272.00810138997241
 21
-288.6771931908973
 31
0.0
  0
LINE
  8
DETAIL
  6
CONTINUOUS
 62
     5
 10
272.00810138997241
 20
-288.6771931908973
 30
0.0
 11
272.00810138997241
 21
-288.6771931908973
 31
0.0
  0
LINE
  8
DETAIL
  6
CONTINUOUS
 62
     5
 10
272.00810138997241
 20
-288.6771931908973
 30
0.0
 11
272.17622162199751
 21
-288.62842466071402
 31
0.0
  0
LINE
  8
DETAIL
  6
CONTINUOUS
 62
     5
 10
272.17622162199751
 20
-288.62842466071402
 30
0.0
 11
272.3468651749576
 21
-288.57538986053078
 31
0.0
  0
LINE
  8
DETAIL
  6
CONTINUOUS
 62
     5
 10
272.3468651749576
 20
-288.57538986053078
 30
0.0
 11
272.3468651749576
 21
-288.57538986053078
 31
0.0
  0
LINE
  8
DETAIL
  6
CONTINUOUS
 62
     5
 10
272.3468651749576
 20
-288.57538986053078
 30
0.0
 11
272.51515882286537
 21
-288.51939719203102
 31
0.0
  0
LINE
  8
DETAIL
  6
CONTINUOUS
 62
     5
 10
272.51515882286537
 20
-288.51939719203102
 30
0.0
 11
272.68135096831242
 21
-288.46046693123878
 31
0.0
  0
LINE
  8
DETAIL
  6
CONTINUOUS
 62
     5
 10
272.68135096831242
 20
-288.46046693123878
 30
0.0
 11
272.68135096831242
 21
-288.46046693123878
 31
0.0
  0
LINE
  8
DETAIL
  6
CONTINUOUS
 62
     5
 10
272.68135096831242
 20
-288.46046693123878
 30
0.0
 11
272.84668734588439
 21
-288.39835259138709
 31
0.0
  0
LINE
  8
DETAIL
  6
CONTINUOUS
 62
     5
 10
272.84668734588439
 20
-288.39835259138709
 30
0.0
 11
273.01128138956358
 21
-288.33302876020622
 31
0.0
  0
LINE
  8
DETAIL
  6
CONTINUOUS
 62
     5
 10
273.01128138956358
 20
-288.33302876020622
 30
0.0
 11
273.01128138956358
 21
-288.33302876020622
 31
0.0
  0
LINE
  8
DETAIL
  6
CONTINUOUS
 62
     5
 10
273.01128138956358
 20
-288.33302876020622
 30
0.0
 11
273.17481535164222
 21
-288.26462625096832
 31
0.0
  0
LINE
  8
DETAIL
  6
CONTINUOUS
 62
     5
 10
273.17481535164222
 20
-288.26462625096832
 30
0.0
 11
273.33637905823667
 21
-288.19367970461991
 31
0.0
  0
LINE
  8
DETAIL
  6
CONTINUOUS
 62
     5
 10
273.33637905823667
 20
-288.19367970461991
 30
0.0
 11
273.33637905823667
 21
-288.19367970461991
 31
0.0
  0
LINE
  8
DETAIL
  6
CONTINUOUS
 62
     5
 10
273.33637905823667
 20
-288.19367970461991
 30
0.0
 11
273.49578973024398
 21
-288.12036562272789
 31
0.0
  0
LINE
  8
DETAIL
  6
CONTINUOUS
 62
     5
 10
273.49578973024398
 20
-288.12036562272789
 30
0.0
 11
273.65636659385638
 21
-288.04302412166493
 31
0.0
  0
LINE
  8
DETAIL
  6
CONTINUOUS
 62
     5
 10
273.65636659385638
 20
-288.04302412166493
 30
0.0
 11
273.65636659385638
 21
-288.04302412166493
 31
0.0
  0
LINE
  8
DETAIL
  6
CONTINUOUS
 62
     5
 10
273.65636659385638
 20
-288.04302412166493
 30
0.0
 11
273.82087932029162
 21
-287.96023556789243
 31
0.0
  0
LINE
  8
DETAIL
  6
CONTINUOUS
 62
     5
 10
273.82087932029162
 20
-287.96023556789243
 30
0.0
 11
273.98639735557191
 21
-287.87337771342942
 31
0.0
  0
LINE
  8
DETAIL
  6
CONTINUOUS
 62
     5
 10
273.98639735557191
 20
-287.87337771342942
 30
0.0
 11
273.98639735557191
 21
-287.87337771342942
 31
0.0
  0
LINE
  8
DETAIL
  6
CONTINUOUS
 62
     5
 10
273.98639735557191
 20
-287.87337771342942
 30
0.0
 11
274.14947430121867
 21
-287.78410480088758
 31
0.0
  0
LINE
  8
DETAIL
  6
CONTINUOUS
 62
     5
 10
274.14947430121867
 20
-287.78410480088758
 30
0.0
 11
274.3103006059352
 21
-287.69237964969881
 31
0.0
  0
LINE
  8
DETAIL
  6
CONTINUOUS
 62
     5
 10
274.3103006059352
 20
-287.69237964969881
 30
0.0
 11
274.3103006059352
 21
-287.69237964969881
 31
0.0
  0
LINE
  8
DETAIL
  6
CONTINUOUS
 62
     5
 10
274.3103006059352
 20
-287.69237964969881
 30
0.0
 11
274.46976121987183
 21
-287.59783377176677
 31
0.0
  0
LINE
  8
DETAIL
  6
CONTINUOUS
 62
     5
 10
274.46976121987183
 20
-287.59783377176677
 30
0.0
 11
274.62788225178309
 21
-287.50046487206532
 31
0.0
  0
LINE
  8
DETAIL
  6
CONTINUOUS
 62
     5
 10
274.62788225178309
 20
-287.50046487206532
 30
0.0
 11
274.62788225178309
 21
-287.50046487206532
 31
0.0
  0
LINE
  8
DETAIL
  6
CONTINUOUS
 62
     5
 10
274.62788225178309
 20
-287.50046487206532
 30
0.0
 11
274.78442472967498
 21
-287.40041886656121
 31
0.0
  0
LINE
  8
DETAIL
  6
CONTINUOUS
 62
     5
 10
274.78442472967498
 20
-287.40041886656121
 30
0.0
 11
274.93894819995347
 21
-287.29806832212108
 31
0.0
  0
LINE
  8
DETAIL
  6
CONTINUOUS
 62
     5
 10
274.93894819995347
 20
-287.29806832212108
 30
0.0
 11
274.93894819995347
 21
-287.29806832212108
 31
0.0
  0
LINE
  8
DETAIL
  6
CONTINUOUS
 62
     5
 10
274.93894819995347
 20
-287.29806832212108
 30
0.0
 11
275.09137803057462
 21
-287.19352426916993
 31
0.0
  0
LINE
  8
DETAIL
  6
CONTINUOUS
 62
     5
 10
275.09137803057462
 20
-287.19352426916993
 30
0.0
 11
275.24330435728473
 21
-287.08562494145832
 31
0.0
  0
LINE
  8
DETAIL
  6
CONTINUOUS
 62
     5
 10
275.24330435728473
 20
-287.08562494145832
 30
0.0
 11
275.24330435728473
 21
-287.08562494145832
 31
0.0
  0
LINE
  8
DETAIL
  6
CONTINUOUS
 62
     5
 10
275.24330435728473
 20
-287.08562494145832
 30
0.0
 11
275.39604363278539
 21
-286.97338955839882
 31
0.0
  0
LINE
  8
DETAIL
  6
CONTINUOUS
 62
     5
 10
275.39604363278539
 20
-286.97338955839882
 30
0.0
 11
275.54815280980472
 21
-286.85783407872702
 31
0.0
  0
LINE
  8
DETAIL
  6
CONTINUOUS
 62
     5
 10
275.54815280980472
 20
-286.85783407872702
 30
0.0
 11
275.54815280980472
 21
-286.85783407872702
 31
0.0
  0
LINE
  8
DETAIL
  6
CONTINUOUS
 62
     5
 10
275.54815280980472
 20
-286.85783407872702
 30
0.0
 11
275.69793815447662
 21
-286.74015928747622
 31
0.0
  0
LINE
  8
DETAIL
  6
CONTINUOUS
 62
     5
 10
275.69793815447662
 20
-286.74015928747622
 30
0.0
 11
275.84546268652781
 21
-286.62030853555962
 31
0.0
  0
LINE
  8
DETAIL
  6
CONTINUOUS
 62
     5
 10
275.84546268652781
 20
-286.62030853555962
 30
0.0
 11
275.84546268652781
 21
-286.62030853555962
 31
0.0
  0
LINE
  8
DETAIL
  6
CONTINUOUS
 62
     5
 10
275.84546268652781
 20
-286.62030853555962
 30
0.0
 11
275.99113032103583
 21
-286.49801346218078
 31
0.0
  0
LINE
  8
DETAIL
  6
CONTINUOUS
 62
     5
 10
275.99113032103583
 20
-286.49801346218078
 30
0.0
 11
276.13495180088438
 21
-286.37341629383502
 31
0.0
  0
LINE
  8
DETAIL
  6
CONTINUOUS
 62
     5
 10
276.13495180088438
 20
-286.37341629383502
 30
0.0
 11
276.13495180088438
 21
-286.37341629383502
 31
0.0
  0
LINE
  8
DETAIL
  6
CONTINUOUS
 62
     5
 10
276.13495180088438
 20
-286.37341629383502
 30
0.0
 11
276.27679355970372
 21
-286.24666567508001
 31
0.0
  0
LINE
  8
DETAIL
  6
CONTINUOUS
 62
     5
 10
276.27679355970372
 20
-286.24666567508001
 30
0.0
 11
276.41633796630703
 21
-286.11752533543142
 31
0.0
  0
LINE
  8
DETAIL
  6
CONTINUOUS
 62
     5
 10
276.41633796630703
 20
-286.11752533543142
 30
0.0
 11
276.41633796630703
 21
-286.11752533543142
 31
0.0
  0
LINE
  8
DETAIL
  6
CONTINUOUS
 62
     5
 10
276.41633796630703
 20
-286.11752533543142
 30
0.0
 11
276.55350373116852
 21
-285.98594504386358
 31
0.0
  0
LINE
  8
DETAIL
  6
CONTINUOUS
 62
     5
 10
276.55350373116852
 20
-285.98594504386358
 30
0.0
 11
276.68933899622681
 21
-285.85300364222678
 31
0.0
  0
LINE
  8
DETAIL
  6
CONTINUOUS
 62
     5
 10
264.87822905435007
 20
-258.49635667880722
 30
0.0
 11
265.04648031438671
 21
-258.45731350389912
 31
0.0
  0
LINE
  8
DETAIL
  6
CONTINUOUS
 62
     5
 10
265.04648031438671
 20
-258.45731350389912
 30
0.0
 11
265.21515831524079
 21
-258.42006607927141
 31
0.0
  0
LINE
  8
DETAIL
  6
CONTINUOUS
 62
     5
 10
265.21515831524079
 20
-258.42006607927141
 30
0.0
 11
265.21515831524079
 21
-258.42006607927141
 31
0.0
  0
LINE
  8
DETAIL
  6
CONTINUOUS
 62
     5
 10
265.21515831524079
 20
-258.42006607927141
 30
0.0
 11
265.38455852312143
 21
-258.38604564559893
 31
0.0
  0
LINE
  8
DETAIL
  6
CONTINUOUS
 62
     5
 10
265.38455852312143
 20
-258.38604564559893
 30
0.0
 11
265.55445130579511
 21
-258.35522540513273
 31
0.0
  0
LINE
  8
DETAIL
  6
CONTINUOUS
 62
     5
 10
265.55445130579511
 20
-258.35522540513273
 30
0.0
 11
265.55445130579511
 21
-258.35522540513273
 31
0.0
  0
LINE
  8
DETAIL
  6
CONTINUOUS
 62
     5
 10
265.55445130579511
 20
-258.35522540513273
 30
0.0
 11
265.72466437379802
 21
-258.32730625220182
 31
0.0
  0
LINE
  8
DETAIL
  6
CONTINUOUS
 62
     5
 10
265.72466437379802
 20
-258.32730625220182
 30
0.0
 11
265.89577990718561
 21
-258.30235788787093
 31
0.0
  0
LINE
  8
DETAIL
  6
CONTINUOUS
 62
     5
 10
265.89577990718561
 20
-258.30235788787093
 30
0.0
 11
265.89577990718561
 21
-258.30235788787093
 31
0.0
  0
LINE
  8
DETAIL
  6
CONTINUOUS
 62
     5
 10
265.89577990718561
 20
-258.30235788787093
 30
0.0
 11
266.06794550848338
 21
-258.28053791775972
 31
0.0
  0
LINE
  8
DETAIL
  6
CONTINUOUS
 62
     5
 10
266.06794550848338
 20
-258.28053791775972
 30
0.0
 11
266.23881600058593
 21
-258.26198675896637
 31
0.0
  0
LINE
  8
DETAIL
  6
CONTINUOUS
 62
     5
 10
266.23881600058593
 20
-258.26198675896637
 30
0.0
 11
266.23881600058593
 21
-258.26198675896637
 31
0.0
  0
LINE
  8
DETAIL
  6
CONTINUOUS
 62
     5
 10
266.23881600058593
 20
-258.26198675896637
 30
0.0
 11
266.40772717373312
 21
-258.24676551829663
 31
0.0
  0
LINE
  8
DETAIL
  6
CONTINUOUS
 62
     5
 10
266.40772717373312
 20
-258.24676551829663
 30
0.0
 11
266.58323146716981
 21
-258.23463524989882
 31
0.0
  0
LINE
  8
DETAIL
  6
CONTINUOUS
 62
     5
 10
266.58323146716981
 20
-258.23463524989882
 30
0.0
 11
266.58323146716981
 21
-258.23463524989882
 31
0.0
  0
LINE
  8
DETAIL
  6
CONTINUOUS
 62
     5
 10
266.58323146716981
 20
-258.23463524989882
 30
0.0
 11
266.77254149891343
 21
-258.22550240532712
 31
0.0
  0
LINE
  8
DETAIL
  6
CONTINUOUS
 62
     5
 10
266.77254149891343
 20
-258.22550240532712
 30
0.0
 11
266.96829395306088
 21
-258.22015507841343
 31
0.0
  0
LINE
  8
DETAIL
  6
CONTINUOUS
 62
     5
 10
266.96829395306088
 20
-258.22015507841343
 30
0.0
 11
266.96829395306088
 21
-258.22015507841343
 31
0.0
  0
LINE
  8
DETAIL
  6
CONTINUOUS
 62
     5
 10
266.96829395306088
 20
-258.22015507841343
 30
0.0
 11
267.16180299198112
 21
-258.21941625542843
 31
0.0
  0
LINE
  8
DETAIL
  6
CONTINUOUS
 62
     5
 10
267.16180299198112
 20
-258.21941625542843
 30
0.0
 11
267.35366862504787
 21
-258.22336685011862
 31
0.0
  0
LINE
  8
DETAIL
  6
CONTINUOUS
 62
     5
 10
267.35366862504787
 20
-258.22336685011862
 30
0.0
 11
267.35366862504787
 21
-258.22336685011862
 31
0.0
  0
LINE
  8
DETAIL
  6
CONTINUOUS
 62
     5
 10
267.35366862504787
 20
-258.22336685011862
 30
0.0
 11
267.54608804997662
 21
-258.23192927821782
 31
0.0
  0
LINE
  8
DETAIL
  6
CONTINUOUS
 62
     5
 10
267.54608804997662
 20
-258.23192927821782
 30
0.0
 11
267.73836137084152
 21
-258.24513403592829
 31
0.0
  0
LINE
  8
DETAIL
  6
CONTINUOUS
 62
     5
 10
267.73836137084152
 20
-258.24513403592829
 30
0.0
 11
267.73836137084152
 21
-258.24513403592829
 31
0.0
  0
LINE
  8
DETAIL
  6
CONTINUOUS
 62
     5
 10
267.73836137084152
 20
-258.24513403592829
 30
0.0
 11
267.92964005019547
 21
-258.26311607723142
 31
0.0
  0
LINE
  8
DETAIL
  6
CONTINUOUS
 62
     5
 10
267.92964005019547
 20
-258.26311607723142
 30
0.0
 11
268.12137807815333
 21
-258.28632010675722
 31
0.0
  0
LINE
  8
DETAIL
  6
CONTINUOUS
 62
     5
 10
268.12137807815333
 20
-258.28632010675722
 30
0.0
 11
268.12137807815333
 21
-258.28632010675722
 31
0.0
  0
LINE
  8
DETAIL
  6
CONTINUOUS
 62
     5
 10
268.12137807815333
 20
-258.28632010675722
 30
0.0
 11
268.3140268225672
 21
-258.31493149603261
 31
0.0
  0
LINE
  8
DETAIL
  6
CONTINUOUS
 62
     5
 10
268.3140268225672
 20
-258.31493149603261
 30
0.0
 11
268.50172463469443
 21
-258.34778853351997
 31
0.0
  0
LINE
  8
DETAIL
  6
CONTINUOUS
 62
     5
 10
268.50172463469443
 20
-258.34778853351997
 30
0.0
 11
268.50172463469443
 21
-258.34778853351997
 31
0.0
  0
LINE
  8
DETAIL
  6
CONTINUOUS
 62
     5
 10
268.50172463469443
 20
-258.34778853351997
 30
0.0
 11
268.67946674238658
 21
-258.38384301520023
 31
0.0
  0
LINE
  8
DETAIL
  6
CONTINUOUS
 62
     5
 10
268.67946674238658
 20
-258.38384301520023
 30
0.0
 11
268.85198889647552
 21
-258.42384785018879
 31
0.0
  0
LINE
  8
DETAIL
  6
CONTINUOUS
 62
     5
 10
268.85198889647552
 20
-258.42384785018879
 30
0.0
 11
268.85198889647552
 21
-258.42384785018879
 31
0.0
  0
LINE
  8
DETAIL
  6
CONTINUOUS
 62
     5
 10
268.85198889647552
 20
-258.42384785018879
 30
0.0
 11
269.02492249630882
 21
-258.46877013564722
 31
0.0
  0
LINE
  8
DETAIL
  6
CONTINUOUS
 62
     5
 10
269.02492249630882
 20
-258.46877013564722
 30
0.0
 11
269.19774101232969
 21
-258.51863260778572
 31
0.0
  0
LINE
  8
DETAIL
  6
CONTINUOUS
 62
     5
 10
269.19774101232969
 20
-258.51863260778572
 30
0.0
 11
269.19774101232969
 21
-258.51863260778572
 31
0.0
  0
LINE
  8
DETAIL
  6
CONTINUOUS
 62
     5
 10
269.19774101232969
 20
-258.51863260778572
 30
0.0
 11
269.36873687083943
 21
-258.57325503173951
 31
0.0
  0
LINE
  8
DETAIL
  6
CONTINUOUS
 62
     5
 10
269.36873687083943
 20
-258.57325503173951
 30
0.0
 11
269.53763625048413
 21
-258.63258964929003
 31
0.0
  0
LINE
  8
DETAIL
  6
CONTINUOUS
 62
     5
 10
269.53763625048413
 20
-258.63258964929003
 30
0.0
 11
269.53763625048413
 21
-258.63258964929003
 31
0.0
  0
LINE
  8
DETAIL
  6
CONTINUOUS
 62
     5
 10
269.53763625048413
 20
-258.63258964929003
 30
0.0
 11
269.70462949787782
 21
-258.69672543497171
 31
0.0
  0
LINE
  8
DETAIL
  6
CONTINUOUS
 62
     5
 10
269.70462949787782
 20
-258.69672543497171
 30
0.0
 11
269.87032987916399
 21
-258.76616581767962
 31
0.0
  0
LINE
  8
DETAIL
  6
CONTINUOUS
 62
     5
 10
269.87032987916399
 20
-258.76616581767962
 30
0.0
 11
269.87032987916399
 21
-258.76616581767962
 31
0.0
  0
LINE
  8
DETAIL
  6
CONTINUOUS
 62
     5
 10
269.87032987916399
 20
-258.76616581767962
 30
0.0
 11
270.03467503275368
 21
-258.84107026637622
 31
0.0
  0
LINE
  8
DETAIL
  6
CONTINUOUS
 62
     5
 10
270.03467503275368
 20
-258.84107026637622
 30
0.0
 11
270.19447716659619
 21
-258.91980795593321
 31
0.0
  0
LINE
  8
DETAIL
  6
CONTINUOUS
 62
     5
 10
270.19447716659619
 20
-258.91980795593321
 30
0.0
 11
270.19447716659619
 21
-258.91980795593321
 31
0.0
  0
LINE
  8
DETAIL
  6
CONTINUOUS
 62
     5
 10
270.19447716659619
 20
-258.91980795593321
 30
0.0
 11
270.34706015320012
 21
-259.00094009202991
 31
0.0
  0
LINE
  8
DETAIL
  6
CONTINUOUS
 62
     5
 10
270.34706015320012
 20
-259.00094009202991
 30
0.0
 11
270.49491995376877
 21
-259.08558629766412
 31
0.0
  0
LINE
  8
DETAIL
  6
CONTINUOUS
 62
     5
 10
270.49491995376877
 20
-259.08558629766412
 30
0.0
 11
270.49491995376877
 21
-259.08558629766412
 31
0.0
  0
LINE
  8
DETAIL
  6
CONTINUOUS
 62
     5
 10
270.49491995376877
 20
-259.08558629766412
 30
0.0
 11
270.64099775266442
 21
-259.17512278726042
 31
0.0
  0
LINE
  8
DETAIL
  6
CONTINUOUS
 62
     5
 10
270.64099775266442
 20
-259.17512278726042
 30
0.0
 11
270.78484353818038
 21
-259.26939372362801
 31
0.0
  0
LINE
  8
DETAIL
  6
CONTINUOUS
 62
     5
 10
270.78484353818038
 20
-259.26939372362801
 30
0.0
 11
270.78484353818038
 21
-259.26939372362801
 31
0.0
  0
LINE
  8
DETAIL
  6
CONTINUOUS
 62
     5
 10
270.78484353818038
 20
-259.26939372362801
 30
0.0
 11
270.92542336513418
 21
-259.36792883845152
 31
0.0
  0
LINE
  8
DETAIL
  6
CONTINUOUS
 62
     5
 10
270.92542336513418
 20
-259.36792883845152
 30
0.0
 11
271.06275875050397
 21
-259.47053219053629
 31
0.0
  0
LINE
  8
DETAIL
  6
CONTINUOUS
 62
     5
 10
271.06275875050397
 20
-259.47053219053629
 30
0.0
 11
271.06275875050397
 21
-259.47053219053629
 31
0.0
  0
LINE
  8
DETAIL
  6
CONTINUOUS
 62
     5
 10
271.06275875050397
 20
-259.47053219053629
 30
0.0
 11
271.19692741366532
 21
-259.57718510625068
 31
0.0
  0
LINE
  8
DETAIL
  6
CONTINUOUS
 62
     5
 10
271.19692741366532
 20
-259.57718510625068
 30
0.0
 11
271.32717642141313
 21
-259.68830365510121
 31
0.0
  0
LINE
  8
DETAIL
  6
CONTINUOUS
 62
     5
 10
271.32717642141313
 20
-259.68830365510121
 30
0.0
 11
271.32717642141313
 21
-259.68830365510121
 31
0.0
  0
LINE
  8
DETAIL
  6
CONTINUOUS
 62
     5
 10
271.32717642141313
 20
-259.68830365510121
 30
0.0
 11
271.45311196443782
 21
-259.80390926746122
 31
0.0
  0
LINE
  8
DETAIL
  6
CONTINUOUS
 62
     5
 10
271.45311196443782
 20
-259.80390926746122
 30
0.0
 11
271.57660738158103
 21
-259.92201007403457
 31
0.0
  0
LINE
  8
DETAIL
  6
CONTINUOUS
 62
     5
 10
252.88265787191199
 20
-278.61595958281509
 30
0.0
 11
252.7645570653485
 21
-278.49246416552398
 31
0.0
  0
LINE
  8
DETAIL
  6
CONTINUOUS
 62
     5
 10
252.7645570653485
 20
-278.49246416552398
 30
0.0
 11
252.6489514529724
 21
-278.36652862268443
 31
0.0
  0
LINE
  8
DETAIL
  6
CONTINUOUS
 62
     5
 10
252.6489514529724
 20
-278.36652862268443
 30
0.0
 11
252.6489514529724
 21
-278.36652862268443
 31
0.0
  0
LINE
  8
DETAIL
  6
CONTINUOUS
 62
     5
 10
252.6489514529724
 20
-278.36652862268443
 30
0.0
 11
252.53783290407981
 21
-278.23627961545998
 31
0.0
  0
LINE
  8
DETAIL
  6
CONTINUOUS
 62
     5
 10
252.53783290407981
 20
-278.23627961545998
 30
0.0
 11
252.43117998839719
 21
-278.10211095186702
 31
0.0
  0
LINE
  8
DETAIL
  6
CONTINUOUS
 62
     5
 10
252.43117998839719
 20
-278.10211095186702
 30
0.0
 11
252.43117998839719
 21
-278.10211095186702
 31
0.0
  0
LINE
  8
DETAIL
  6
CONTINUOUS
 62
     5
 10
252.43117998839719
 20
-278.10211095186702
 30
0.0
 11
252.328576636446
 21
-277.96477556478033
 31
0.0
  0
LINE
  8
DETAIL
  6
CONTINUOUS
 62
     5
 10
252.328576636446
 20
-277.96477556478033
 30
0.0
 11
252.23004152148471
 21
-277.82419573966098
 31
0.0
  0
LINE
  8
DETAIL
  6
CONTINUOUS
 62
     5
 10
252.23004152148471
 20
-277.82419573966098
 30
0.0
 11
252.23004152148471
 21
-277.82419573966098
 31
0.0
  0
LINE
  8
DETAIL
  6
CONTINUOUS
 62
     5
 10
252.23004152148471
 20
-277.82419573966098
 30
0.0
 11
252.13577058461121
 21
-277.68034996081792
 31
0.0
  0
LINE
  8
DETAIL
  6
CONTINUOUS
 62
     5
 10
252.13577058461121
 20
-277.68034996081792
 30
0.0
 11
252.04623409553409
 21
-277.53427215536487
 31
0.0
  0
LINE
  8
DETAIL
  6
CONTINUOUS
 62
     5
 10
252.04623409553409
 20
-277.53427215536487
 30
0.0
 11
252.04623409553409
 21
-277.53427215536487
 31
0.0
  0
LINE
  8
DETAIL
  6
CONTINUOUS
 62
     5
 10
252.04623409553409
 20
-277.53427215536487
 30
0.0
 11
251.96158789181911
 21
-277.38641233016642
 31
0.0
  0
LINE
  8
DETAIL
  6
CONTINUOUS
 62
     5
 10
251.96158789181911
 20
-277.38641233016642
 30
0.0
 11
251.88045575384351
 21
-277.23382936827682
 31
0.0
  0
LINE
  8
DETAIL
  6
CONTINUOUS
 62
     5
 10
251.88045575384351
 20
-277.23382936827682
 30
0.0
 11
251.88045575384351
 21
-277.23382936827682
 31
0.0
  0
LINE
  8
DETAIL
  6
CONTINUOUS
 62
     5
 10
251.88045575384351
 20
-277.23382936827682
 30
0.0
 11
251.8017180572235
 21
-277.07402732656902
 31
0.0
  0
LINE
  8
DETAIL
  6
CONTINUOUS
 62
     5
 10
251.8017180572235
 20
-277.07402732656902
 30
0.0
 11
251.72681361571929
 21
-276.90968208099468
 31
0.0
  0
LINE
  8
DETAIL
  6
CONTINUOUS
 62
     5
 10
251.72681361571929
 20
-276.90968208099468
 30
0.0
 11
251.72681361571929
 21
-276.90968208099468
 31
0.0
  0
LINE
  8
DETAIL
  6
CONTINUOUS
 62
     5
 10
251.72681361571929
 20
-276.90968208099468
 30
0.0
 11
251.657373259656
 21
-276.74398135618679
 31
0.0
  0
LINE
  8
DETAIL
  6
CONTINUOUS
 62
     5
 10
251.657373259656
 20
-276.74398135618679
 30
0.0
 11
251.59323744746709
 21
-276.57698845241782
 31
0.0
  0
LINE
  8
DETAIL
  6
CONTINUOUS
 62
     5
 10
251.59323744746709
 20
-276.57698845241782
 30
0.0
 11
251.59323744746709
 21
-276.57698845241782
 31
0.0
  0
LINE
  8
DETAIL
  6
CONTINUOUS
 62
     5
 10
251.59323744746709
 20
-276.57698845241782
 30
0.0
 11
251.53390273080481
 21
-276.40809035507192
 31
0.0
  0
LINE
  8
DETAIL
  6
CONTINUOUS
 62
     5
 10
251.53390273080481
 20
-276.40809035507192
 30
0.0
 11
251.47928040608801
 21
-276.23709321433171
 31
0.0
  0
LINE
  8
DETAIL
  6
CONTINUOUS
 62
     5
 10
251.47928040608801
 20
-276.23709321433171
 30
0.0
 11
251.47928040608801
 21
-276.23709321433171
 31
0.0
  0
LINE
  8
DETAIL
  6
CONTINUOUS
 62
     5
 10
251.47928040608801
 20
-276.23709321433171
 30
0.0
 11
251.4294183041327
 21
-276.06426991287037
 31
0.0
  0
LINE
  8
DETAIL
  6
CONTINUOUS
 62
     5
 10
251.4294183041327
 20
-276.06426991287037
 30
0.0
 11
251.38449564858581
 21
-275.89134109852102
 31
0.0
  0
LINE
  8
DETAIL
  6
CONTINUOUS
 62
     5
 10
251.38449564858581
 20
-275.89134109852102
 30
0.0
 11
251.38449564858581
 21
-275.89134109852102
 31
0.0
  0
LINE
  8
DETAIL
  6
CONTINUOUS
 62
     5
 10
251.38449564858581
 20
-275.89134109852102
 30
0.0
 11
251.34448943227989
 21
-275.71883680404642
 31
0.0
  0
LINE
  8
DETAIL
  6
CONTINUOUS
 62
     5
 10
251.34448943227989
 20
-275.71883680404642
 30
0.0
 11
251.30843633196159
 21
-275.54107683677142
 31
0.0
  0
LINE
  8
DETAIL
  6
CONTINUOUS
 62
     5
 10
251.30843633196159
 20
-275.54107683677142
 30
0.0
 11
251.30843633196159
 21
-275.54107683677142
 31
0.0
  0
LINE
  8
DETAIL
  6
CONTINUOUS
 62
     5
 10
251.30843633196159
 20
-275.54107683677142
 30
0.0
 11
251.275584449728
 21
-275.35331237173551
 31
0.0
  0
LINE
  8
DETAIL
  6
CONTINUOUS
 62
     5
 10
251.275584449728
 20
-275.35331237173551
 30
0.0
 11
251.24696790517939
 21
-275.16073028028001
 31
0.0
  0
LINE
  8
DETAIL
  6
CONTINUOUS
 62
     5
 10
251.24696790517939
 20
-275.16073028028001
 30
0.0
 11
251.24696790517939
 21
-275.16073028028001
 31
0.0
  0
LINE
  8
DETAIL
  6
CONTINUOUS
 62
     5
 10
251.24696790517939
 20
-275.16073028028001
 30
0.0
 11
251.22374463594431
 21
-274.96924100447501
 31
0.0
  0
LINE
  8
DETAIL
  6
CONTINUOUS
 62
     5
 10
251.22374463594431
 20
-274.96924100447501
 30
0.0
 11
251.20578183427031
 21
-274.77771357300111
 31
0.0
  0
LINE
  8
DETAIL
  6
CONTINUOUS
 62
     5
 10
251.20578183427031
 20
-274.77771357300111
 30
0.0
 11
251.20578183427031
 21
-274.77771357300111
 31
0.0
  0
LINE
  8
DETAIL
  6
CONTINUOUS
 62
     5
 10
251.20578183427031
 20
-274.77771357300111
 30
0.0
 11
251.19264887995021
 21
-274.58451189654591
 31
0.0
  0
LINE
  8
DETAIL
  6
CONTINUOUS
 62
     5
 10
251.19264887995021
 20
-274.58451189654591
 30
0.0
 11
251.18401464834051
 21
-274.39302082720582
 31
0.0
  0
LINE
  8
DETAIL
  6
CONTINUOUS
 62
     5
 10
251.18401464834051
 20
-274.39302082720582
 30
0.0
 11
251.18401464834051
 21
-274.39302082720582
 31
0.0
  0
LINE
  8
DETAIL
  6
CONTINUOUS
 62
     5
 10
251.18401464834051
 20
-274.39302082720582
 30
0.0
 11
251.1797960794714
 21
-274.20461986436732
 31
0.0
  0
LINE
  8
DETAIL
  6
CONTINUOUS
 62
     5
 10
251.1797960794714
 20
-274.20461986436732
 30
0.0
 11
251.18080287649789
 21
-274.00764615516562
 31
0.0
  0
LINE
  8
DETAIL
  6
CONTINUOUS
 62
     5
 10
251.18080287649789
 20
-274.00764615516562
 30
0.0
 11
251.18080287649789
 21
-274.00764615516562
 31
0.0
  0
LINE
  8
DETAIL
  6
CONTINUOUS
 62
     5
 10
251.18080287649789
 20
-274.00764615516562
 30
0.0
 11
251.18715029634021
 21
-273.79896337557233
 31
0.0
  0
LINE
  8
DETAIL
  6
CONTINUOUS
 62
     5
 10
251.18715029634021
 20
-273.79896337557233
 30
0.0
 11
251.19528304784791
 21
-273.62258366915222
 31
0.0
  0
LINE
  8
DETAIL
  6
CONTINUOUS
 62
     5
 10
251.19528304784791
 20
-273.62258366915222
 30
0.0
 11
251.19528304784791
 21
-273.62258366915222
 31
0.0
  0
LINE
  8
DETAIL
  6
CONTINUOUS
 62
     5
 10
251.19528304784791
 20
-273.62258366915222
 30
0.0
 11
251.20185487380721
 21
-273.51570600060228
 31
0.0
  0
LINE
  8
DETAIL
  6
CONTINUOUS
 62
     5
 10
251.20185487380721
 20
-273.51570600060228
 30
0.0
 11
251.20802620081639
 21
-273.44112815155182
 31
0.0
  0
LINE
  8
DETAIL
  6
CONTINUOUS
 62
     5
 10
251.20802620081639
 20
-273.44112815155182
 30
0.0
 11
251.20802620081639
 21
-273.44112815155182
 31
0.0
  0
LINE
  8
DETAIL
  6
CONTINUOUS
 62
     5
 10
251.20802620081639
 20
-273.44112815155182
 30
0.0
 11
251.21560038930971
 21
-273.35484135187642
 31
0.0
  0
LINE
  8
DETAIL
  6
CONTINUOUS
 62
     5
 10
251.21560038930971
 20
-273.35484135187642
 30
0.0
 11
251.22444585123901
 21
-273.26001180750882
 31
0.0
  0
LINE
  8
DETAIL
  6
CONTINUOUS
 62
     5
 10
251.22444585123901
 20
-273.26001180750882
 30
0.0
 11
251.22444585123901
 21
-273.26001180750882
 31
0.0
  0
LINE
  8
DETAIL
  6
CONTINUOUS
 62
     5
 10
251.22444585123901
 20
-273.26001180750882
 30
0.0
 11
251.2340693088843
 21
-273.16843924538438
 31
0.0
  0
LINE
  8
DETAIL
  6
CONTINUOUS
 62
     5
 10
251.2340693088843
 20
-273.16843924538438
 30
0.0
 11
251.2444656743121
 21
-273.07928250039743
 31
0.0
  0
LINE
  8
DETAIL
  6
CONTINUOUS
 62
     5
 10
251.2444656743121
 20
-273.07928250039743
 30
0.0
 11
251.2444656743121
 21
-273.07928250039743
 31
0.0
  0
LINE
  8
DETAIL
  6
CONTINUOUS
 62
     5
 10
251.2444656743121
 20
-273.07928250039743
 30
0.0
 11
251.2557474543689
 21
-272.98938733245882
 31
0.0
  0
LINE
  8
DETAIL
  6
CONTINUOUS
 62
     5
 10
251.2557474543689
 20
-272.98938733245882
 30
0.0
 11
251.2680093452324
 21
-272.89898809359312
 31
0.0
  0
LINE
  8
DETAIL
  6
CONTINUOUS
 62
     5
 10
251.2680093452324
 20
-272.89898809359312
 30
0.0
 11
251.2680093452324
 21
-272.89898809359312
 31
0.0
  0
LINE
  8
DETAIL
  6
CONTINUOUS
 62
     5
 10
251.2680093452324
 20
-272.89898809359312
 30
0.0
 11
251.28123735363511
 21
-272.8089379147504
 31
0.0
  0
LINE
  8
DETAIL
  6
CONTINUOUS
 62
     5
 10
251.28123735363511
 20
-272.8089379147504
 30
0.0
 11
251.35737622763
 21
-272.31237141944803
 31
0.0
  0
ARC
  8
DETAIL
  6
CONTINUOUS
 62
     5
 10
312.34267506701758
 20
322.97901790968763
 30
0.0
 40
9.7295020839324877
 50
194.59799069399881
 51
224.43825277060739
  0
ARC
  8
DETAIL
  6
CONTINUOUS
 62
     5
 10
322.97901791057677
 20
312.34267506701701
 30
0.0
 40
9.7295020839326227
 50
225.56174722610851
 51
255.40200930260451
  0
ARC
  8
DETAIL
  6
CONTINUOUS
 62
     5
 10
338.81174116944288
 20
319.18611867298972
 30
0.0
 40
10.01410489817715
 50
0.0
 51
45.00000000000928
  0
ARC
  8
DETAIL
  6
CONTINUOUS
 62
     5
 10
319.18611867299012
 20
338.81174116944248
 30
0.0
 40
10.014104898177081
 50
45.00000000000928
 51
90.0
  0
ARC
  8
DETAIL
  6
CONTINUOUS
 62
     5
 10
311.13529212089293
 20
322.29540929986518
 30
0.0
 40
16.386270103210869
 50
194.00062669939871
 51
225.0356167521046
  0
ARC
  8
DETAIL
  6
CONTINUOUS
 62
     5
 10
322.2954093034204
 20
311.13529211822629
 30
0.0
 40
16.38627010321073
 50
224.96438323140441
 51
255.99937328410269
  0
ARC
  8
DETAIL
  6
CONTINUOUS
 62
     5
 10
314.94359903775847
 20
314.94359903775808
 30
0.0
 40
37.052188122455163
 50
0.0
 51
90.0
  0
ARC
  8
DETAIL
  6
CONTINUOUS
 62
     5
 10
314.94359903775847
 20
314.94359903775808
 30
0.0
 40
40.056419591819363
 50
0.0
 51
90.0
  0
CIRCLE
  8
DETAIL
  6
CONTINUOUS
 62
     5
 10
306.33959718297763
 20
275.18301466745419
 30
0.0
 40
2.5035262247664609
  0
CIRCLE
  8
DETAIL
  6
CONTINUOUS
 62
     5
 10
306.33959718297763
 20
275.18301466745419
 30
0.0
 40
3.504936713962024
  0
CIRCLE
  8
DETAIL
  6
CONTINUOUS
 62
     5
 10
306.33959718297763
 20
275.18301466745419
 30
0.0
 40
5.0070524486441164
  0
ARC
  8
DETAIL
  6
CONTINUOUS
 62
     5
 10
300.57411717344257
 20
268.20262001106352
 30
0.0
 40
10.014104898177081
 50
225.00000000000929
 51
270.0
  0
ARC
  8
DETAIL
  6
CONTINUOUS
 62
     5
 10
336.97462981339248
 20
272.90773198567052
 30
0.0
 40
15.02115734682115
 50
0.0
 51
88.050366989401709
  0
ARC
  8
DETAIL
  6
CONTINUOUS
 62
     5
 10
305.43019938506791
 20
266.17895439127341
 30
0.0
 40
20.02820979546523
 50
225.00000000000929
 51
270.0
  0
ARC
  8
DETAIL
  6
CONTINUOUS
 62
     5
 10
272.90773198567081
 20
336.97462981339243
 30
0.0
 40
15.0211573468212
 50
1.9496347187989691
 51
90.0
  0
ARC
  8
DETAIL
  6
CONTINUOUS
 62
     5
 10
266.17895439127358
 20
305.43019938506768
 30
0.0
 40
20.028209795465159
 50
180.0
 51
225.00000000000929
  0
ARC
  8
DETAIL
  6
CONTINUOUS
 62
     5
 10
216.10842990216611
 20
311.93936756839389
 30
0.0
 40
30.042314693642311
 50
0.0
 51
90.0
  0
ARC
  8
DETAIL
  6
CONTINUOUS
 62
     5
 10
268.20262001106391
 20
300.57411717344218
 30
0.0
 40
10.01410489817704
 50
180.0
 51
225.00000000000929
  0
ARC
  8
DETAIL
  6
CONTINUOUS
 62
     5
 10
311.93936756839452
 20
216.10842990216571
 30
0.0
 40
30.042314693642311
 50
0.0
 51
90.0
  0
ARC
  8
DETAIL
  6
CONTINUOUS
 62
     5
 10
174.74613046772359
 20
-141.69958430560581
 30
0.0
 40
195.27504550867539
 50
259.38489214930252
 51
280.61510785069748
  0
ARC
  8
DETAIL
  6
CONTINUOUS
 62
     5
 10
61.573091411679798
 20
85.712571387762296
 30
0.0
 40
1.001410490084133
 50
45.00000000000928
 51
132.35393901230569
  0
ARC
  8
DETAIL
  6
CONTINUOUS
 62
     5
 10
85.712571387762409
 20
61.573091411679343
 30
0.0
 40
1.001410490084254
 50
317.64606098769309
 51
44.999999999990862
  0
ARC
  8
DETAIL
  6
CONTINUOUS
 62
     5
 10
46.425707578601987
 20
87.314056915284141
 30
0.0
 40
1.2517631119386721
 50
335.22546826799999
 51
148.77453173201141
  0
ARC
  8
DETAIL
  6
CONTINUOUS
 62
     5
 10
33.822127724710533
 20
92.925532203364696
 30
0.0
 40
1.2517631119389461
 50
343.22546826799368
 51
156.77453173200459
  0
ARC
  8
DETAIL
  6
CONTINUOUS
 62
     5
 10
87.314056915284482
 20
46.425707578601987
 30
0.0
 40
1.2517631119387791
 50
301.22546826800419
 51
114.774531732011
  0
ARC
  8
DETAIL
  6
CONTINUOUS
 62
     5
 10
33.603635538437629
 20
80.92378535028547
 30
0.0
 40
2.0028209792797642
 50
163.2254682679937
 51
247.4493112564013
  0
ARC
  8
DETAIL
  6
CONTINUOUS
 62
     5
 10
37.65287131677951
 20
79.12094942750241
 30
0.0
 40
2.0028209792797949
 50
244.55068874360541
 51
328.77453173200882
  0
ARC
  8
DETAIL
  6
CONTINUOUS
 62
     5
 10
44.53902141610547
 20
75.459518472572313
 30
0.0
 40
2.002820979279917
 50
155.22546826800041
 51
239.44931125639161
  0
ARC
  8
DETAIL
  6
CONTINUOUS
 62
     5
 10
75.459518472572881
 20
44.539021416105243
 30
0.0
 40
2.0028209792800329
 50
210.55068874359759
 51
294.77453173199638
  0
ARC
  8
DETAIL
  6
CONTINUOUS
 62
     5
 10
79.12094942750241
 20
37.652871316779283
 30
0.0
 40
2.002820979279984
 50
121.2254682680047
 51
205.44931125639889
  0
ARC
  8
DETAIL
  6
CONTINUOUS
 62
     5
 10
74.980158862302233
 20
45.341362283462672
 30
0.0
 40
2.0028209792797949
 50
137.6460609876932
 51
211.16183482399919
  0
ARC
  8
DETAIL
  6
CONTINUOUS
 62
     5
 10
45.341362283463013
 20
74.980158862301778
 30
0.0
 40
2.0028209792798761
 50
238.83816517599911
 51
312.35393901230572
  0
CIRCLE
  8
DETAIL
  6
CONTINUOUS
 62
     5
 10
60.184867918538657
 20
74.322122259191701
 30
0.0
 40
5.0070524486441164
  0
ARC
  8
DETAIL
  6
CONTINUOUS
 62
     5
 10
96.728317708097393
 20
-20.560238628369461
 30
0.0
 40
1.2517631119388879
 50
261.22546826799987
 51
74.774531731996376
  0
ARC
  8
DETAIL
  6
CONTINUOUS
 62
     5
 10
98.648396536220389
 20
-6.898167873143052
 30
0.0
 40
1.2517631119387891
 50
269.22546826799669
 51
82.774531731995182
  0
ARC
  8
DETAIL
  6
CONTINUOUS
 62
     5
 10
98.648396536220389
 20
6.8981678731431657
 30
0.0
 40
1.2517631119388399
 50
277.22546826800482
 51
90.774531732003339
  0
ARC
  8
DETAIL
  6
CONTINUOUS
 62
     5
 10
96.728317708097393
 20
20.560238628369579
 30
0.0
 40
1.251763111938796
 50
285.22546826800351
 51
98.774531732000113
  0
ARC
  8
DETAIL
  6
CONTINUOUS
 62
     5
 10
92.925532203365265
 20
33.822127724710072
 30
0.0
 40
1.251763111938814
 50
293.22546826799447
 51
106.7745317319993
  0
ARC
  8
DETAIL
  6
CONTINUOUS
 62
     5
 10
80.92378535028547
 20
33.603635538437572
 30
0.0
 40
2.0028209792799769
 50
202.5506887435979
 51
286.77453173199922
  0
ARC
  8
DETAIL
  6
CONTINUOUS
 62
     5
 10
83.591216647987238
 20
26.27492827851961
 30
0.0
 40
2.0028209792798908
 50
113.2254682679945
 51
197.4493112564025
  0
ARC
  8
DETAIL
  6
CONTINUOUS
 62
     5
 10
84.812962795435169
 20
22.01419311861758
 30
0.0
 40
2.0028209792795799
 50
194.55068874359989
 51
278.77453173200013
  0
ARC
  8
DETAIL
  6
CONTINUOUS
 62
     5
 10
86.434475920055775
 20
14.385573648875379
 30
0.0
 40
2.002820979279889
 50
105.2254682680036
 51
189.44931125639789
  0
ARC
  8
DETAIL
  6
CONTINUOUS
 62
     5
 10
87.051352393077195
 20
9.9962694710053484
 30
0.0
 40
2.0028209792803731
 50
186.55068874359989
 51
270.77453173199029
  0
ARC
  8
DETAIL
  6
CONTINUOUS
 62
     5
 10
87.59538643624478
 20
2.2162201914911752
 30
0.0
 40
2.002820979279881
 50
97.225468268004818
 51
181.44931125639931
  0
ARC
  8
DETAIL
  6
CONTINUOUS
 62
     5
 10
87.59538643624478
 20
-2.2162201914910611
 30
0.0
 40
2.0028209792798171
 50
178.55068874360069
 51
262.77453173199518
  0
ARC
  8
DETAIL
  6
CONTINUOUS
 62
     5
 10
87.051352393077195
 20
-9.9962694710051778
 30
0.0
 40
2.0028209792798002
 50
89.225468268009692
 51
173.44931125640011
  0
ARC
  8
DETAIL
  6
CONTINUOUS
 62
     5
 10
86.434475920055775
 20
-14.385573649764069
 30
0.0
 40
2.0028209792800009
 50
170.55068874360211
 51
254.7745317319964
  0
ARC
  8
DETAIL
  6
CONTINUOUS
 62
     5
 10
84.812962795435169
 20
-22.014193119506331
 30
0.0
 40
2.0028209792798508
 50
81.225468267999872
 51
165.44931125640011
  0
ARC
  8
DETAIL
  6
CONTINUOUS
 62
     5
 10
83.591216647987238
 20
-26.27492827940824
 30
0.0
 40
2.0028209792797842
 50
162.5506887435975
 51
246.7745317320055
  0
ARC
  8
DETAIL
  6
CONTINUOUS
 62
     5
 10
20.56023862836992
 20
96.728317708097052
 30
0.0
 40
1.2517631119388799
 50
351.22546826799987
 51
164.7745317320022
  0
ARC
  8
DETAIL
  6
CONTINUOUS
 62
     5
 10
6.8981678731431657
 20
98.648396536219821
 30
0.0
 40
1.2517631119387009
 50
359.22546826800311
 51
172.77453173199831
  0
ARC
  8
DETAIL
  6
CONTINUOUS
 62
     5
 10
-6.8981678731424836
 20
98.648396536219821
 30
0.0
 40
1.251763111939038
 50
7.2254682679982727
 51
180.7745317319968
  0
ARC
  8
DETAIL
  6
CONTINUOUS
 62
     5
 10
-20.56023862836923
 20
96.728317708097052
 30
0.0
 40
1.2517631119386039
 50
15.225468268003549
 51
188.7745317320001
  0
ARC
  8
DETAIL
  6
CONTINUOUS
 62
     5
 10
-33.822127725598421
 20
92.925532203364696
 30
0.0
 40
1.2517631119387811
 50
23.22546826800416
 51
196.7745317319995
  0
ARC
  8
DETAIL
  6
CONTINUOUS
 62
     5
 10
-37.652871317667859
 20
79.12094942750241
 30
0.0
 40
2.0028209792795799
 50
211.225468268009
 51
295.44931125639448
  0
ARC
  8
DETAIL
  6
CONTINUOUS
 62
     5
 10
-33.603635539325978
 20
80.92378535028547
 30
0.0
 40
2.002820979279885
 50
292.5506887435987
 51
16.774531731996749
  0
ARC
  8
DETAIL
  6
CONTINUOUS
 62
     5
 10
-26.27492827940841
 20
83.591216647986926
 30
0.0
 40
2.0028209792796532
 50
203.22546826800419
 51
287.44931125639908
  0
ARC
  8
DETAIL
  6
CONTINUOUS
 62
     5
 10
-22.014193119505759
 20
84.812962795434828
 30
0.0
 40
2.002820979279869
 50
284.55068874360268
 51
8.7745317320001313
  0
ARC
  8
DETAIL
  6
CONTINUOUS
 62
     5
 10
-14.38557364976373
 20
86.434475920055206
 30
0.0
 40
2.0028209792797229
 50
195.22546826800021
 51
279.44931125639459
  0
ARC
  8
DETAIL
  6
CONTINUOUS
 62
     5
 10
-9.9962694718940384
 20
87.051352393076854
 30
0.0
 40
2.0028209792799272
 50
276.5506887436033
 51
0.7745317320000874
  0
ARC
  8
DETAIL
  6
CONTINUOUS
 62
     5
 10
-2.21622019149072
 20
87.595386436244667
 30
0.0
 40
2.002820979279909
 50
187.22546826800169
 51
271.44931125640898
  0
ARC
  8
DETAIL
  6
CONTINUOUS
 62
     5
 10
2.2162201914914021
 20
87.595386436244667
 30
0.0
 40
2.0028209792798681
 50
268.55068874360398
 51
352.77453173199842
  0
ARC
  8
DETAIL
  6
CONTINUOUS
 62
     5
 10
9.996269471005462
 20
87.051352393076854
 30
0.0
 40
2.002820979279746
 50
179.2254682679999
 51
263.44931125640983
  0
ARC
  8
DETAIL
  6
CONTINUOUS
 62
     5
 10
14.385573648875379
 20
86.434475920055206
 30
0.0
 40
2.002820979279949
 50
260.55068874360541
 51
344.77453173200217
  0
ARC
  8
DETAIL
  6
CONTINUOUS
 62
     5
 10
22.014193118617872
 20
84.812962795434828
 30
0.0
 40
2.002820979280076
 50
171.2254682680032
 51
255.44931125639729
  0
ARC
  8
DETAIL
  6
CONTINUOUS
 62
     5
 10
26.274928278519841
 20
83.591216647986926
 30
0.0
 40
2.002820979279925
 50
252.55068874360089
 51
336.77453173199581
  0
CIRCLE
  8
DETAIL
  6
CONTINUOUS
 62
     5
 10
0.0
 20
0.0
 30
0.0
 40
41.057830081015027
  0
CIRCLE
  8
DETAIL
  6
CONTINUOUS
 62
     5
 10
0.0
 20
0.0
 30
0.0
 40
85.620596876880654
  0
ARC
  8
DETAIL
  6
CONTINUOUS
 62
     5
 10
0.0
 20
0.0
 30
0.0
 40
352.01180972834612
 50
135.7335279506984
 51
224.2664720493016
  0
ARC
  8
DETAIL
  6
CONTINUOUS
 62
     5
 10
0.0
 20
0.0
 30
0.0
 40
352.01180972834612
 50
225.73352795069951
 51
312.50107469819432
  0
ARC
  8
DETAIL
  6
CONTINUOUS
 62
     5
 10
0.0
 20
0.0
 30
0.0
 40
352.01180972834618
 50
314.0017266479922
 51
314.26647204930038
  0
ARC
  8
DETAIL
  6
CONTINUOUS
 62
     5
 10
0.0
 20
0.0
 30
0.0
 40
352.01180972834641
 50
315.73352795069837
 51
44.266472049301562
  0
ARC
  8
DETAIL
  6
CONTINUOUS
 62
     5
 10
0.0
 20
0.0
 30
0.0
 40
352.01180972834641
 50
45.733527950699447
 51
134.26647204930049
  0
ARC
  8
DETAIL
  6
CONTINUOUS
 62
     5
 10
85.712571387762409
 20
-61.573091412568033
 30
0.0
 40
1.0014104900843139
 50
315.00000000000921
 51
42.353939012306803
  0
ARC
  8
DETAIL
  6
CONTINUOUS
 62
     5
 10
61.573091411679798
 20
-85.712571388651099
 30
0.0
 40
1.0014104900843599
 50
227.64606098769431
 51
314.99999999999068
  0
ARC
  8
DETAIL
  6
CONTINUOUS
 62
     5
 10
87.314056915284482
 20
-46.425707578601823
 30
0.0
 40
1.251763111938935
 50
245.22546826798899
 51
58.774531731995353
  0
ARC
  8
DETAIL
  6
CONTINUOUS
 62
     5
 10
92.925532203365265
 20
-33.822127725598882
 30
0.0
 40
1.2517631119388319
 50
253.22546826800061
 51
66.774531732005499
  0
ARC
  8
DETAIL
  6
CONTINUOUS
 62
     5
 10
33.822127724710533
 20
-92.9255322042535
 30
0.0
 40
1.251763111938984
 50
203.22546826799521
 51
16.774531732006281
  0
ARC
  8
DETAIL
  6
CONTINUOUS
 62
     5
 10
46.425707578601987
 20
-87.314056916172845
 30
0.0
 40
1.251763111938919
 50
211.22546826798859
 51
24.774531731999961
  0
ARC
  8
DETAIL
  6
CONTINUOUS
 62
     5
 10
44.53902141610547
 20
-75.459518472572213
 30
0.0
 40
2.0028209792799951
 50
120.5506887436085
 51
204.77453173199959
  0
ARC
  8
DETAIL
  6
CONTINUOUS
 62
     5
 10
37.65287131677951
 20
-79.1209494283911
 30
0.0
 40
2.0028209792799609
 50
31.22546826799114
 51
115.44931125639459
  0
ARC
  8
DETAIL
  6
CONTINUOUS
 62
     5
 10
33.603635538437629
 20
-80.923785350285343
 30
0.0
 40
2.0028209792798721
 50
112.5506887435987
 51
196.7745317320063
  0
ARC
  8
DETAIL
  6
CONTINUOUS
 62
     5
 10
80.92378535028547
 20
-33.603635539326213
 30
0.0
 40
2.0028209792799472
 50
73.22546826800064
 51
157.44931125640201
  0
ARC
  8
DETAIL
  6
CONTINUOUS
 62
     5
 10
79.12094942750241
 20
-37.652871317668087
 30
0.0
 40
2.002820979279893
 50
154.55068874360111
 51
238.77453173199541
  0
ARC
  8
DETAIL
  6
CONTINUOUS
 62
     5
 10
75.459518472572881
 20
-44.539021416993883
 30
0.0
 40
2.002820979279929
 50
65.225468268003638
 51
149.44931125640241
  0
ARC
  8
DETAIL
  6
CONTINUOUS
 62
     5
 10
74.980158862302233
 20
-45.341362284351362
 30
0.0
 40
2.0028209792796892
 50
148.83816517600081
 51
222.3539390123062
  0
CIRCLE
  8
DETAIL
  6
CONTINUOUS
 62
     5
 10
60.184867918538657
 20
-74.322122260080391
 30
0.0
 40
4.7066293017076077
  0
CIRCLE
  8
DETAIL
  6
CONTINUOUS
 62
     5
 10
74.322122259191701
 20
-60.184867919426779
 30
0.0
 40
5.0070524486441164
  0
ARC
  8
DETAIL
  6
CONTINUOUS
 62
     5
 10
67.395582553820759
 20
-91.471123588865893
 30
0.0
 40
6.531699919346452
 50
268.89739816710568
 51
347.51331119179832
  0
ARC
  8
DETAIL
  6
CONTINUOUS
 62
     5
 10
69.226714592389925
 20
-98.144973280628037
 30
0.0
 40
1.985770249215858
 50
134.78725491932849
 51
207.93870754088061
  0
ARC
  8
DETAIL
  6
CONTINUOUS
 62
     5
 10
69.243994705182786
 20
-98.151825900734707
 30
0.0
 40
2.6036672731525599
 50
134.99999999999071
 51
181.31615094620139
  0
ARC
  8
DETAIL
  6
CONTINUOUS
 62
     5
 10
-33.822127725598421
 20
-92.9255322042535
 30
0.0
 40
1.2517631119389461
 50
163.2254682679937
 51
336.77453173199581
  0
ARC
  8
DETAIL
  6
CONTINUOUS
 62
     5
 10
-20.56023862836923
 20
-96.728317708985742
 30
0.0
 40
1.2517631119388799
 50
171.2254682679999
 51
344.77453173199638
  0
ARC
  8
DETAIL
  6
CONTINUOUS
 62
     5
 10
20.56023862836992
 20
-96.728317708985742
 30
0.0
 40
1.251763111939054
 50
195.2254682679978
 51
8.7745317320001313
  0
ARC
  8
DETAIL
  6
CONTINUOUS
 62
     5
 10
26.274928278519841
 20
-83.591216648875601
 30
0.0
 40
2.002820979279861
 50
23.22546826800416
 51
107.4493112563992
  0
ARC
  8
DETAIL
  6
CONTINUOUS
 62
     5
 10
22.014193118617872
 20
-84.8129627954347
 30
0.0
 40
2.0028209792798828
 50
104.55068874360271
 51
188.7745317319968
  0
ARC
  8
DETAIL
  6
CONTINUOUS
 62
     5
 10
14.385573648875379
 20
-86.434475920943896
 30
0.0
 40
2.002820979280155
 50
15.225468267997821
 51
99.449311256394594
  0
ARC
  8
DETAIL
  6
CONTINUOUS
 62
     5
 10
9.996269471005462
 20
-87.05135239396553
 30
0.0
 40
2.0028209792798188
 50
96.550688743590172
 51
180.77453173200331
  0
ARC
  8
DETAIL
  6
CONTINUOUS
 62
     5
 10
2.2162201914914021
 20
-87.595386436244482
 30
0.0
 40
2.002820979279909
 50
7.2254682680015554
 51
91.449311256396001
  0
ARC
  8
DETAIL
  6
CONTINUOUS
 62
     5
 10
-2.21622019149072
 20
-87.595386436244482
 30
0.0
 40
2.002820979279865
 50
88.550688743590968
 51
172.77453173199831
  0
ARC
  8
DETAIL
  6
CONTINUOUS
 62
     5
 10
-9.9962694718940384
 20
-87.05135239396553
 30
0.0
 40
2.0028209792799729
 50
359.22546826799658
 51
83.449311256396726
  0
ARC
  8
DETAIL
  6
CONTINUOUS
 62
     5
 10
-14.38557364976373
 20
-86.434475920943896
 30
0.0
 40
2.002820979279921
 50
80.55068874360542
 51
164.7745317319999
  0
ARC
  8
DETAIL
  6
CONTINUOUS
 62
     5
 10
-22.014193119505759
 20
-84.8129627954347
 30
0.0
 40
2.0028209792798508
 50
351.22546826799987
 51
75.449311256397323
  0
ARC
  8
DETAIL
  6
CONTINUOUS
 62
     5
 10
-26.27492827940841
 20
-83.591216648875601
 30
0.0
 40
2.002820979279925
 50
72.550688743600816
 51
156.77453173199589
  0
ARC
  8
DETAIL
  6
CONTINUOUS
 62
     5
 10
-33.603635539325978
 20
-80.923785350285343
 30
0.0
 40
2.0028209792799818
 50
343.22546826800402
 51
67.44931125640133
  0
ARC
  8
DETAIL
  6
CONTINUOUS
 62
     5
 10
-37.652871317667859
 20
-79.1209494283911
 30
0.0
 40
2.0028209792798801
 50
64.550688743605363
 51
148.774531731991
  0
ARC
  8
DETAIL
  6
CONTINUOUS
 62
     5
 10
-6.8981678731424836
 20
-98.648396537108638
 30
0.0
 40
1.251763111938929
 50
179.2254682680032
 51
352.77453173200161
  0
ARC
  8
DETAIL
  6
CONTINUOUS
 62
     5
 10
6.8981678731431657
 20
-98.648396537108638
 30
0.0
 40
1.25176311193881
 50
187.2254682679982
 51
0.7745317319968308
  0
ARC
  8
DETAIL
  6
CONTINUOUS
 62
     5
 10
300.57411717344257
 20
-268.20262001195232
 30
0.0
 40
10.01410489817704
 50
90.0
 51
134.99999999999071
  0
ARC
  8
DETAIL
  6
CONTINUOUS
 62
     5
 10
305.43019938506791
 20
-266.17895439216198
 30
0.0
 40
20.02820979546529
 50
90.0
 51
134.99999999999071
  0
ARC
  8
DETAIL
  6
CONTINUOUS
 62
     5
 10
311.93936756839452
 20
-216.1084299030544
 30
0.0
 40
30.042314693642389
 50
270.0
 51
0.0
  0
CIRCLE
  8
DETAIL
  6
CONTINUOUS
 62
     5
 10
275.18301466745442
 20
-306.33959718297712
 30
0.0
 40
2.5035262247664609
  0
ARC
  8
DETAIL
  6
CONTINUOUS
 62
     5
 10
280.37409250044828
 20
-277.61284396116622
 30
0.0
 40
3.004231469364234
 50
45.00000000000928
 51
76.508821731703534
  0
ARC
  8
DETAIL
  6
CONTINUOUS
 62
     5
 10
293.68975151117081
 20
-303.95101724325082
 30
0.0
 40
3.004231469364266
 50
249.9999999999965
 51
314.99999999999068
  0
CIRCLE
  8
DETAIL
  6
CONTINUOUS
 62
     5
 10
275.18301466745442
 20
-306.33959718297712
 30
0.0
 40
3.504936713962024
  0
ARC
  8
DETAIL
  6
CONTINUOUS
 62
     5
 10
297.36859205412782
 20
-298.85596840348722
 30
0.0
 40
4.0056419594485977
 50
314.99999999999068
 51
3.9725715475010999
  0
ARC
  8
DETAIL
  6
CONTINUOUS
 62
     5
 10
293.68975151117081
 20
-303.95101724325082
 30
0.0
 40
4.2059240571099448
 50
249.9999999999965
 51
314.99999999999068
  0
ARC
  8
DETAIL
  6
CONTINUOUS
 62
     5
 10
280.37409250044828
 20
-277.61284396116622
 30
0.0
 40
4.2059240571098622
 50
46.733291332204871
 51
97.551959621903535
  0
ARC
  8
DETAIL
  6
CONTINUOUS
 62
     5
 10
275.18301466745442
 20
-306.33959718297712
 30
0.0
 40
5.0070524486440631
 50
60.00000000010531
 51
323.64387689199458
  0
ARC
  8
DETAIL
  6
CONTINUOUS
 62
     5
 10
297.36859205412782
 20
-298.85596840348722
 30
0.0
 40
5.2073345471942574
 50
314.99999999999068
 51
14.75330338859998
  0
ARC
  8
DETAIL
  6
CONTINUOUS
 62
     5
 10
312.34267506701758
 20
-322.97901791057632
 30
0.0
 40
9.7295020839325357
 50
135.56174722609919
 51
165.40200930260119
  0
ARC
  8
DETAIL
  6
CONTINUOUS
 62
     5
 10
322.97901791590942
 20
-312.34267507857157
 30
0.0
 40
9.7295020839325836
 50
104.5979907124058
 51
134.43825275210671
  0
ARC
  8
DETAIL
  6
CONTINUOUS
 62
     5
 10
338.81174116944288
 20
-319.18611867387852
 30
0.0
 40
10.01410489817704
 50
314.99999999999068
 51
0.0
  0
ARC
  8
DETAIL
  6
CONTINUOUS
 62
     5
 10
284.62271738909038
 20
-293.19113521892763
 30
0.0
 40
10.01410489817709
 50
200.0000000000008
 51
249.9999999999965
  0
ARC
  8
DETAIL
  6
CONTINUOUS
 62
     5
 10
284.62271738909038
 20
-293.19113521892763
 30
0.0
 40
11.215797485922741
 50
200.0000000000008
 51
249.9999999999965
  0
ARC
  8
DETAIL
  6
CONTINUOUS
 62
     5
 10
336.97462981339248
 20
-272.9077319865591
 30
0.0
 40
15.02115734682115
 50
271.94963471879572
 51
0.0
  0
ARC
  8
DETAIL
  6
CONTINUOUS
 62
     5
 10
322.29540932741878
 20
-311.1352921697781
 30
0.0
 40
16.38627010321084
 50
104.00062675159811
 51
135.03561669979479
  0
ARC
  8
DETAIL
  6
CONTINUOUS
 62
     5
 10
311.13529211822657
 20
-322.29540930430892
 30
0.0
 40
16.386270103210851
 50
134.96438323139881
 51
165.99937328409931
  0
ARC
  8
DETAIL
  6
CONTINUOUS
 62
     5
 10
314.94359903775847
 20
-314.94359903864711
 30
0.0
 40
37.052188122455163
 50
270.0
 51
0.0
  0
ARC
  8
DETAIL
  6
CONTINUOUS
 62
     5
 10
314.94359903775847
 20
-314.94359903864711
 30
0.0
 40
40.056419591819413
 50
270.0
 51
0.0
  0
ARC
  8
DETAIL
  6
CONTINUOUS
 62
     5
 10
209.79549761000999
 20
-307.93372560983431
 30
0.0
 40
5.0070524486441164
 50
0.0
 51
90.0
  0
ARC
  8
DETAIL
  6
CONTINUOUS
 62
     5
 10
268.20262001106391
 20
-300.574117173442
 30
0.0
 40
10.01410489817712
 50
134.99999999999071
 51
180.0
  0
ARC
  8
DETAIL
  6
CONTINUOUS
 62
     5
 10
266.17895439127358
 20
-305.43019938595643
 30
0.0
 40
20.02820979546523
 50
134.99999999999071
 51
180.0
  0
ARC
  8
DETAIL
  6
CONTINUOUS
 62
     5
 10
216.10842990216611
 20
-311.93936756928281
 30
0.0
 40
30.0423146936424
 50
270.0
 51
0.0
  0
ARC
  8
DETAIL
  6
CONTINUOUS
 62
     5
 10
209.79549761000999
 20
-328.71148511911173
 30
0.0
 40
5.0070524486441714
 50
280.61510785069748
 51
0.0
  0
ARC
  8
DETAIL
  6
CONTINUOUS
 62
     5
 10
319.18611867299012
 20
-338.81174117033117
 30
0.0
 40
10.01410489817704
 50
270.0
 51
314.99999999999068
  0
ARC
  8
DETAIL
  6
CONTINUOUS
 62
     5
 10
272.90773198567081
 20
-336.97462981428112
 30
0.0
 40
15.02115734682115
 50
270.0
 51
326.51671543729663
  0
ARC
  8
DETAIL
  6
CONTINUOUS
 62
     5
 10
139.6967633254371
 20
-328.71148511911173
 30
0.0
 40
5.0070524486441164
 50
180.0
 51
259.38489214930252
  0
ARC
  8
DETAIL
  6
CONTINUOUS
 62
     5
 10
-29.039067640421759
 20
-352.44057721940061
 30
0.0
 40
318.60459815219122
 50
359.47153300899839
 51
7.1053197995994681
  0
ARC
  8
DETAIL
  6
CONTINUOUS
 62
     5
 10
-32.313816041713608
 20
-352.24119805950602
 30
0.0
 40
318.87753461126118
 50
351.32479869259902
 51
359.32942758679991
  0
CIRCLE
  8
DETAIL
  6
CONTINUOUS
 62
     5
 10
-275.18301466745368
 20
306.33959718297717
 30
0.0
 40
2.503526224766575
  0
CIRCLE
  8
DETAIL
  6
CONTINUOUS
 62
     5
 10
-275.18301466745368
 20
306.33959718297717
 30
0.0
 40
3.504936713962024
  0
CIRCLE
  8
DETAIL
  6
CONTINUOUS
 62
     5
 10
-275.18301466745368
 20
306.33959718297717
 30
0.0
 40
5.0070524486441164
  0
ARC
  8
DETAIL
  6
CONTINUOUS
 62
     5
 10
-268.20262001195192
 20
300.57411717344218
 30
0.0
 40
10.014104898177081
 50
314.99999999999068
 51
0.0
  0
ARC
  8
DETAIL
  6
CONTINUOUS
 62
     5
 10
-272.90773198655921
 20
336.97462981339243
 30
0.0
 40
15.02115734682115
 50
90.0
 51
178.05036698939841
  0
ARC
  8
DETAIL
  6
CONTINUOUS
 62
     5
 10
-266.17895439216193
 20
305.43019938506768
 30
0.0
 40
20.02820979546507
 50
314.99999999999068
 51
0.0
  0
ARC
  8
DETAIL
  6
CONTINUOUS
 62
     5
 10
-216.10842990305429
 20
311.93936756839389
 30
0.0
 40
30.042314693642371
 50
90.0
 51
180.0
  0
ARC
  8
DETAIL
  6
CONTINUOUS
 62
     5
 10
-322.97901791057609
 20
312.34267506701701
 30
0.0
 40
9.7295020839326405
 50
284.59799069400299
 51
314.43825277060751
  0
ARC
  8
DETAIL
  6
CONTINUOUS
 62
     5
 10
-312.34267507768249
 20
322.97901791679811
 30
0.0
 40
9.729502083932422
 50
315.5617472445013
 51
345.4020092841983
  0
ARC
  8
DETAIL
  6
CONTINUOUS
 62
     5
 10
-319.18611867387813
 20
338.81174116944248
 30
0.0
 40
10.01410489817704
 50
90.0
 51
134.99999999999071
  0
ARC
  8
DETAIL
  6
CONTINUOUS
 62
     5
 10
-338.81174117033129
 20
319.18611867298972
 30
0.0
 40
10.014104898176919
 50
134.99999999999071
 51
180.0
  0
ARC
  8
DETAIL
  6
CONTINUOUS
 62
     5
 10
-311.13529216800009
 20
322.29540933097388
 30
0.0
 40
16.386270103211
 50
314.96438328370778
 51
345.99937323190079
  0
ARC
  8
DETAIL
  6
CONTINUOUS
 62
     5
 10
-322.29540929986427
 20
311.13529212089259
 30
0.0
 40
16.386270103210869
 50
284.00062669939621
 51
315.03561675209528
  0
ARC
  8
DETAIL
  6
CONTINUOUS
 62
     5
 10
-314.94359903864688
 20
314.94359903775808
 30
0.0
 40
37.05218812245522
 50
90.0
 51
180.0
  0
ARC
  8
DETAIL
  6
CONTINUOUS
 62
     5
 10
-314.94359903864688
 20
314.94359903775808
 30
0.0
 40
40.056419591819413
 50
90.0
 51
180.0
  0
ARC
  8
DETAIL
  6
CONTINUOUS
 62
     5
 10
-300.57411717344172
 20
268.20262001106352
 30
0.0
 40
10.0141048981771
 50
270.0
 51
314.99999999999068
  0
ARC
  8
DETAIL
  6
CONTINUOUS
 62
     5
 10
-336.97462981428049
 20
272.90773198567052
 30
0.0
 40
15.02115734682115
 50
91.949634718795721
 51
180.0
  0
ARC
  8
DETAIL
  6
CONTINUOUS
 62
     5
 10
-305.43019938595631
 20
266.17895439127341
 30
0.0
 40
20.02820979546539
 50
270.0
 51
314.99999999999068
  0
ARC
  8
DETAIL
  6
CONTINUOUS
 62
     5
 10
-311.93936756928258
 20
216.10842990216571
 30
0.0
 40
30.042314693642311
 50
90.0
 51
180.0
  0
ARC
  8
DETAIL
  6
CONTINUOUS
 62
     5
 10
-85.712571388650744
 20
61.573091411679343
 30
0.0
 40
1.0014104900844749
 50
135.00000000000909
 51
222.35393901228781
  0
ARC
  8
DETAIL
  6
CONTINUOUS
 62
     5
 10
-46.425707578601532
 20
87.314056915284141
 30
0.0
 40
1.2517631119386949
 50
31.22546826799114
 51
204.77453173199669
  0
ARC
  8
DETAIL
  6
CONTINUOUS
 62
     5
 10
-87.314056916172831
 20
46.425707578601987
 30
0.0
 40
1.2517631119389221
 50
65.225468267989058
 51
238.77453173201101
  0
ARC
  8
DETAIL
  6
CONTINUOUS
 62
     5
 10
-92.925532204252946
 20
33.822127724710072
 30
0.0
 40
1.251763111938766
 50
73.225468268014041
 51
246.77453173199109
  0
ARC
  8
DETAIL
  6
CONTINUOUS
 62
     5
 10
-96.728317708985514
 20
20.560238628369579
 30
0.0
 40
1.2517631119388539
 50
81.225468267999872
 51
254.7745317319964
  0
ARC
  8
DETAIL
  6
CONTINUOUS
 62
     5
 10
-44.539021416993592
 20
75.459518472572313
 30
0.0
 40
2.0028209792799831
 50
300.55068874360842
 51
24.774531731993779
  0
ARC
  8
DETAIL
  6
CONTINUOUS
 62
     5
 10
-86.434475920943882
 20
14.385573648875379
 30
0.0
 40
2.0028209792797811
 50
350.55068874360211
 51
74.774531731996376
  0
ARC
  8
DETAIL
  6
CONTINUOUS
 62
     5
 10
-84.81296279632376
 20
22.01419311861758
 30
0.0
 40
2.0028209792798228
 50
261.22546826799987
 51
345.44931125639982
  0
ARC
  8
DETAIL
  6
CONTINUOUS
 62
     5
 10
-83.59121664887563
 20
26.27492827851961
 30
0.0
 40
2.0028209792797842
 50
342.55068874359762
 51
66.774531732005499
  0
ARC
  8
DETAIL
  6
CONTINUOUS
 62
     5
 10
-80.923785350285016
 20
33.603635538437572
 30
0.0
 40
2.00282097927981
 50
253.22546826800061
 51
337.44931125640483
  0
ARC
  8
DETAIL
  6
CONTINUOUS
 62
     5
 10
-79.120949428391228
 20
37.652871316779283
 30
0.0
 40
2.0028209792800991
 50
334.55068874360109
 51
58.774531731995353
  0
ARC
  8
DETAIL
  6
CONTINUOUS
 62
     5
 10
-75.459518472571958
 20
44.539021416105243
 30
0.0
 40
2.00282097927981
 50
245.2254682680036
 51
329.44931125640289
  0
ARC
  8
DETAIL
  6
CONTINUOUS
 62
     5
 10
-45.341362284351362
 20
74.980158862301778
 30
0.0
 40
2.002820979279861
 50
227.64606098769431
 51
301.16183482400089
  0
ARC
  8
DETAIL
  6
CONTINUOUS
 62
     5
 10
-74.980158863190368
 20
45.341362283462672
 30
0.0
 40
2.0028209792796958
 50
328.83816517600138
 51
42.353939012306803
  0
CIRCLE
  8
DETAIL
  6
CONTINUOUS
 62
     5
 10
-74.322122260080505
 20
60.184867918538089
 30
0.0
 40
5.0070524486441164
  0
ARC
  8
DETAIL
  6
CONTINUOUS
 62
     5
 10
-98.648396537108496
 20
6.8981678731431657
 30
0.0
 40
1.251763111938792
 50
89.225468267983629
 51
262.77453173200831
  0
ARC
  8
DETAIL
  6
CONTINUOUS
 62
     5
 10
-98.648396537108496
 20
-6.898167873143052
 30
0.0
 40
1.2517631119387831
 50
97.225468267991687
 51
270.77453173201633
  0
ARC
  8
DETAIL
  6
CONTINUOUS
 62
     5
 10
-96.728317708985514
 20
-20.560238628369461
 30
0.0
 40
1.2517631119388239
 50
105.2254682680036
 51
278.77453173200013
  0
ARC
  8
DETAIL
  6
CONTINUOUS
 62
     5
 10
-92.925532204252946
 20
-33.822127725598882
 30
0.0
 40
1.2517631119389041
 50
113.2254682680089
 51
286.77453173198592
  0
ARC
  8
DETAIL
  6
CONTINUOUS
 62
     5
 10
-87.314056916172831
 20
-46.425707578601823
 30
0.0
 40
1.251763111938649
 50
121.2254682679889
 51
294.77453173201093
  0
ARC
  8
DETAIL
  6
CONTINUOUS
 62
     5
 10
-75.459518472571958
 20
-44.539021416993883
 30
0.0
 40
2.0028209792798521
 50
30.55068874359711
 51
114.7745317319964
  0
ARC
  8
DETAIL
  6
CONTINUOUS
 62
     5
 10
-79.120949428391228
 20
-37.652871317668087
 30
0.0
 40
2.002820979279984
 50
301.22546826800419
 51
25.449311256398921
  0
ARC
  8
DETAIL
  6
CONTINUOUS
 62
     5
 10
-80.923785350285016
 20
-33.603635539326213
 30
0.0
 40
2.002820979280187
 50
22.55068874359506
 51
106.7745317319993
  0
ARC
  8
DETAIL
  6
CONTINUOUS
 62
     5
 10
-83.59121664887563
 20
-26.27492827940824
 30
0.0
 40
2.002820979279865
 50
293.22546826799447
 51
17.449311256402471
  0
ARC
  8
DETAIL
  6
CONTINUOUS
 62
     5
 10
-84.81296279632376
 20
-22.014193119506331
 30
0.0
 40
2.0028209792800209
 50
14.55068874360016
 51
98.774531732000113
  0
ARC
  8
DETAIL
  6
CONTINUOUS
 62
     5
 10
-86.434475920943882
 20
-14.385573649764069
 30
0.0
 40
2.002820979279857
 50
285.22546826800351
 51
9.4493112563978947
  0
ARC
  8
DETAIL
  6
CONTINUOUS
 62
     5
 10
-87.051352393964862
 20
-9.9962694710051778
 30
0.0
 40
2.0028209792796989
 50
6.5506887436032759
 51
90.774531732003339
  0
ARC
  8
DETAIL
  6
CONTINUOUS
 62
     5
 10
-87.595386436244098
 20
-2.2162201914910611
 30
0.0
 40
2.0028209792798521
 50
277.22546826799169
 51
1.449311256399253
  0
ARC
  8
DETAIL
  6
CONTINUOUS
 62
     5
 10
-87.595386436244098
 20
2.2162201914911752
 30
0.0
 40
2.002820979279591
 50
358.55068874360069
 51
82.774531732008313
  0
ARC
  8
DETAIL
  6
CONTINUOUS
 62
     5
 10
-87.051352393964862
 20
9.9962694710053484
 30
0.0
 40
2.002820979279833
 50
269.22546826799669
 51
353.4493112563967
  0
ARC
  8
DETAIL
  6
CONTINUOUS
 62
     5
 10
-74.980158863190368
 20
-45.341362284351362
 30
0.0
 40
2.0028209792797949
 50
317.64606098769309
 51
31.161834823998621
  0
ARC
  8
DETAIL
  6
CONTINUOUS
 62
     5
 10
-61.573091412567692
 20
-85.712571388651099
 30
0.0
 40
1.0014104900844749
 50
224.99999999999079
 51
312.35393901230572
  0
ARC
  8
DETAIL
  6
CONTINUOUS
 62
     5
 10
-46.425707578601532
 20
-87.314056916172845
 30
0.0
 40
1.2517631119388899
 50
155.22546826800331
 51
328.77453173199763
  0
ARC
  8
DETAIL
  6
CONTINUOUS
 62
     5
 10
-44.539021416993592
 20
-75.459518472572213
 30
0.0
 40
2.002820979280338
 50
335.22546826800368
 51
59.449311256391532
  0
ARC
  8
DETAIL
  6
CONTINUOUS
 62
     5
 10
-45.341362284351362
 20
-74.980158863190468
 30
0.0
 40
2.0028209792798761
 50
58.838165175999137
 51
132.35393901230569
  0
CIRCLE
  8
DETAIL
  6
CONTINUOUS
 62
     5
 10
-60.184867919426097
 20
-74.322122260080391
 30
0.0
 40
5.0070524486441164
  0
ARC
  8
DETAIL
  6
CONTINUOUS
 62
     5
 10
-311.93936756928258
 20
-216.1084299030544
 30
0.0
 40
30.042314693642311
 50
180.0
 51
270.0
  0
ARC
  8
DETAIL
  6
CONTINUOUS
 62
     5
 10
-216.10842990305429
 20
-311.93936756928281
 30
0.0
 40
30.042314693642311
 50
180.0
 51
270.0
  0
CIRCLE
  8
DETAIL
  6
CONTINUOUS
 62
     5
 10
-306.33959718297677
 20
-275.18301466745442
 30
0.0
 40
2.503526224766575
  0
CIRCLE
  8
DETAIL
  6
CONTINUOUS
 62
     5
 10
-306.33959718297677
 20
-275.18301466745442
 30
0.0
 40
3.504936713962024
  0
CIRCLE
  8
DETAIL
  6
CONTINUOUS
 62
     5
 10
-306.33959718297677
 20
-275.18301466745442
 30
0.0
 40
5.0070524486441164
  0
ARC
  8
DETAIL
  6
CONTINUOUS
 62
     5
 10
-300.57411717344172
 20
-268.20262001195232
 30
0.0
 40
10.01410489817688
 50
45.00000000000928
 51
90.0
  0
ARC
  8
DETAIL
  6
CONTINUOUS
 62
     5
 10
-336.97462981428049
 20
-272.9077319865591
 30
0.0
 40
15.02115734682115
 50
180.0
 51
268.05036698940171
  0
ARC
  8
DETAIL
  6
CONTINUOUS
 62
     5
 10
-305.43019938595631
 20
-266.17895439216198
 30
0.0
 40
20.028209795465411
 50
45.00000000000928
 51
90.0
  0
ARC
  8
DETAIL
  6
CONTINUOUS
 62
     5
 10
-312.34267507857129
 20
-322.97901791679823
 30
0.0
 40
9.7295020839327968
 50
14.59799071239893
 51
44.438252752092993
  0
ARC
  8
DETAIL
  6
CONTINUOUS
 62
     5
 10
-322.97901791679777
 20
-312.34267507768283
 30
0.0
 40
9.7295020839324646
 50
45.561747244500182
 51
75.402009284201796
  0
ARC
  8
DETAIL
  6
CONTINUOUS
 62
     5
 10
-338.81174117033129
 20
-319.18611867387852
 30
0.0
 40
10.01410489817658
 50
180.0
 51
225.00000000000929
  0
ARC
  8
DETAIL
  6
CONTINUOUS
 62
     5
 10
-268.20262001195192
 20
-300.574117173442
 30
0.0
 40
10.014104898176811
 50
0.0
 51
45.00000000000928
  0
ARC
  8
DETAIL
  6
CONTINUOUS
 62
     5
 10
-322.29540933186212
 20
-311.13529216800032
 30
0.0
 40
16.386270103210911
 50
44.964383283704848
 51
75.999373231900847
  0
ARC
  8
DETAIL
  6
CONTINUOUS
 62
     5
 10
-311.13529216977781
 20
-322.29540932741861
 30
0.0
 40
16.386270103210819
 50
14.00062675160145
 51
45.035616699794971
  0
ARC
  8
DETAIL
  6
CONTINUOUS
 62
     5
 10
-266.17895439216193
 20
-305.43019938595643
 30
0.0
 40
20.028209795465049
 50
0.0
 51
45.00000000000928
  0
ARC
  8
DETAIL
  6
CONTINUOUS
 62
     5
 10
-314.94359903864688
 20
-314.94359903864711
 30
0.0
 40
37.052188122454943
 50
180.0
 51
270.0
  0
ARC
  8
DETAIL
  6
CONTINUOUS
 62
     5
 10
-314.94359903864688
 20
-314.94359903864711
 30
0.0
 40
40.056419591819122
 50
180.0
 51
270.0
  0
ARC
  8
DETAIL
  6
CONTINUOUS
 62
     5
 10
-319.18611867387813
 20
-338.81174117033117
 30
0.0
 40
10.0141048981772
 50
224.99999999999079
 51
270.0
  0
ARC
  8
DETAIL
  6
CONTINUOUS
 62
     5
 10
-272.90773198655921
 20
-336.97462981428112
 30
0.0
 40
15.021157346820971
 50
181.9496347187989
 51
270.0
  0
ARC
  8
DETAIL
  6
CONTINUOUS
 62
     5
 10
-41.632969417741833
 20
-350.97948992991991
 30
0.0
 40
328.28041538060091
 50
346.02764884950068
 51
351.35243814710151
  0
ARC
  8
DETAIL
  6
CONTINUOUS
 62
     5
 10
-41.637683408912054
 20
-350.97854698076299
 30
0.0
 40
331.28944902244018
 50
346.02774849130071
 51
352.69223208108048
  0
ARC
  8
DETAIL
  6
CONTINUOUS
 62
     5
 10
-232.39058963838161
 20
-379.36026629817422
 30
0.0
 40
522.46699411742657
 50
2.673464803798447
 51
7.2553594759994766
  0
ARC
  8
DETAIL
  6
CONTINUOUS
 62
     5
 10
-295.12184246069478
 20
-379.85260807789462
 30
0.0
 40
582.23375471452619
 50
355.01196987310078
 51
358.69507338549892
  0
ARC
  8
DETAIL
  6
CONTINUOUS
 62
     5
 10
-294.35610154714868
 20
-379.9035702988736
 30
0.0
 40
584.47071416288691
 50
355.01052693690031
 51
358.84122785370062
  0
ARC
  8
DETAIL
  6
CONTINUOUS
 62
     5
 10
-1530.1796061136381
 20
-547.46278894255965
 30
0.0
 40
1826.8303800799979
 50
3.6644678419016219
 51
7.350497725299328
  0
ARC
  8
DETAIL
  6
CONTINUOUS
 62
     5
 10
-1530.497640042335
 20
-547.48999849096185
 30
0.0
 40
1830.153733246281
 50
3.664761108800616
 51
7.3421256728996456
  0
LINE
  8
DETAIL
  6
CONTINUOUS
 62
     5
 10
345.89278265080901
 20
326.26716015346722
 30
0.0
 11
326.26716015346773
 21
345.89278265080878
 31
0.0
  0
LINE
  8
DETAIL
  6
CONTINUOUS
 62
     5
 10
316.16697932447067
 20
305.39573446656658
 30
0.0
 11
305.39573446656681
 21
316.16697932447039
 31
0.0
  0
LINE
  8
DETAIL
  6
CONTINUOUS
 62
     5
 10
310.70126327127008
 20
299.55555166750611
 30
0.0
 11
299.55555166750622
 21
310.70126327126968
 31
0.0
  0
LINE
  8
DETAIL
  6
CONTINUOUS
 62
     5
 10
291.82346214715437
 20
314.48279488539288
 30
0.0
 11
314.48279488539328
 21
291.82346214715409
 31
0.0
  0
LINE
  8
DETAIL
  6
CONTINUOUS
 62
     5
 10
311.29632621957842
 20
288.63699348045049
 30
0.0
 11
288.63699348045111
 21
311.29632621957808
 31
0.0
  0
LINE
  8
DETAIL
  6
CONTINUOUS
 62
     5
 10
326.26716015346773
 20
-345.89278265080901
 30
0.0
 11
345.89278265080901
 21
-326.26716015435602
 31
0.0
  0
LINE
  8
DETAIL
  6
CONTINUOUS
 62
     5
 10
302.92722871736157
 20
320.52683042854119
 30
0.0
 11
296.53369098657362
 21
346.1009813525821
 31
0.0
  0
LINE
  8
DETAIL
  6
CONTINUOUS
 62
     5
 10
280.49379577803478
 20
274.12085844462717
 30
0.0
 11
293.49307569207639
 21
261.12157853058602
 31
0.0
  0
LINE
  8
DETAIL
  6
CONTINUOUS
 62
     5
 10
261.12157853058619
 20
293.49307569207588
 30
0.0
 11
274.12085844462757
 21
280.49379577803478
 31
0.0
  0
LINE
  8
DETAIL
  6
CONTINUOUS
 62
     5
 10
268.45602526006792
 20
274.82896259347513
 30
0.0
 11
252.0168714303189
 21
291.26811642322411
 31
0.0
  0
LINE
  8
DETAIL
  6
CONTINUOUS
 62
     5
 10
291.26811642322423
 20
252.01687143031859
 30
0.0
 11
274.82896259347513
 21
268.45602526006758
 31
0.0
  0
LINE
  8
DETAIL
  6
CONTINUOUS
 62
     5
 10
311.34664963162157
 20
278.07383774631012
 30
0.0
 11
306.33959718297763
 21
280.96466082516588
 31
0.0
  0
LINE
  8
DETAIL
  6
CONTINUOUS
 62
     5
 10
301.33254473344482
 20
272.29219158770968
 30
0.0
 11
306.33959718297763
 21
269.40136850885398
 31
0.0
  0
LINE
  8
DETAIL
  6
CONTINUOUS
 62
     5
 10
346.10098135258232
 20
296.53369098657328
 30
0.0
 11
320.5268304285417
 21
302.92722871736129
 31
0.0
  0
LINE
  8
DETAIL
  6
CONTINUOUS
 62
     5
 10
305.39573446656681
 20
-316.16697932447028
 30
0.0
 11
316.16697932447067
 21
-305.39573446745561
 31
0.0
  0
LINE
  8
DETAIL
  6
CONTINUOUS
 62
     5
 10
299.55555166750622
 20
-310.70126327126962
 30
0.0
 11
310.70126327127008
 21
-299.55555166839503
 31
0.0
  0
LINE
  8
DETAIL
  6
CONTINUOUS
 62
     5
 10
314.48279488539328
 20
-291.82346214804278
 30
0.0
 11
291.82346214715437
 21
-314.48279488628191
 31
0.0
  0
LINE
  8
DETAIL
  6
CONTINUOUS
 62
     5
 10
296.66378893348673
 20
-306.92505466467821
 30
0.0
 11
301.05073362440243
 21
-302.538109973762
 31
0.0
  0
LINE
  8
DETAIL
  6
CONTINUOUS
 62
     5
 10
300.2010086468519
 20
-301.68838499532262
 30
0.0
 11
295.81406395504717
 21
-306.07532968712752
 31
0.0
  0
LINE
  8
DETAIL
  6
CONTINUOUS
 62
     5
 10
293.05800752235461
 20
-306.87531217856292
 30
0.0
 11
311.29632621957842
 21
-288.63699348133912
 31
0.0
  0
LINE
  8
DETAIL
  6
CONTINUOUS
 62
     5
 10
288.63699348045111
 20
-311.29632621957802
 30
0.0
 11
292.08905679425351
 21
-307.84426290577522
 31
0.0
  0
LINE
  8
DETAIL
  6
CONTINUOUS
 62
     5
 10
299.49290449889298
 20
-292.48303107096882
 30
0.0
 11
300.34262947644368
 21
-291.63330609341813
 31
0.0
  0
LINE
  8
DETAIL
  6
CONTINUOUS
 62
     5
 10
298.78480035093412
 20
-291.77492692301001
 30
0.0
 11
299.63452532848481
 21
-290.92520194457018
 31
0.0
  0
LINE
  8
DETAIL
  6
CONTINUOUS
 62
     5
 10
295.23566660750822
 20
318.33100270339372
 30
0.0
 11
289.94127575366122
 21
339.50856611878078
 31
0.0
  0
LINE
  8
DETAIL
  6
CONTINUOUS
 62
     5
 10
339.50856611878078
 20
289.94127575366088
 30
0.0
 11
318.33100270339372
 21
295.23566660750788
 31
0.0
  0
LINE
  8
DETAIL
  6
CONTINUOUS
 62
     5
 10
314.94359903775847
 20
355.00001862957748
 30
0.0
 11
-314.94359903864688
 21
355.00001862957748
 31
0.0
  0
LINE
  8
DETAIL
  6
CONTINUOUS
 62
     5
 10
-272.90773198655921
 20
351.99578716021341
 30
0.0
 11
-314.94359903864688
 21
351.99578716021341
 31
0.0
  0
LINE
  8
DETAIL
  6
CONTINUOUS
 62
     5
 10
-1.652394138967793
 20
351.99578716021341
 30
0.0
 11
-272.90773198655921
 21
351.99578716021341
 31
0.0
  0
LINE
  8
DETAIL
  6
CONTINUOUS
 62
     5
 10
272.90773198567081
 20
351.99578716021341
 30
0.0
 11
1.6523941380801259
 21
351.99578716021341
 31
0.0
  0
LINE
  8
DETAIL
  6
CONTINUOUS
 62
     5
 10
314.94359903775847
 20
351.99578716021341
 30
0.0
 11
272.90773198567081
 21
351.99578716021341
 31
0.0
  0
LINE
  8
DETAIL
  6
CONTINUOUS
 62
     5
 10
-299.25855570249928
 20
348.82584606761969
 30
0.0
 11
-319.18611867387813
 21
348.82584606761969
 31
0.0
  0
LINE
  8
DETAIL
  6
CONTINUOUS
 62
     5
 10
319.18611867299012
 20
348.82584606761969
 30
0.0
 11
299.25855570161121
 21
348.82584606761969
 31
0.0
  0
LINE
  8
DETAIL
  6
CONTINUOUS
 62
     5
 10
-83.369849944604539
 20
341.98168226203637
 30
0.0
 11
-216.10842990305429
 21
341.98168226203637
 31
0.0
  0
LINE
  8
DETAIL
  6
CONTINUOUS
 62
     5
 10
216.10842990216611
 20
341.98168226203637
 30
0.0
 11
83.369849943715963
 21
341.98168226203637
 31
0.0
  0
LINE
  8
DETAIL
  6
CONTINUOUS
 62
     5
 10
-320.52683042854039
 20
302.92722871736129
 30
0.0
 11
-346.10098135258153
 21
296.53369098657328
 31
0.0
  0
LINE
  8
DETAIL
  6
CONTINUOUS
 62
     5
 10
-318.33100270428213
 20
295.23566660750788
 30
0.0
 11
-339.50856611966873
 21
289.94127575366088
 31
0.0
  0
LINE
  8
DETAIL
  6
CONTINUOUS
 62
     5
 10
275.18301466745442
 20
-312.12124334157761
 30
0.0
 11
279.26841132673479
 21
-309.76253848040062
 31
0.0
  0
LINE
  8
DETAIL
  6
CONTINUOUS
 62
     5
 10
275.18301466745442
 20
-300.55795102437702
 30
0.0
 11
270.17596221792172
 21
-303.44877410412158
 31
0.0
  0
LINE
  8
DETAIL
  6
CONTINUOUS
 62
     5
 10
295.7753577212199
 20
-285.9330677005716
 30
0.0
 11
294.04068137715541
 21
-287.66774404463632
 31
0.0
  0
LINE
  8
DETAIL
  6
CONTINUOUS
 62
     5
 10
291.88078490655761
 20
-282.03849488679782
 30
0.0
 11
290.14610856249311
 21
-283.77317123086272
 31
0.0
  0
LINE
  8
DETAIL
  6
CONTINUOUS
 62
     5
 10
282.58317438731927
 20
-284.66579755284192
 30
0.0
 11
279.04265364752501
 21
-288.20631829352482
 31
0.0
  0
LINE
  8
DETAIL
  6
CONTINUOUS
 62
     5
 10
276.68933899622681
 20
-285.85300364222678
 30
0.0
 11
280.22985973691021
 21
-282.31248290154338
 31
0.0
  0
LINE
  8
DETAIL
  6
CONTINUOUS
 62
     5
 10
265.85688455224158
 20
-288.75776967130957
 30
0.0
 11
261.12157853058619
 21
-293.49307569296468
 31
0.0
  0
LINE
  8
DETAIL
  6
CONTINUOUS
 62
     5
 10
282.2613364634019
 20
-272.35331776014908
 30
0.0
 11
281.13184129256962
 21
-273.48281293098142
 31
0.0
  0
LINE
  8
DETAIL
  6
CONTINUOUS
 62
     5
 10
293.49307569207639
 20
-261.12157853058602
 30
0.0
 11
283.13462576510392
 21
-271.48002845755792
 31
0.0
  0
LINE
  8
DETAIL
  6
CONTINUOUS
 62
     5
 10
263.74648774763932
 20
-287.78033950344172
 30
0.0
 11
262.8967627700888
 21
-288.63006448099242
 31
0.0
  0
LINE
  8
DETAIL
  6
CONTINUOUS
 62
     5
 10
262.14570490274753
 20
-287.87900661365109
 30
0.0
 11
262.99542988029799
 21
-287.02928163610062
 31
0.0
  0
LINE
  8
DETAIL
  6
CONTINUOUS
 62
     5
 10
262.29444253715047
 20
-286.32829429295282
 30
0.0
 11
262.86092585551722
 21
-285.76181097458573
 31
0.0
  0
LINE
  8
DETAIL
  6
CONTINUOUS
 62
     5
 10
260.87823424123292
 20
-287.74450258887032
 30
0.0
 11
261.44471755959978
 21
-287.17801927050323
 31
0.0
  0
LINE
  8
DETAIL
  6
CONTINUOUS
 62
     5
 10
261.14429441266333
 20
-286.87759612356678
 30
0.0
 11
261.99401939021368
 21
-286.02787114601631
 31
0.0
  0
LINE
  8
DETAIL
  6
CONTINUOUS
 62
     5
 10
260.43250541837398
 20
-283.33339053655311
 30
0.0
 11
261.28223039592439
 21
-282.48366555900242
 31
0.0
  0
LINE
  8
DETAIL
  6
CONTINUOUS
 62
     5
 10
259.01629712156722
 20
-284.74959883335993
 30
0.0
 11
259.86602210000677
 21
-283.89987385492032
 31
0.0
  0
LINE
  8
DETAIL
  6
CONTINUOUS
 62
     5
 10
277.46979258054432
 20
-265.81519527299832
 30
0.0
 11
291.26811642322423
 21
-252.01687143031839
 31
0.0
  0
LINE
  8
DETAIL
  6
CONTINUOUS
 62
     5
 10
274.82896259347513
 20
-268.45602526095638
 30
0.0
 11
276.62006760299391
 21
-266.66492025054902
 31
0.0
  0
LINE
  8
DETAIL
  6
CONTINUOUS
 62
     5
 10
252.0168714303189
 20
-291.26811642411292
 30
0.0
 11
258.20935975339688
 21
-285.07562810103462
 31
0.0
  0
LINE
  8
DETAIL
  6
CONTINUOUS
 62
     5
 10
257.77386172259338
 20
-284.64013007111993
 30
0.0
 11
260.60627831531758
 21
-281.80771347839573
 31
0.0
  0
LINE
  8
DETAIL
  6
CONTINUOUS
 62
     5
 10
255.0199828759726
 20
-281.88625122360997
 30
0.0
 11
257.85239946869638
 21
-279.05383463177452
 31
0.0
  0
LINE
  8
DETAIL
  6
CONTINUOUS
 62
     5
 10
296.53369098657362
 20
-346.10098135258198
 30
0.0
 11
302.92722871736157
 21
-320.52683042854107
 31
0.0
  0
LINE
  8
DETAIL
  6
CONTINUOUS
 62
     5
 10
289.94127575366122
 20
-339.50856611966952
 30
0.0
 11
295.23566660750822
 21
-318.33100270428218
 31
0.0
  0
LINE
  8
DETAIL
  6
CONTINUOUS
 62
     5
 10
355.00001862957782
 20
-314.94359903864711
 30
0.0
 11
355.00001862957782
 21
314.94359903775808
 31
0.0
  0
LINE
  8
DETAIL
  6
CONTINUOUS
 62
     5
 10
351.99578716021352
 20
272.90773198567052
 30
0.0
 11
351.99578716021352
 21
314.94359903775808
 31
0.0
  0
LINE
  8
DETAIL
  6
CONTINUOUS
 62
     5
 10
351.99578716021352
 20
1.652394138079444
 30
0.0
 11
351.99578716021352
 21
272.90773198567052
 31
0.0
  0
LINE
  8
DETAIL
  6
CONTINUOUS
 62
     5
 10
351.99578716021352
 20
-272.9077319865591
 30
0.0
 11
351.99578716021352
 21
-1.652394138968134
 31
0.0
  0
LINE
  8
DETAIL
  6
CONTINUOUS
 62
     5
 10
351.99578716021352
 20
-314.94359903864711
 30
0.0
 11
351.99578716021352
 21
-272.9077319865591
 31
0.0
  0
LINE
  8
DETAIL
  6
CONTINUOUS
 62
     5
 10
348.82584606761992
 20
299.25855570161099
 30
0.0
 11
348.82584606761992
 21
319.18611867298972
 31
0.0
  0
LINE
  8
DETAIL
  6
CONTINUOUS
 62
     5
 10
348.82584606761992
 20
-319.18611867387852
 30
0.0
 11
348.82584606761992
 21
-299.25855570250002
 31
0.0
  0
LINE
  8
DETAIL
  6
CONTINUOUS
 62
     5
 10
341.98168226203671
 20
83.369849943715849
 30
0.0
 11
341.98168226203671
 21
216.10842990216571
 31
0.0
  0
LINE
  8
DETAIL
  6
CONTINUOUS
 62
     5
 10
341.98168226203671
 20
-216.1084299030544
 30
0.0
 11
341.98168226203671
 21
-83.369849944604539
 31
0.0
  0
LINE
  8
DETAIL
  6
CONTINUOUS
 62
     5
 10
257.8061402343144
 20
-264.17907756772161
 30
0.0
 11
257.10566365757262
 21
-264.87955414446373
 31
0.0
  0
LINE
  8
DETAIL
  6
CONTINUOUS
 62
     5
 10
256.49508822687312
 20
-264.28843698741781
 30
0.0
 11
257.20529394044161
 21
-263.57823127384893
 31
0.0
  0
LINE
  8
DETAIL
  6
CONTINUOUS
 62
     5
 10
311.34664963162157
 20
272.29219158770968
 30
0.0
 11
311.34664963162157
 21
278.07383774631012
 31
0.0
  0
LINE
  8
DETAIL
  6
CONTINUOUS
 62
     5
 10
301.33254473344482
 20
278.07383774631012
 30
0.0
 11
301.33254473344482
 21
272.29219158770968
 31
0.0
  0
LINE
  8
DETAIL
  6
CONTINUOUS
 62
     5
 10
270.17596221792172
 20
-303.44877410412158
 30
0.0
 11
270.17596221792172
 21
-309.23042026272202
 31
0.0
  0
LINE
  8
DETAIL
  6
CONTINUOUS
 62
     5
 10
300.57411717344257
 20
258.18851511288642
 30
0.0
 11
307.75580547889541
 21
258.18851511288642
 31
0.0
  0
LINE
  8
DETAIL
  6
CONTINUOUS
 62
     5
 10
-307.75580547978348
 20
258.18851511288642
 30
0.0
 11
-300.57411717344172
 21
258.18851511288642
 31
0.0
  0
LINE
  8
DETAIL
  6
CONTINUOUS
 62
     5
 10
-305.43019938595631
 20
246.15074459580811
 30
0.0
 11
-311.93936756928258
 21
246.15074459580811
 31
0.0
  0
LINE
  8
DETAIL
  6
CONTINUOUS
 62
     5
 10
311.93936756839452
 20
246.15074459580811
 30
0.0
 11
305.43019938506791
 21
246.15074459580811
 31
0.0
  0
LINE
  8
DETAIL
  6
CONTINUOUS
 62
     5
 10
258.18851511288682
 20
-300.574117173442
 30
0.0
 11
258.18851511288682
 21
-307.75580547978382
 31
0.0
  0
LINE
  8
DETAIL
  6
CONTINUOUS
 62
     5
 10
258.18851511288682
 20
307.75580547889513
 30
0.0
 11
258.18851511288682
 21
300.57411717344218
 31
0.0
  0
LINE
  8
DETAIL
  6
CONTINUOUS
 62
     5
 10
246.15074459580839
 20
305.43019938506768
 30
0.0
 11
246.15074459580839
 21
311.93936756839389
 31
0.0
  0
LINE
  8
DETAIL
  6
CONTINUOUS
 62
     5
 10
246.15074459580839
 20
-311.93936756928281
 30
0.0
 11
246.15074459580839
 21
-305.43019938595643
 31
0.0
  0
LINE
  8
DETAIL
  6
CONTINUOUS
 62
     5
 10
214.80255005954311
 20
-328.71148511911173
 30
0.0
 11
214.80255005954311
 21
-307.93372560983431
 31
0.0
  0
LINE
  8
DETAIL
  6
CONTINUOUS
 62
     5
 10
275.21253691235017
 20
-296.61616081125823
 30
0.0
 11
274.23515035943399
 21
-293.93081332624058
 31
0.0
  0
LINE
  8
DETAIL
  6
CONTINUOUS
 62
     5
 10
272.33572446603478
 20
-292.22569764977271
 30
0.0
 11
274.08331525546151
 21
-297.02716388255112
 31
0.0
  0
LINE
  8
DETAIL
  6
CONTINUOUS
 62
     5
 10
144.81021021470971
 20
-134.96792019494981
 30
0.0
 11
143.07553387064459
 21
-136.70259653901471
 31
0.0
  0
LINE
  8
DETAIL
  6
CONTINUOUS
 62
     5
 10
143.287786296598
 20
-134.57846291357231
 30
0.0
 11
126.7181492316943
 21
-151.14809997847641
 31
0.0
  0
LINE
  8
DETAIL
  6
CONTINUOUS
 62
     5
 10
140.80942177874229
 20
-132.10009839482771
 30
0.0
 11
124.239784712949
 21
-148.66973545973161
 31
0.0
  0
LINE
  8
DETAIL
  6
CONTINUOUS
 62
     5
 10
83.202237399387514
 20
88.158966435988418
 30
0.0
 11
95.240007916466084
 21
76.121195918021385
 31
0.0
  0
LINE
  8
DETAIL
  6
CONTINUOUS
 62
     5
 10
76.12119591802184
 20
95.24000791646597
 30
0.0
 11
82.494133251428821
 21
88.867070583947338
 31
0.0
  0
LINE
  8
DETAIL
  6
CONTINUOUS
 62
     5
 10
96.302164138404606
 20
65.145581622881309
 30
0.0
 11
65.145581622881537
 21
96.302164138404237
 31
0.0
  0
LINE
  8
DETAIL
  6
CONTINUOUS
 62
     5
 10
89.929226805886401
 20
58.772644290362791
 30
0.0
 11
58.772644290363132
 21
89.929226805885605
 31
0.0
  0
LINE
  8
DETAIL
  6
CONTINUOUS
 62
     5
 10
-270.17596221880967
 20
309.23042026183299
 30
0.0
 11
-275.18301466745368
 21
312.12124334068892
 31
0.0
  0
LINE
  8
DETAIL
  6
CONTINUOUS
 62
     5
 10
-280.19006711698722
 20
303.44877410323278
 30
0.0
 11
-275.18301466745368
 21
300.55795102437691
 31
0.0
  0
LINE
  8
DETAIL
  6
CONTINUOUS
 62
     5
 10
140.41996449647559
 20
-130.57767447671591
 30
0.0
 11
138.6852881524112
 21
-132.31235082078089
 31
0.0
  0
LINE
  8
DETAIL
  6
CONTINUOUS
 62
     5
 10
134.68971087590401
 20
-325.21118222242819
 30
0.0
 11
134.68971087590401
 21
-328.71148511911173
 31
0.0
  0
LINE
  8
DETAIL
  6
CONTINUOUS
 62
     5
 10
65.769509261812118
 20
75.818522397284369
 30
0.0
 11
61.681268056631097
 21
79.906763602465162
 31
0.0
  0
LINE
  8
DETAIL
  6
CONTINUOUS
 62
     5
 10
64.652580992979438
 20
75.519242369310405
 30
0.0
 11
61.381988028656913
 21
78.789835333632823
 31
0.0
  0
LINE
  8
DETAIL
  6
CONTINUOUS
 62
     5
 10
55.717154844097422
 20
73.125002149072884
 30
0.0
 11
58.987747808419471
 21
69.85440918475058
 31
0.0
  0
LINE
  8
DETAIL
  6
CONTINUOUS
 62
     5
 10
54.600226575264742
 20
72.82572212109892
 30
0.0
 11
58.688467780445542
 21
68.737480915918013
 31
0.0
  0
LINE
  8
DETAIL
  6
CONTINUOUS
 62
     5
 10
88.158966435988759
 20
-83.202237399387499
 30
0.0
 11
76.12119591802184
 21
-95.240007917354603
 31
0.0
  0
LINE
  8
DETAIL
  6
CONTINUOUS
 62
     5
 10
95.240007916466084
 20
-76.121195918910061
 30
0.0
 11
88.867070583947452
 21
-82.494133251428593
 31
0.0
  0
LINE
  8
DETAIL
  6
CONTINUOUS
 62
     5
 10
-258.18851511377488
 20
307.75580547889513
 30
0.0
 11
-299.25855570249928
 21
348.82584606761969
 31
0.0
  0
LINE
  8
DETAIL
  6
CONTINUOUS
 62
     5
 10
307.75580547889541
 20
-258.18851511377511
 30
0.0
 11
348.82584606761992
 21
-299.25855570250002
 31
0.0
  0
LINE
  8
DETAIL
  6
CONTINUOUS
 62
     5
 10
63.339310961370977
 20
74.322122259191701
 30
0.0
 11
57.030424875705883
 21
74.322122259191701
 31
0.0
  0
LINE
  8
DETAIL
  6
CONTINUOUS
 62
     5
 10
-71.167679217247723
 20
60.184867918538089
 30
0.0
 11
-77.476565302912618
 21
60.184867918538089
 31
0.0
  0
LINE
  8
DETAIL
  6
CONTINUOUS
 62
     5
 10
-72.825722121987155
 20
65.769509261811663
 30
0.0
 11
-78.410363464372494
 21
64.273109123718882
 31
0.0
  0
LINE
  8
DETAIL
  6
CONTINUOUS
 62
     5
 10
-73.125002149072543
 20
64.65258099297921
 30
0.0
 11
-77.592715223513338
 21
63.455460882860507
 31
0.0
  0
LINE
  8
DETAIL
  6
CONTINUOUS
 62
     5
 10
-75.519242370198754
 20
55.717154844096967
 30
0.0
 11
-71.051529295757973
 21
56.914274954215671
 31
0.0
  0
LINE
  8
DETAIL
  6
CONTINUOUS
 62
     5
 10
-75.818522397283687
 20
54.600226575264507
 30
0.0
 11
-70.233881054899257
 21
56.096626713357303
 31
0.0
  0
LINE
  8
DETAIL
  6
CONTINUOUS
 62
     5
 10
61.681268056631097
 20
79.906763602465162
 30
0.0
 11
56.096626713356947
 21
78.410363464372494
 31
0.0
  0
LINE
  8
DETAIL
  6
CONTINUOUS
 62
     5
 10
61.381988028656913
 20
78.789835333632823
 30
0.0
 11
56.914274954216133
 21
77.592715223514119
 31
0.0
  0
LINE
  8
DETAIL
  6
CONTINUOUS
 62
     5
 10
58.987747808419471
 20
69.85440918475058
 30
0.0
 11
63.455460882860727
 21
71.051529294869283
 31
0.0
  0
LINE
  8
DETAIL
  6
CONTINUOUS
 62
     5
 10
58.688467780445542
 20
68.737480915918013
 30
0.0
 11
64.273109123718996
 21
70.233881054010908
 31
0.0
  0
LINE
  8
DETAIL
  6
CONTINUOUS
 62
     5
 10
67.269894067647328
 20
-98.001614094394171
 30
0.0
 11
73.076348081798415
 21
-92.195160080242658
 31
0.0
  0
LINE
  8
DETAIL
  6
CONTINUOUS
 62
     5
 10
72.722296007819068
 20
-91.841108006263255
 30
0.0
 11
67.8277864092654
 21
-96.735617604817108
 31
0.0
  0
LINE
  8
DETAIL
  6
CONTINUOUS
 62
     5
 10
72.29743351904358
 20
-91.416245517487951
 30
0.0
 11
67.402923920489911
 21
-96.310755116041676
 31
0.0
  0
LINE
  8
DETAIL
  6
CONTINUOUS
 62
     5
 10
71.58932937019631
 20
-90.708141369529017
 30
0.0
 11
65.454577982492765
 21
-96.842892757232221
 31
0.0
  0
LINE
  8
DETAIL
  6
CONTINUOUS
 62
     5
 10
65.055440942885753
 20
-96.392304819288938
 30
0.0
 11
96.302164138404606
 21
-65.145581623770013
 31
0.0
  0
LINE
  8
DETAIL
  6
CONTINUOUS
 62
     5
 10
58.772644290363132
 20
-89.929226806774366
 30
0.0
 11
89.929226805886401
 21
-58.772644291251481
 31
0.0
  0
LINE
  8
DETAIL
  6
CONTINUOUS
 62
     5
 10
78.410363464373177
 20
-64.273109124607629
 30
0.0
 11
79.90676360157704
 21
-58.688467781334111
 31
0.0
  0
LINE
  8
DETAIL
  6
CONTINUOUS
 62
     5
 10
77.592715223514233
 20
-63.455460882860507
 30
0.0
 11
78.789835333633391
 21
-58.987747808419392
 31
0.0
  0
LINE
  8
DETAIL
  6
CONTINUOUS
 62
     5
 10
71.051529294869852
 20
-56.914274955104361
 30
0.0
 11
69.854409184750693
 21
-61.381988029545482
 31
0.0
  0
LINE
  8
DETAIL
  6
CONTINUOUS
 62
     5
 10
70.233881054010908
 20
-56.096626714245943
 30
0.0
 11
68.73748091591824
 21
-61.68126805663065
 31
0.0
  0
LINE
  8
DETAIL
  6
CONTINUOUS
 62
     5
 10
74.322122259191701
 20
-63.339310962259233
 30
0.0
 11
74.322122259191701
 21
-57.030424876594338
 31
0.0
  0
LINE
  8
DETAIL
  6
CONTINUOUS
 62
     5
 10
60.184867918538657
 20
71.167679216359147
 30
0.0
 11
60.184867918538657
 21
77.476565302024142
 31
0.0
  0
LINE
  8
DETAIL
  6
CONTINUOUS
 62
     5
 10
60.184867918538657
 20
-76.475154812828521
 30
0.0
 11
60.184867918538657
 21
-72.169089675334533
 31
0.0
  0
LINE
  8
DETAIL
  6
CONTINUOUS
 62
     5
 10
-4.2031365542757158
 20
87.343483186538947
 30
0.0
 11
-5.6563451471799908
 21
98.805836066619236
 31
0.0
  0
LINE
  8
DETAIL
  6
CONTINUOUS
 62
     5
 10
21.79735146333633
 20
-96.537365566796893
 30
0.0
 11
20.034812581604911
 21
-85.118486223470214
 31
0.0
  0
LINE
  8
DETAIL
  6
CONTINUOUS
 62
     5
 10
-16.318095322014411
 20
85.908498864352509
 30
0.0
 11
-19.35241258387919
 21
97.057053367911294
 31
0.0
  0
LINE
  8
DETAIL
  6
CONTINUOUS
 62
     5
 10
35.020625661597251
 20
-92.564265565282426
 30
0.0
 11
31.686038839241519
 21
-81.501811972994631
 31
0.0
  0
LINE
  8
DETAIL
  6
CONTINUOUS
 62
     5
 10
-28.115440925890649
 20
82.801403331641154
 30
0.0
 11
-32.671807321769172
 21
93.419165526191932
 31
0.0
  0
LINE
  8
DETAIL
  6
CONTINUOUS
 62
     5
 10
47.562263216905649
 20
-86.789507424156511
 30
0.0
 11
42.720532394108893
 21
-76.298797659087185
 31
0.0
  0
LINE
  8
DETAIL
  6
CONTINUOUS
 62
     5
 10
-39.36555145308148
 20
78.082672668263967
 30
0.0
 11
-45.355282493967927
 21
87.962979889808025
 31
0.0
  0
LINE
  8
DETAIL
  6
CONTINUOUS
 62
     5
 10
87.096810213161916
 20
-61.605060883086892
 30
0.0
 11
73.500079798291836
 21
-46.690679829823686
 31
0.0
  0
LINE
  8
DETAIL
  6
CONTINUOUS
 62
     5
 10
96.302164138404606
 20
-65.145581623770013
 30
0.0
 11
89.929226805886401
 21
-58.772644291251481
 31
0.0
  0
LINE
  8
DETAIL
  6
CONTINUOUS
 62
     5
 10
-65.145581623769431
 20
96.302164138404237
 30
0.0
 11
-58.772644291251247
 21
89.929226805885605
 31
0.0
  0
LINE
  8
DETAIL
  6
CONTINUOUS
 62
     5
 10
314.48279488539328
 20
-291.82346214804278
 30
0.0
 11
311.29632621957842
 21
-288.63699348133912
 31
0.0
  0
LINE
  8
DETAIL
  6
CONTINUOUS
 62
     5
 10
-291.82346214804278
 20
314.48279488539288
 30
0.0
 11
-288.63699348133878
 21
311.29632621957808
 31
0.0
  0
LINE
  8
DETAIL
  6
CONTINUOUS
 62
     5
 10
79.90676360157704
 20
-58.688467781334111
 30
0.0
 11
75.818522397284823
 21
-54.600226576153197
 31
0.0
  0
LINE
  8
DETAIL
  6
CONTINUOUS
 62
     5
 10
313.06658658947538
 20
-293.23967044396062
 30
0.0
 11
309.88011792277177
 21
-290.05320177725702
 31
0.0
  0
LINE
  8
DETAIL
  6
CONTINUOUS
 62
     5
 10
-293.23967044396022
 20
313.06658658947521
 30
0.0
 11
-290.05320177725628
 21
309.88011792277149
 31
0.0
  0
LINE
  8
DETAIL
  6
CONTINUOUS
 62
     5
 10
78.789835333633391
 20
-58.987747808419392
 30
0.0
 11
75.519242369310859
 21
-55.717154844985707
 31
0.0
  0
LINE
  8
DETAIL
  6
CONTINUOUS
 62
     5
 10
-71.164466882308943
 20
90.283278879864952
 30
0.0
 11
-76.121195918909962
 21
95.24000791646597
 31
0.0
  0
LINE
  8
DETAIL
  6
CONTINUOUS
 62
     5
 10
95.240007916466084
 20
-76.121195918910061
 30
0.0
 11
90.283278879865293
 21
-71.164466882309156
 31
0.0
  0
LINE
  8
DETAIL
  6
CONTINUOUS
 62
     5
 10
271.57660738158103
 20
-259.92201007403457
 30
0.0
 11
284.59494374823328
 21
-272.94034644068722
 31
0.0
  0
LINE
  8
DETAIL
  6
CONTINUOUS
 62
     5
 10
281.99275041414597
 20
-272.03760306170142
 30
0.0
 11
270.72688240403022
 21
-260.77173505158532
 31
0.0
  0
LINE
  8
DETAIL
  6
CONTINUOUS
 62
     5
 10
291.88078490655761
 20
-282.03849488679782
 30
0.0
 11
295.7753577212199
 21
-285.9330677005716
 31
0.0
  0
LINE
  8
DETAIL
  6
CONTINUOUS
 62
     5
 10
140.41996449647559
 20
-130.57767447671591
 30
0.0
 11
144.81021021470971
 21
-134.96792019494981
 31
0.0
  0
LINE
  8
DETAIL
  6
CONTINUOUS
 62
     5
 10
295.20887440285321
 20
-286.49955101982732
 30
0.0
 11
300.34262947644368
 21
-291.63330609341813
 31
0.0
  0
LINE
  8
DETAIL
  6
CONTINUOUS
 62
     5
 10
291.3143015881904
 20
-282.60497820516503
 30
0.0
 11
286.12467983952803
 21
-277.41535645650242
 31
0.0
  0
LINE
  8
DETAIL
  6
CONTINUOUS
 62
     5
 10
140.80942177874229
 20
-132.10009839482771
 30
0.0
 11
143.287786296598
 21
-134.57846291357231
 31
0.0
  0
LINE
  8
DETAIL
  6
CONTINUOUS
 62
     5
 10
69.854409184750693
 20
-61.381988029545482
 30
0.0
 11
73.125002149073225
 21
-64.6525809938679
 31
0.0
  0
LINE
  8
DETAIL
  6
CONTINUOUS
 62
     5
 10
-77.183352140848001
 20
84.264393621325894
 30
0.0
 11
-81.602496029107897
 21
88.683537509585904
 31
0.0
  0
LINE
  8
DETAIL
  6
CONTINUOUS
 62
     5
 10
84.264393621326462
 20
-77.183352140848285
 30
0.0
 11
88.683537509586131
 21
-81.602496029108366
 31
0.0
  0
LINE
  8
DETAIL
  6
CONTINUOUS
 62
     5
 10
68.73748091591824
 20
-61.68126805663065
 30
0.0
 11
72.825722121099261
 21
-65.769509261811493
 31
0.0
  0
LINE
  8
DETAIL
  6
CONTINUOUS
 62
     5
 10
294.35914942530241
 20
-287.34927599737802
 30
0.0
 11
299.49290449889298
 21
-292.48303107096882
 31
0.0
  0
LINE
  8
DETAIL
  6
CONTINUOUS
 62
     5
 10
285.90297642579361
 20
-278.89310299786911
 30
0.0
 11
290.46457661064011
 21
-283.45470318271549
 31
0.0
  0
LINE
  8
DETAIL
  6
CONTINUOUS
 62
     5
 10
282.49840494432482
 20
-275.48853151640083
 30
0.0
 11
283.29975823458273
 21
-276.28988480665822
 31
0.0
  0
LINE
  8
DETAIL
  6
CONTINUOUS
 62
     5
 10
285.77877238905131
 20
-279.40583505742109
 30
0.0
 11
303.15312851627391
 21
-296.78019118375511
 31
0.0
  0
LINE
  8
DETAIL
  6
CONTINUOUS
 62
     5
 10
142.11959327089991
 20
-135.74665593927031
 30
0.0
 11
283.22859842055612
 21
-276.85566108803721
 31
0.0
  0
LINE
  8
DETAIL
  6
CONTINUOUS
 62
     5
 10
83.910341547346661
 20
-77.537404214827816
 30
0.0
 11
139.6412287530442
 21
-133.26829142052529
 31
0.0
  0
LINE
  8
DETAIL
  6
CONTINUOUS
 62
     5
 10
-296.78019118375488
 20
303.15312851627363
 30
0.0
 11
-82.494133251428366
 21
88.867070583947338
 31
0.0
  0
LINE
  8
DETAIL
  6
CONTINUOUS
 62
     5
 10
88.158966435988759
 20
-83.202237399387499
 30
0.0
 11
83.202237399387514
 21
-78.245508362786552
 31
0.0
  0
LINE
  8
DETAIL
  6
CONTINUOUS
 62
     5
 10
-83.202237399387045
 20
78.245508362786723
 30
0.0
 11
-88.15896643598829
 21
83.202237399387627
 31
0.0
  0
LINE
  8
DETAIL
  6
CONTINUOUS
 62
     5
 10
-83.91034154823501
 20
77.537404214827802
 30
0.0
 11
-303.15312851716169
 21
296.78019118375488
 31
0.0
  0
LINE
  8
DETAIL
  6
CONTINUOUS
 62
     5
 10
133.26829141963691
 20
-139.64122875304389
 30
0.0
 11
82.494133251428821
 21
-88.867070584836085
 31
0.0
  0
LINE
  8
DETAIL
  6
CONTINUOUS
 62
     5
 10
278.08470265252322
 20
-284.45763998593043
 30
0.0
 11
135.74665593838151
 21
-142.11959327178869
 31
0.0
  0
LINE
  8
DETAIL
  6
CONTINUOUS
 62
     5
 10
296.78019118375522
 20
-303.15312851716232
 30
0.0
 11
280.43801730382171
 21
-286.81095463722852
 31
0.0
  0
LINE
  8
DETAIL
  6
CONTINUOUS
 62
     5
 10
-68.737480916806362
 20
61.681268056630763
 30
0.0
 11
-72.825722121987155
 21
65.769509261811663
 31
0.0
  0
LINE
  8
DETAIL
  6
CONTINUOUS
 62
     5
 10
-84.264393622214115
 20
77.183352140848456
 30
0.0
 11
-88.683537510474466
 21
81.602496029108465
 31
0.0
  0
LINE
  8
DETAIL
  6
CONTINUOUS
 62
     5
 10
77.183352140848683
 20
-84.264393622214584
 30
0.0
 11
81.602496029108579
 21
-88.683537510474608
 31
0.0
  0
LINE
  8
DETAIL
  6
CONTINUOUS
 62
     5
 10
-69.85440918563927
 20
61.381988028656792
 30
0.0
 11
-73.125002149072543
 21
64.65258099297921
 31
0.0
  0
LINE
  8
DETAIL
  6
CONTINUOUS
 62
     5
 10
-46.690679829823686
 20
73.500079798291495
 30
0.0
 11
-61.605060883086708
 21
87.096810213161348
 31
0.0
  0
LINE
  8
DETAIL
  6
CONTINUOUS
 62
     5
 10
87.962979889808366
 20
-45.355282493968389
 30
0.0
 11
78.082672668264195
 21
-39.36555145308165
 31
0.0
  0
LINE
  8
DETAIL
  6
CONTINUOUS
 62
     5
 10
-87.962979890696715
 20
45.355282493968502
 30
0.0
 11
-78.08267266826374
 21
39.365551452192904
 31
0.0
  0
LINE
  8
DETAIL
  6
CONTINUOUS
 62
     5
 10
-76.298797659086645
 20
42.720532394108027
 30
0.0
 11
-86.789507424156454
 21
47.562263216905762
 31
0.0
  0
LINE
  8
DETAIL
  6
CONTINUOUS
 62
     5
 10
93.419165526192046
 20
-32.671807321769514
 30
0.0
 11
82.801403331641268
 21
-28.11544092589099
 31
0.0
  0
LINE
  8
DETAIL
  6
CONTINUOUS
 62
     5
 10
-81.501811972994119
 20
31.686038839241181
 30
0.0
 11
-92.564265565281872
 21
35.0206256624856
 31
0.0
  0
LINE
  8
DETAIL
  6
CONTINUOUS
 62
     5
 10
97.057053367911749
 20
-19.3524125838793
 30
0.0
 11
85.90849886435285
 21
-16.318095322014759
 31
0.0
  0
LINE
  8
DETAIL
  6
CONTINUOUS
 62
     5
 10
-85.118486223470185
 20
20.0348125816048
 30
0.0
 11
-96.537365566796524
 21
21.797351463335929
 31
0.0
  0
LINE
  8
DETAIL
  6
CONTINUOUS
 62
     5
 10
98.805836066619577
 20
-5.656345147179934
 30
0.0
 11
87.343483186539288
 21
-4.2031365533874796
 31
0.0
  0
LINE
  8
DETAIL
  6
CONTINUOUS
 62
     5
 10
-87.078425960896311
 20
7.9936314858638298
 30
0.0
 11
-98.631475557109525
 21
8.1498166136344139
 31
0.0
  0
LINE
  8
DETAIL
  6
CONTINUOUS
 62
     5
 10
98.631475556221858
 20
8.1498166136344139
 30
0.0
 11
87.078425960897221
 21
7.9936314858638298
 31
0.0
  0
LINE
  8
DETAIL
  6
CONTINUOUS
 62
     5
 10
-306.33959718297677
 20
-280.96466082605463
 30
0.0
 11
-301.33254473433271
 21
-278.07383774719881
 31
0.0
  0
LINE
  8
DETAIL
  6
CONTINUOUS
 62
     5
 10
-306.33959718297677
 20
-269.40136850885392
 30
0.0
 11
-311.34664963250998
 21
-272.29219158859871
 31
0.0
  0
LINE
  8
DETAIL
  6
CONTINUOUS
 62
     5
 10
64.273109123718996
 20
70.233881054010908
 30
0.0
 11
65.769509261812118
 21
75.818522397284369
 31
0.0
  0
LINE
  8
DETAIL
  6
CONTINUOUS
 62
     5
 10
63.455460882860727
 20
71.051529294869283
 30
0.0
 11
64.652580992979438
 21
75.519242369310405
 31
0.0
  0
LINE
  8
DETAIL
  6
CONTINUOUS
 62
     5
 10
56.914274954216133
 20
77.592715223514119
 30
0.0
 11
55.717154844097422
 21
73.125002149072884
 31
0.0
  0
LINE
  8
DETAIL
  6
CONTINUOUS
 62
     5
 10
56.096626713356947
 20
78.410363464372494
 30
0.0
 11
54.600226575264742
 21
72.82572212109892
 31
0.0
  0
LINE
  8
DETAIL
  6
CONTINUOUS
 62
     5
 10
4.2031365533875942
 20
-87.34348318742768
 30
0.0
 11
5.6563451462916419
 21
-98.80583606750794
 31
0.0
  0
LINE
  8
DETAIL
  6
CONTINUOUS
 62
     5
 10
-21.797351464224221
 20
96.53736556590809
 30
0.0
 11
-20.034812582493029
 21
85.118486223470427
 31
0.0
  0
LINE
  8
DETAIL
  6
CONTINUOUS
 62
     5
 10
16.318095321126521
 20
-85.908498865241143
 30
0.0
 11
19.352412582991061
 21
-97.057053368799998
 31
0.0
  0
LINE
  8
DETAIL
  6
CONTINUOUS
 62
     5
 10
-35.020625662484917
 20
92.564265564393764
 30
0.0
 11
-31.68603884012941
 21
81.501811972105884
 31
0.0
  0
LINE
  8
DETAIL
  6
CONTINUOUS
 62
     5
 10
28.115440925002531
 20
-82.801403332529844
 30
0.0
 11
32.671807320880824
 21
-93.41916552708075
 31
0.0
  0
LINE
  8
DETAIL
  6
CONTINUOUS
 62
     5
 10
-47.56226321779377
 20
86.789507424156568
 30
0.0
 11
-42.720532394107522
 21
76.298797658198509
 31
0.0
  0
LINE
  8
DETAIL
  6
CONTINUOUS
 62
     5
 10
39.365551452193358
 20
-78.082672668263797
 30
0.0
 11
45.355282493968161
 21
-87.962979890696815
 31
0.0
  0
LINE
  8
DETAIL
  6
CONTINUOUS
 62
     5
 10
-73.500079798290912
 20
46.690679828934996
 30
0.0
 11
-87.096810214049796
 21
61.605060883087049
 31
0.0
  0
LINE
  8
DETAIL
  6
CONTINUOUS
 62
     5
 10
-90.2832788807534
 20
71.164466881420481
 30
0.0
 11
-95.24000791735422
 21
76.121195918021385
 31
0.0
  0
LINE
  8
DETAIL
  6
CONTINUOUS
 62
     5
 10
71.164466881420822
 20
-90.283278880753713
 30
0.0
 11
76.12119591802184
 21
-95.240007917354603
 31
0.0
  0
LINE
  8
DETAIL
  6
CONTINUOUS
 62
     5
 10
-78.789835334521513
 20
58.987747808419392
 30
0.0
 11
-75.519242370198754
 21
55.717154844096967
 31
0.0
  0
LINE
  8
DETAIL
  6
CONTINUOUS
 62
     5
 10
293.23967044307187
 20
-313.06658659036401
 30
0.0
 11
290.05320177636833
 21
-309.88011792366052
 31
0.0
  0
LINE
  8
DETAIL
  6
CONTINUOUS
 62
     5
 10
-313.06658659036327
 20
293.2396704430717
 30
0.0
 11
-309.88011792366052
 21
290.05320177636838
 31
0.0
  0
LINE
  8
DETAIL
  6
CONTINUOUS
 62
     5
 10
257.85239946869638
 20
-279.05383463177452
 30
0.0
 11
266.41445915638423
 21
-287.61589431946283
 31
0.0
  0
LINE
  8
DETAIL
  6
CONTINUOUS
 62
     5
 10
-79.906763602464721
 20
58.688467780445308
 30
0.0
 11
-75.818522397283687
 21
54.600226575264507
 31
0.0
  0
LINE
  8
DETAIL
  6
CONTINUOUS
 62
     5
 10
70.88122522223739
 20
-92.832453813405706
 30
0.0
 11
70.17312107427847
 21
-92.124349665446871
 31
0.0
  0
LINE
  8
DETAIL
  6
CONTINUOUS
 62
     5
 10
291.82346214715437
 20
-314.48279488628191
 30
0.0
 11
288.63699348045111
 21
-311.29632621957802
 31
0.0
  0
LINE
  8
DETAIL
  6
CONTINUOUS
 62
     5
 10
-314.48279488628151
 20
291.82346214715409
 30
0.0
 11
-311.29632621957762
 21
288.63699348045049
 31
0.0
  0
LINE
  8
DETAIL
  6
CONTINUOUS
 62
     5
 10
260.43250541837398
 20
-283.33339053655311
 30
0.0
 11
267.31720253537082
 21
-290.21808765443882
 31
0.0
  0
LINE
  8
DETAIL
  6
CONTINUOUS
 62
     5
 10
259.86602210000677
 20
-283.89987385492032
 30
0.0
 11
263.74648774763932
 21
-287.78033950344172
 31
0.0
  0
LINE
  8
DETAIL
  6
CONTINUOUS
 62
     5
 10
253.73238284946251
 20
-277.76623460526451
 30
0.0
 11
256.43619117189002
 21
-280.47004292769242
 31
0.0
  0
LINE
  8
DETAIL
  6
CONTINUOUS
 62
     5
 10
124.239784712949
 20
-148.66973545973161
 30
0.0
 11
126.7181492316943
 21
-151.14809997847641
 31
0.0
  0
LINE
  8
DETAIL
  6
CONTINUOUS
 62
     5
 10
259.01629712156722
 20
-284.74959883335993
 30
0.0
 11
262.8967627700888
 21
-288.63006448099242
 31
0.0
  0
LINE
  8
DETAIL
  6
CONTINUOUS
 62
     5
 10
255.58646619433941
 20
-281.31976790524311
 30
0.0
 11
252.88265787191199
 21
-278.61595958281509
 31
0.0
  0
LINE
  8
DETAIL
  6
CONTINUOUS
 62
     5
 10
68.756912778360402
 20
-94.956766258171058
 30
0.0
 11
68.048808630401936
 21
-94.24866211021218
 31
0.0
  0
LINE
  8
DETAIL
  6
CONTINUOUS
 62
     5
 10
260.87823424123292
 20
-287.74450258887032
 30
0.0
 11
255.0199828759726
 21
-281.88625122360997
 31
0.0
  0
LINE
  8
DETAIL
  6
CONTINUOUS
 62
     5
 10
65.145581622881537
 20
-96.30216413929287
 30
0.0
 11
58.772644290363132
 21
-89.929226806774366
 31
0.0
  0
LINE
  8
DETAIL
  6
CONTINUOUS
 62
     5
 10
-96.302164139292699
 20
65.145581622881309
 30
0.0
 11
-89.929226806774295
 21
58.772644290362791
 31
0.0
  0
LINE
  8
DETAIL
  6
CONTINUOUS
 62
     5
 10
-307.75580547978348
 20
258.18851511288642
 30
0.0
 11
-348.82584606850747
 21
299.25855570161099
 31
0.0
  0
LINE
  8
DETAIL
  6
CONTINUOUS
 62
     5
 10
289.27106381279299
 20
-338.83835417880113
 30
0.0
 11
299.25855570161121
 21
-348.82584606850833
 31
0.0
  0
LINE
  8
DETAIL
  6
CONTINUOUS
 62
     5
 10
258.18851511288682
 20
-307.75580547978382
 30
0.0
 11
284.1055841730992
 21
-333.67287453910791
 31
0.0
  0
LINE
  8
DETAIL
  6
CONTINUOUS
 62
     5
 10
61.605060883087617
 20
-87.096810214050052
 30
0.0
 11
45.512960126386787
 21
-72.522114352018448
 31
0.0
  0
LINE
  8
DETAIL
  6
CONTINUOUS
 62
     5
 10
76.298797658198509
 20
-42.72053239410792
 30
0.0
 11
86.789507424156909
 21
-47.562263217794452
 31
0.0
  0
LINE
  8
DETAIL
  6
CONTINUOUS
 62
     5
 10
-93.419165527080864
 20
32.67180732088076
 30
0.0
 11
-82.801403332529389
 21
28.11544092500219
 31
0.0
  0
LINE
  8
DETAIL
  6
CONTINUOUS
 62
     5
 10
81.501811972105997
 20
-31.686038840129871
 30
0.0
 11
92.564265564393963
 21
-35.020625662485493
 31
0.0
  0
LINE
  8
DETAIL
  6
CONTINUOUS
 62
     5
 10
-97.057053368799657
 20
19.35241258299061
 30
0.0
 11
-85.908498865240972
 21
16.318095321126009
 31
0.0
  0
LINE
  8
DETAIL
  6
CONTINUOUS
 62
     5
 10
85.118486223470427
 20
-20.03481258249354
 30
0.0
 11
96.537365565908658
 21
-21.797351464224558
 31
0.0
  0
LINE
  8
DETAIL
  6
CONTINUOUS
 62
     5
 10
-98.805836067507684
 20
5.6563451462911871
 30
0.0
 11
-87.343483187427864
 21
4.2031365533875942
 31
0.0
  0
LINE
  8
DETAIL
  6
CONTINUOUS
 62
     5
 10
87.078425960897221
 20
-7.9936314867525198
 30
0.0
 11
98.631475556221858
 21
-8.1498166136342434
 31
0.0
  0
LINE
  8
DETAIL
  6
CONTINUOUS
 62
     5
 10
-98.631475557109525
 20
-8.1498166136342434
 30
0.0
 11
-87.078425960896311
 21
-7.9936314867525198
 31
0.0
  0
LINE
  8
DETAIL
  6
CONTINUOUS
 62
     5
 10
-87.343483187427864
 20
-4.2031365533874796
 30
0.0
 11
-98.805836067507684
 21
-5.656345147179934
 31
0.0
  0
LINE
  8
DETAIL
  6
CONTINUOUS
 62
     5
 10
87.343483186539288
 20
4.2031365533875942
 30
0.0
 11
98.805836066619577
 21
5.6563451462911871
 31
0.0
  0
LINE
  8
DETAIL
  6
CONTINUOUS
 62
     5
 10
96.537365565908658
 20
21.797351463335929
 30
0.0
 11
85.118486223470427
 21
20.0348125816048
 31
0.0
  0
LINE
  8
DETAIL
  6
CONTINUOUS
 62
     5
 10
-96.537365566796524
 20
-21.797351464224558
 30
0.0
 11
-85.118486223470185
 21
-20.03481258249354
 31
0.0
  0
LINE
  8
DETAIL
  6
CONTINUOUS
 62
     5
 10
-85.908498865240972
 20
-16.318095322014759
 30
0.0
 11
-97.057053368799657
 21
-19.3524125838793
 31
0.0
  0
LINE
  8
DETAIL
  6
CONTINUOUS
 62
     5
 10
85.90849886435285
 20
16.318095321126009
 30
0.0
 11
97.057053367911749
 21
19.35241258299061
 31
0.0
  0
LINE
  8
DETAIL
  6
CONTINUOUS
 62
     5
 10
-61.605060883086708
 20
-87.096810214050052
 30
0.0
 11
-46.690679829823686
 21
-73.500079798291324
 31
0.0
  0
LINE
  8
DETAIL
  6
CONTINUOUS
 62
     5
 10
307.75580547889541
 20
258.18851511288642
 30
0.0
 11
348.82584606761992
 21
299.25855570161099
 31
0.0
  0
LINE
  8
DETAIL
  6
CONTINUOUS
 62
     5
 10
-299.25855570249928
 20
-348.82584606850833
 30
0.0
 11
-258.18851511377488
 21
-307.75580547978382
 31
0.0
  0
LINE
  8
DETAIL
  6
CONTINUOUS
 62
     5
 10
-65.145581623769431
 20
-96.30216413929287
 30
0.0
 11
-58.772644291251247
 21
-89.929226806774366
 31
0.0
  0
LINE
  8
DETAIL
  6
CONTINUOUS
 62
     5
 10
96.302164138404606
 20
65.145581622881309
 30
0.0
 11
89.929226805886401
 21
58.772644290362791
 31
0.0
  0
LINE
  8
DETAIL
  6
CONTINUOUS
 62
     5
 10
-291.82346214804278
 20
-314.48279488628191
 30
0.0
 11
-288.63699348133878
 21
-311.29632621957802
 31
0.0
  0
LINE
  8
DETAIL
  6
CONTINUOUS
 62
     5
 10
314.48279488539328
 20
291.82346214715409
 30
0.0
 11
311.29632621957842
 21
288.63699348045049
 31
0.0
  0
LINE
  8
DETAIL
  6
CONTINUOUS
 62
     5
 10
-293.23967044396022
 20
-313.06658659036401
 30
0.0
 11
-290.05320177725628
 21
-309.88011792366052
 31
0.0
  0
LINE
  8
DETAIL
  6
CONTINUOUS
 62
     5
 10
313.06658658947538
 20
293.2396704430717
 30
0.0
 11
309.88011792277177
 21
290.05320177636838
 31
0.0
  0
LINE
  8
DETAIL
  6
CONTINUOUS
 62
     5
 10
90.283278879865293
 20
71.164466881420481
 30
0.0
 11
95.240007916466084
 21
76.121195918021385
 31
0.0
  0
LINE
  8
DETAIL
  6
CONTINUOUS
 62
     5
 10
-76.121195918909962
 20
-95.240007917354603
 30
0.0
 11
-71.164466882308943
 21
-90.283278880753713
 31
0.0
  0
LINE
  8
DETAIL
  6
CONTINUOUS
 62
     5
 10
73.500079798291836
 20
46.690679828934996
 30
0.0
 11
87.096810213161916
 21
61.605060883087049
 31
0.0
  0
LINE
  8
DETAIL
  6
CONTINUOUS
 62
     5
 10
-45.355282493967927
 20
-87.962979890696815
 30
0.0
 11
-39.36555145308148
 21
-78.082672668263797
 31
0.0
  0
LINE
  8
DETAIL
  6
CONTINUOUS
 62
     5
 10
42.720532394108893
 20
76.298797658198509
 30
0.0
 11
47.562263216905649
 21
86.789507424156568
 31
0.0
  0
LINE
  8
DETAIL
  6
CONTINUOUS
 62
     5
 10
-42.720532394107522
 20
-76.298797659087185
 30
0.0
 11
-47.56226321779377
 21
-86.789507424156511
 31
0.0
  0
LINE
  8
DETAIL
  6
CONTINUOUS
 62
     5
 10
-32.671807321769172
 20
-93.41916552708075
 30
0.0
 11
-28.115440925890649
 21
-82.801403332529844
 31
0.0
  0
LINE
  8
DETAIL
  6
CONTINUOUS
 62
     5
 10
32.671807320880824
 20
93.419165526191932
 30
0.0
 11
28.115440925002531
 21
82.801403331641154
 31
0.0
  0
LINE
  8
DETAIL
  6
CONTINUOUS
 62
     5
 10
31.686038839241519
 20
81.501811972105884
 30
0.0
 11
35.020625661597251
 21
92.564265564393764
 31
0.0
  0
LINE
  8
DETAIL
  6
CONTINUOUS
 62
     5
 10
-31.68603884012941
 20
-81.501811972994631
 30
0.0
 11
-35.020625662484917
 21
-92.564265565282426
 31
0.0
  0
LINE
  8
DETAIL
  6
CONTINUOUS
 62
     5
 10
-19.35241258387919
 20
-97.057053368799998
 30
0.0
 11
-16.318095322014411
 21
-85.908498865241143
 31
0.0
  0
LINE
  8
DETAIL
  6
CONTINUOUS
 62
     5
 10
19.352412582991061
 20
97.057053367911294
 30
0.0
 11
16.318095321126521
 21
85.908498864352509
 31
0.0
  0
LINE
  8
DETAIL
  6
CONTINUOUS
 62
     5
 10
20.034812581604911
 20
85.118486223470427
 30
0.0
 11
21.79735146333633
 21
96.53736556590809
 31
0.0
  0
LINE
  8
DETAIL
  6
CONTINUOUS
 62
     5
 10
-20.034812582493029
 20
-85.118486223470214
 30
0.0
 11
-21.797351464224221
 21
-96.537365566796893
 31
0.0
  0
LINE
  8
DETAIL
  6
CONTINUOUS
 62
     5
 10
-5.6563451471799908
 20
-98.80583606750794
 30
0.0
 11
-4.2031365542757158
 21
-87.34348318742768
 31
0.0
  0
LINE
  8
DETAIL
  6
CONTINUOUS
 62
     5
 10
5.6563451462916419
 20
98.805836066619236
 30
0.0
 11
4.2031365533875942
 21
87.343483186538947
 31
0.0
  0
LINE
  8
DETAIL
  6
CONTINUOUS
 62
     5
 10
7.9936314858643982
 20
87.078425960896766
 30
0.0
 11
8.1498166136345844
 21
98.631475556221403
 31
0.0
  0
LINE
  8
DETAIL
  6
CONTINUOUS
 62
     5
 10
-7.9936314867522924
 20
-87.078425960896524
 30
0.0
 11
-8.1498166136343571
 21
-98.631475557110136
 31
0.0
  0
LINE
  8
DETAIL
  6
CONTINUOUS
 62
     5
 10
8.1498166136345844
 20
-98.631475557110136
 30
0.0
 11
7.9936314858643982
 21
-87.078425960896524
 31
0.0
  0
LINE
  8
DETAIL
  6
CONTINUOUS
 62
     5
 10
-8.1498166136343571
 20
98.631475556221403
 30
0.0
 11
-7.9936314867522924
 21
87.078425960896766
 31
0.0
  0
LINE
  8
DETAIL
  6
CONTINUOUS
 62
     5
 10
77.476565302024255
 20
-60.184867919426779
 30
0.0
 11
71.16767921635892
 21
-60.184867919426779
 31
0.0
  0
LINE
  8
DETAIL
  6
CONTINUOUS
 62
     5
 10
-58.688467781334111
 20
-68.737480916806817
 30
0.0
 11
-64.273109124607117
 21
-70.233881054899541
 31
0.0
  0
LINE
  8
DETAIL
  6
CONTINUOUS
 62
     5
 10
-58.987747809307848
 20
-69.85440918563927
 30
0.0
 11
-63.45546088286028
 21
-71.051529295757973
 31
0.0
  0
LINE
  8
DETAIL
  6
CONTINUOUS
 62
     5
 10
-92.564265565281872
 20
-35.020625662485493
 30
0.0
 11
-81.501811972994119
 21
-31.686038840129871
 31
0.0
  0
LINE
  8
DETAIL
  6
CONTINUOUS
 62
     5
 10
82.801403331641268
 20
28.11544092500219
 30
0.0
 11
93.419165526192046
 21
32.67180732088076
 31
0.0
  0
LINE
  8
DETAIL
  6
CONTINUOUS
 62
     5
 10
-82.801403332529389
 20
-28.11544092589099
 30
0.0
 11
-93.419165527080864
 21
-32.671807321769514
 31
0.0
  0
LINE
  8
DETAIL
  6
CONTINUOUS
 62
     5
 10
-86.789507424156454
 20
-47.562263217794452
 30
0.0
 11
-76.298797659086645
 21
-42.72053239410792
 31
0.0
  0
LINE
  8
DETAIL
  6
CONTINUOUS
 62
     5
 10
86.789507424156909
 20
47.562263216905762
 30
0.0
 11
76.298797658198509
 21
42.720532394108027
 31
0.0
  0
LINE
  8
DETAIL
  6
CONTINUOUS
 62
     5
 10
78.082672668264195
 20
39.365551452192904
 30
0.0
 11
87.962979889808366
 21
45.355282493968502
 31
0.0
  0
LINE
  8
DETAIL
  6
CONTINUOUS
 62
     5
 10
-78.08267266826374
 20
-39.36555145308165
 30
0.0
 11
-87.962979890696715
 21
-45.355282493968389
 31
0.0
  0
LINE
  8
DETAIL
  6
CONTINUOUS
 62
     5
 10
46.69067982893489
 20
73.500079798291495
 30
0.0
 11
61.605060883087617
 21
87.096810213161348
 31
0.0
  0
LINE
  8
DETAIL
  6
CONTINUOUS
 62
     5
 10
84.264393621326462
 20
77.183352140848456
 30
0.0
 11
88.683537509586131
 21
81.602496029108465
 31
0.0
  0
LINE
  8
DETAIL
  6
CONTINUOUS
 62
     5
 10
-77.183352140848001
 20
-84.264393622214584
 30
0.0
 11
-81.602496029107897
 21
-88.683537510474608
 31
0.0
  0
LINE
  8
DETAIL
  6
CONTINUOUS
 62
     5
 10
-77.53740421482712
 20
-83.910341548235181
 30
0.0
 11
-296.78019118375488
 21
-303.15312851716232
 31
0.0
  0
LINE
  8
DETAIL
  6
CONTINUOUS
 62
     5
 10
303.15312851627391
 20
296.78019118375488
 30
0.0
 11
88.867070583947452
 21
82.494133251428707
 31
0.0
  0
LINE
  8
DETAIL
  6
CONTINUOUS
 62
     5
 10
-83.202237399387045
 20
-88.15896643598829
 30
0.0
 11
-78.245508362786495
 21
-83.202237399387499
 31
0.0
  0
LINE
  8
DETAIL
  6
CONTINUOUS
 62
     5
 10
78.245508362787177
 20
83.202237399387627
 30
0.0
 11
83.202237399387514
 21
88.158966435988418
 31
0.0
  0
LINE
  8
DETAIL
  6
CONTINUOUS
 62
     5
 10
77.537404214828257
 20
83.910341547346434
 30
0.0
 11
296.78019118375522
 21
303.15312851627363
 31
0.0
  0
LINE
  8
DETAIL
  6
CONTINUOUS
 62
     5
 10
-303.15312851716169
 20
-296.78019118375511
 30
0.0
 11
-88.867070584835105
 21
-82.494133251428593
 31
0.0
  0
LINE
  8
DETAIL
  6
CONTINUOUS
 62
     5
 10
77.183352140848683
 20
84.264393621325894
 30
0.0
 11
81.602496029108579
 21
88.683537509585904
 31
0.0
  0
LINE
  8
DETAIL
  6
CONTINUOUS
 62
     5
 10
-84.264393622214115
 20
-77.183352140848285
 30
0.0
 11
-88.683537510474466
 21
-81.602496029108366
 31
0.0
  0
LINE
  8
DETAIL
  6
CONTINUOUS
 62
     5
 10
71.164466881420822
 20
90.283278879864952
 30
0.0
 11
76.12119591802184
 21
95.24000791646597
 31
0.0
  0
LINE
  8
DETAIL
  6
CONTINUOUS
 62
     5
 10
-90.2832788807534
 20
-71.164466882309156
 30
0.0
 11
-95.24000791735422
 21
-76.121195918910061
 31
0.0
  0
LINE
  8
DETAIL
  6
CONTINUOUS
 62
     5
 10
-313.06658659036327
 20
-293.23967044396062
 30
0.0
 11
-309.88011792366052
 21
-290.05320177725702
 31
0.0
  0
LINE
  8
DETAIL
  6
CONTINUOUS
 62
     5
 10
293.23967044307187
 20
313.06658658947521
 30
0.0
 11
290.05320177636833
 21
309.88011792277149
 31
0.0
  0
LINE
  8
DETAIL
  6
CONTINUOUS
 62
     5
 10
-314.48279488628151
 20
-291.82346214804278
 30
0.0
 11
-311.29632621957762
 21
-288.63699348133912
 31
0.0
  0
LINE
  8
DETAIL
  6
CONTINUOUS
 62
     5
 10
291.82346214715437
 20
314.48279488539288
 30
0.0
 11
288.63699348045111
 21
311.29632621957808
 31
0.0
  0
LINE
  8
DETAIL
  6
CONTINUOUS
 62
     5
 10
-96.302164139292699
 20
-65.145581623770013
 30
0.0
 11
-89.929226806774295
 21
-58.772644291251481
 31
0.0
  0
LINE
  8
DETAIL
  6
CONTINUOUS
 62
     5
 10
65.145581622881537
 20
96.302164138404237
 30
0.0
 11
58.772644290363132
 21
89.929226805885605
 31
0.0
  0
LINE
  8
DETAIL
  6
CONTINUOUS
 62
     5
 10
-87.096810214049796
 20
-61.605060883086892
 30
0.0
 11
-73.500079798290912
 21
-46.690679829823686
 31
0.0
  0
LINE
  8
DETAIL
  6
CONTINUOUS
 62
     5
 10
45.355282493968161
 20
87.962979889808025
 30
0.0
 11
39.365551452193358
 21
78.082672668263967
 31
0.0
  0
LINE
  8
DETAIL
  6
CONTINUOUS
 62
     5
 10
-56.096626714245758
 20
-78.410363464372395
 30
0.0
 11
-54.600226576152863
 21
-72.825722121987653
 31
0.0
  0
LINE
  8
DETAIL
  6
CONTINUOUS
 62
     5
 10
-56.91427495510402
 20
-77.592715223514077
 30
0.0
 11
-55.717154844985536
 21
-73.125002149073012
 31
0.0
  0
LINE
  8
DETAIL
  6
CONTINUOUS
 62
     5
 10
-63.45546088286028
 20
-71.051529295757973
 30
0.0
 11
-64.652580993867332
 21
-75.519242370199095
 31
0.0
  0
LINE
  8
DETAIL
  6
CONTINUOUS
 62
     5
 10
-64.273109124607117
 20
-70.233881054899541
 30
0.0
 11
-65.769509261811436
 21
-75.818522397284241
 31
0.0
  0
LINE
  8
DETAIL
  6
CONTINUOUS
 62
     5
 10
-60.184867919426097
 20
-77.476565302912846
 30
0.0
 11
-60.184867919426097
 21
-71.167679217247965
 31
0.0
  0
LINE
  8
DETAIL
  6
CONTINUOUS
 62
     5
 10
-54.600226576152863
 20
-72.825722121987653
 30
0.0
 11
-58.688467781334111
 21
-68.737480916806817
 31
0.0
  0
LINE
  8
DETAIL
  6
CONTINUOUS
 62
     5
 10
-55.717154844985536
 20
-73.125002149073012
 30
0.0
 11
-58.987747809307848
 21
-69.85440918563927
 31
0.0
  0
LINE
  8
DETAIL
  6
CONTINUOUS
 62
     5
 10
-64.652580993867332
 20
-75.519242370199095
 30
0.0
 11
-61.381988029545248
 21
-78.789835333632666
 31
0.0
  0
LINE
  8
DETAIL
  6
CONTINUOUS
 62
     5
 10
-65.769509261811436
 20
-75.818522397284241
 30
0.0
 11
-61.681268056630422
 21
-79.906763602465034
 31
0.0
  0
LINE
  8
DETAIL
  6
CONTINUOUS
 62
     5
 10
-58.772644291251247
 20
-89.929226806774366
 30
0.0
 11
-89.929226806774295
 21
-58.772644291251481
 31
0.0
  0
LINE
  8
DETAIL
  6
CONTINUOUS
 62
     5
 10
-96.302164139292699
 20
-65.145581623770013
 30
0.0
 11
-65.145581623769431
 21
-96.30216413929287
 31
0.0
  0
LINE
  8
DETAIL
  6
CONTINUOUS
 62
     5
 10
-57.03042487659377
 20
-74.322122260080391
 30
0.0
 11
-63.339310962259113
 21
-74.322122260080391
 31
0.0
  0
LINE
  8
DETAIL
  6
CONTINUOUS
 62
     5
 10
62.337900471286282
 20
-74.322122260080391
 30
0.0
 11
58.031835334681318
 21
-74.322122260080391
 31
0.0
  0
LINE
  8
DETAIL
  6
CONTINUOUS
 62
     5
 10
-61.381988029545248
 20
-78.789835333632666
 30
0.0
 11
-56.91427495510402
 21
-77.592715223514077
 31
0.0
  0
LINE
  8
DETAIL
  6
CONTINUOUS
 62
     5
 10
-61.681268056630422
 20
-79.906763602465034
 30
0.0
 11
-56.096626714245758
 21
-78.410363464372395
 31
0.0
  0
LINE
  8
DETAIL
  6
CONTINUOUS
 62
     5
 10
75.818522397284823
 20
-54.600226576153197
 30
0.0
 11
70.233881054010908
 21
-56.096626714245943
 31
0.0
  0
LINE
  8
DETAIL
  6
CONTINUOUS
 62
     5
 10
75.519242369310859
 20
-55.717154844985707
 30
0.0
 11
71.051529294869852
 21
-56.914274955104361
 31
0.0
  0
LINE
  8
DETAIL
  6
CONTINUOUS
 62
     5
 10
73.125002149073225
 20
-64.6525809938679
 30
0.0
 11
77.592715223514233
 21
-63.455460882860507
 31
0.0
  0
LINE
  8
DETAIL
  6
CONTINUOUS
 62
     5
 10
72.825722121099261
 20
-65.769509261811493
 30
0.0
 11
78.410363464373177
 21
-64.273109124607629
 31
0.0
  0
LINE
  8
DETAIL
  6
CONTINUOUS
 62
     5
 10
92.564265564393963
 20
35.0206256624856
 30
0.0
 11
81.501811972105997
 21
31.686038839241181
 31
0.0
  0
LINE
  8
DETAIL
  6
CONTINUOUS
 62
     5
 10
258.18851511288682
 20
307.75580547889513
 30
0.0
 11
299.25855570161121
 21
348.82584606761969
 31
0.0
  0
LINE
  8
DETAIL
  6
CONTINUOUS
 62
     5
 10
-348.82584606850747
 20
-299.25855570250002
 30
0.0
 11
-307.75580547978348
 21
-258.18851511377511
 31
0.0
  0
LINE
  8
DETAIL
  6
CONTINUOUS
 62
     5
 10
-70.233881054899257
 20
56.096626713357303
 30
0.0
 11
-68.737480916806362
 21
61.681268056630763
 31
0.0
  0
LINE
  8
DETAIL
  6
CONTINUOUS
 62
     5
 10
-71.051529295757973
 20
56.914274954215671
 30
0.0
 11
-69.85440918563927
 21
61.381988028656792
 31
0.0
  0
LINE
  8
DETAIL
  6
CONTINUOUS
 62
     5
 10
-74.322122260080505
 20
57.030424875705648
 30
0.0
 11
-74.322122260080505
 21
63.339310961370529
 31
0.0
  0
LINE
  8
DETAIL
  6
CONTINUOUS
 62
     5
 10
-83.202237399387045
 20
-88.158966436877236
 30
0.0
 11
-95.24000791735422
 21
-76.121195918910061
 31
0.0
  0
LINE
  8
DETAIL
  6
CONTINUOUS
 62
     5
 10
-76.121195918909962
 20
-95.240007917354603
 30
0.0
 11
-82.494133251428366
 21
-88.867070584836085
 31
0.0
  0
LINE
  8
DETAIL
  6
CONTINUOUS
 62
     5
 10
277.68654082111527
 20
-302.0033625238076
 30
0.0
 11
275.18301466745442
 21
-300.55795102437702
 31
0.0
  0
LINE
  8
DETAIL
  6
CONTINUOUS
 62
     5
 10
270.17596221792172
 20
-309.23042026272202
 30
0.0
 11
275.18301466745442
 21
-312.12124334157761
 31
0.0
  0
LINE
  8
DETAIL
  6
CONTINUOUS
 62
     5
 10
306.33959718297763
 20
269.40136850885398
 30
0.0
 11
311.34664963162157
 21
272.29219158770968
 31
0.0
  0
LINE
  8
DETAIL
  6
CONTINUOUS
 62
     5
 10
-77.592715223513338
 20
63.455460882860507
 30
0.0
 11
-78.789835334521513
 21
58.987747808419392
 31
0.0
  0
LINE
  8
DETAIL
  6
CONTINUOUS
 62
     5
 10
-78.410363464372494
 20
64.273109123718882
 30
0.0
 11
-79.906763602464721
 21
58.688467780445308
 31
0.0
  0
LINE
  8
DETAIL
  6
CONTINUOUS
 62
     5
 10
292.66224383293792
 20
-306.77407138591718
 30
0.0
 11
281.19769179675973
 21
-302.60131569477869
 31
0.0
  0
LINE
  8
DETAIL
  6
CONTINUOUS
 62
     5
 10
306.33959718297763
 20
280.96466082516588
 30
0.0
 11
301.33254473344482
 21
278.07383774631012
 31
0.0
  0
LINE
  8
DETAIL
  6
CONTINUOUS
 62
     5
 10
-89.929226806774295
 20
58.772644290362791
 30
0.0
 11
-58.772644291251247
 21
89.929226805885605
 31
0.0
  0
LINE
  8
DETAIL
  6
CONTINUOUS
 62
     5
 10
-65.145581623769431
 20
96.302164138404237
 30
0.0
 11
-96.302164139292699
 21
65.145581622881309
 31
0.0
  0
LINE
  8
DETAIL
  6
CONTINUOUS
 62
     5
 10
-88.158966436876881
 20
83.202237399387627
 30
0.0
 11
-76.121195918909962
 21
95.24000791646597
 31
0.0
  0
LINE
  8
DETAIL
  6
CONTINUOUS
 62
     5
 10
-95.24000791735422
 20
76.121195918021385
 30
0.0
 11
-88.867070584835105
 21
82.494133251428707
 31
0.0
  0
LINE
  8
DETAIL
  6
CONTINUOUS
 62
     5
 10
280.78668872546712
 20
-303.73053735255661
 30
0.0
 11
292.25124076253411
 21
-307.90329304280613
 31
0.0
  0
LINE
  8
DETAIL
  6
CONTINUOUS
 62
     5
 10
305.43019938506791
 20
-246.1507445966968
 30
0.0
 11
311.93936756839452
 21
-246.1507445966968
 31
0.0
  0
LINE
  8
DETAIL
  6
CONTINUOUS
 62
     5
 10
-311.93936756928258
 20
-246.1507445966968
 30
0.0
 11
-305.43019938595631
 21
-246.1507445966968
 31
0.0
  0
LINE
  8
DETAIL
  6
CONTINUOUS
 62
     5
 10
-246.15074459669631
 20
-305.43019938595643
 30
0.0
 11
-246.15074459669631
 21
-311.93936756928281
 31
0.0
  0
LINE
  8
DETAIL
  6
CONTINUOUS
 62
     5
 10
-246.15074459669631
 20
311.93936756839389
 30
0.0
 11
-246.15074459669631
 21
305.43019938506768
 31
0.0
  0
LINE
  8
DETAIL
  6
CONTINUOUS
 62
     5
 10
-300.57411717344172
 20
-258.18851511377511
 30
0.0
 11
-307.75580547978348
 21
-258.18851511377511
 31
0.0
  0
LINE
  8
DETAIL
  6
CONTINUOUS
 62
     5
 10
307.75580547889541
 20
-258.18851511377511
 30
0.0
 11
300.57411717344257
 21
-258.18851511377511
 31
0.0
  0
LINE
  8
DETAIL
  6
CONTINUOUS
 62
     5
 10
-258.18851511377488
 20
300.57411717344218
 30
0.0
 11
-258.18851511377488
 21
307.75580547889513
 31
0.0
  0
LINE
  8
DETAIL
  6
CONTINUOUS
 62
     5
 10
-258.18851511377488
 20
-307.75580547978382
 30
0.0
 11
-258.18851511377488
 21
-300.574117173442
 31
0.0
  0
LINE
  8
DETAIL
  6
CONTINUOUS
 62
     5
 10
-270.17596221880967
 20
303.44877410323278
 30
0.0
 11
-270.17596221880967
 21
309.23042026183299
 31
0.0
  0
LINE
  8
DETAIL
  6
CONTINUOUS
 62
     5
 10
-280.19006711698722
 20
309.23042026183299
 30
0.0
 11
-280.19006711698722
 21
303.44877410323278
 31
0.0
  0
LINE
  8
DETAIL
  6
CONTINUOUS
 62
     5
 10
209.79549761000999
 20
-302.92667316118991
 30
0.0
 11
179.26581939439711
 21
-302.92667316118991
 31
0.0
  0
LINE
  8
DETAIL
  6
CONTINUOUS
 62
     5
 10
-301.33254473433271
 20
-278.07383774719881
 30
0.0
 11
-301.33254473433271
 21
-272.29219158859871
 31
0.0
  0
LINE
  8
DETAIL
  6
CONTINUOUS
 62
     5
 10
-311.34664963250998
 20
-272.29219158859871
 30
0.0
 11
-311.34664963250998
 21
-278.07383774719881
 31
0.0
  0
LINE
  8
DETAIL
  6
CONTINUOUS
 62
     5
 10
-295.23566660839651
 20
-318.33100270428218
 30
0.0
 11
-289.94127575366042
 21
-339.50856611966952
 31
0.0
  0
LINE
  8
DETAIL
  6
CONTINUOUS
 62
     5
 10
-339.50856611966873
 20
-289.94127575366082
 30
0.0
 11
-318.33100270428213
 21
-295.23566660839663
 31
0.0
  0
LINE
  8
DETAIL
  6
CONTINUOUS
 62
     5
 10
83.369849943715963
 20
-341.98168226292512
 30
0.0
 11
216.10842990216611
 21
-341.98168226292512
 31
0.0
  0
LINE
  8
DETAIL
  6
CONTINUOUS
 62
     5
 10
-216.10842990305429
 20
-341.98168226292512
 30
0.0
 11
-83.369849944604539
 21
-341.98168226292512
 31
0.0
  0
LINE
  8
DETAIL
  6
CONTINUOUS
 62
     5
 10
299.25855570161121
 20
-348.82584606850833
 30
0.0
 11
319.18611867299012
 21
-348.82584606850833
 31
0.0
  0
LINE
  8
DETAIL
  6
CONTINUOUS
 62
     5
 10
-319.18611867387813
 20
-348.82584606850833
 30
0.0
 11
-299.25855570249928
 21
-348.82584606850833
 31
0.0
  0
LINE
  8
DETAIL
  6
CONTINUOUS
 62
     5
 10
289.56502663815701
 20
-351.99578716110233
 30
0.0
 11
314.94359903775847
 21
-351.99578716110233
 31
0.0
  0
LINE
  8
DETAIL
  6
CONTINUOUS
 62
     5
 10
272.90773198567081
 20
-351.99578716110233
 30
0.0
 11
286.17042817946162
 21
-351.99578716110233
 31
0.0
  0
LINE
  8
DETAIL
  6
CONTINUOUS
 62
     5
 10
1.6523941380801259
 20
-351.99578716110233
 30
0.0
 11
272.90773198567081
 21
-351.99578716110233
 31
0.0
  0
LINE
  8
DETAIL
  6
CONTINUOUS
 62
     5
 10
-272.90773198655921
 20
-351.99578716110233
 30
0.0
 11
-1.652394138967793
 21
-351.99578716110233
 31
0.0
  0
LINE
  8
DETAIL
  6
CONTINUOUS
 62
     5
 10
-314.94359903864688
 20
-351.99578716110233
 30
0.0
 11
-272.90773198655921
 21
-351.99578716110233
 31
0.0
  0
LINE
  8
DETAIL
  6
CONTINUOUS
 62
     5
 10
289.55052840018368
 20
-355.00001863046651
 30
0.0
 11
314.94359903775847
 21
-355.00001863046651
 31
0.0
  0
LINE
  8
DETAIL
  6
CONTINUOUS
 62
     5
 10
-314.94359903864688
 20
-355.00001863046651
 30
0.0
 11
286.48771324480538
 21
-355.00001863046651
 31
0.0
  0
LINE
  8
DETAIL
  6
CONTINUOUS
 62
     5
 10
-341.98168226292489
 20
-83.369849944604539
 30
0.0
 11
-341.98168226292489
 21
-216.1084299030544
 31
0.0
  0
LINE
  8
DETAIL
  6
CONTINUOUS
 62
     5
 10
-341.98168226292489
 20
216.10842990216571
 30
0.0
 11
-341.98168226292489
 21
83.369849943715849
 31
0.0
  0
LINE
  8
DETAIL
  6
CONTINUOUS
 62
     5
 10
-348.82584606850747
 20
-299.25855570250002
 30
0.0
 11
-348.82584606850747
 21
-319.18611867387852
 31
0.0
  0
LINE
  8
DETAIL
  6
CONTINUOUS
 62
     5
 10
-348.82584606850747
 20
319.18611867298972
 30
0.0
 11
-348.82584606850747
 21
299.25855570161099
 31
0.0
  0
LINE
  8
DETAIL
  6
CONTINUOUS
 62
     5
 10
-351.99578716110182
 20
-272.9077319865591
 30
0.0
 11
-351.99578716110182
 21
-314.94359903864711
 31
0.0
  0
LINE
  8
DETAIL
  6
CONTINUOUS
 62
     5
 10
-351.99578716110182
 20
-1.652394138968134
 30
0.0
 11
-351.99578716110182
 21
-272.9077319865591
 31
0.0
  0
LINE
  8
DETAIL
  6
CONTINUOUS
 62
     5
 10
-351.99578716110182
 20
272.90773198567052
 30
0.0
 11
-351.99578716110182
 21
1.652394138079444
 31
0.0
  0
LINE
  8
DETAIL
  6
CONTINUOUS
 62
     5
 10
-351.99578716110182
 20
314.94359903775808
 30
0.0
 11
-351.99578716110182
 21
272.90773198567052
 31
0.0
  0
LINE
  8
DETAIL
  6
CONTINUOUS
 62
     5
 10
-355.00001863046549
 20
314.94359903775808
 30
0.0
 11
-355.00001863046549
 21
-314.94359903864711
 31
0.0
  0
LINE
  8
DETAIL
  6
CONTINUOUS
 62
     5
 10
-302.92722871824981
 20
-320.52683042854107
 30
0.0
 11
-296.53369098746208
 21
-346.10098135258198
 31
0.0
  0
LINE
  8
DETAIL
  6
CONTINUOUS
 62
     5
 10
-268.45602526095581
 20
-274.82896259347501
 30
0.0
 11
-252.01687143031799
 21
-291.26811642411292
 31
0.0
  0
LINE
  8
DETAIL
  6
CONTINUOUS
 62
     5
 10
-291.26811642411212
 20
-252.01687143031839
 30
0.0
 11
-274.82896259347473
 21
-268.45602526095638
 31
0.0
  0
LINE
  8
DETAIL
  6
CONTINUOUS
 62
     5
 10
-280.49379577803438
 20
-274.12085844551598
 30
0.0
 11
-293.49307569296468
 21
-261.12157853058602
 31
0.0
  0
LINE
  8
DETAIL
  6
CONTINUOUS
 62
     5
 10
-261.12157853058562
 20
-293.49307569296468
 30
0.0
 11
-274.12085844551592
 21
-280.49379577803472
 31
0.0
  0
LINE
  8
DETAIL
  6
CONTINUOUS
 62
     5
 10
-301.33254473433271
 20
-272.29219158859871
 30
0.0
 11
-306.33959718297677
 21
-269.40136850885392
 31
0.0
  0
LINE
  8
DETAIL
  6
CONTINUOUS
 62
     5
 10
-311.34664963250998
 20
-278.07383774719881
 30
0.0
 11
-306.33959718297677
 21
-280.96466082605463
 31
0.0
  0
LINE
  8
DETAIL
  6
CONTINUOUS
 62
     5
 10
-346.10098135258153
 20
-296.53369098746231
 30
0.0
 11
-320.52683042854039
 21
-302.92722871825032
 31
0.0
  0
LINE
  8
DETAIL
  6
CONTINUOUS
 62
     5
 10
318.33100270339372
 20
-295.23566660839663
 30
0.0
 11
339.50856611878078
 21
-289.94127575366082
 31
0.0
  0
LINE
  8
DETAIL
  6
CONTINUOUS
 62
     5
 10
320.5268304285417
 20
-302.92722871825032
 30
0.0
 11
346.10098135258232
 21
-296.53369098746231
 31
0.0
  0
LINE
  8
DETAIL
  6
CONTINUOUS
 62
     5
 10
-289.94127575366042
 20
339.50856611878078
 30
0.0
 11
-295.23566660839651
 21
318.33100270339372
 31
0.0
  0
LINE
  8
DETAIL
  6
CONTINUOUS
 62
     5
 10
-296.53369098746208
 20
346.1009813525821
 30
0.0
 11
-302.92722871824981
 21
320.52683042854119
 31
0.0
  0
LINE
  8
DETAIL
  6
CONTINUOUS
 62
     5
 10
-288.63699348133878
 20
-311.29632621957802
 30
0.0
 11
-311.29632621957762
 21
-288.63699348133912
 31
0.0
  0
LINE
  8
DETAIL
  6
CONTINUOUS
 62
     5
 10
-291.82346214804278
 20
-314.48279488628191
 30
0.0
 11
-314.48279488628151
 21
-291.82346214804278
 31
0.0
  0
LINE
  8
DETAIL
  6
CONTINUOUS
 62
     5
 10
-310.70126327215769
 20
-299.55555166839503
 30
0.0
 11
-299.55555166839468
 21
-310.70126327126962
 31
0.0
  0
LINE
  8
DETAIL
  6
CONTINUOUS
 62
     5
 10
-316.16697932446971
 20
-305.39573446745561
 30
0.0
 11
-305.39573446745561
 21
-316.16697932447028
 31
0.0
  0
LINE
  8
DETAIL
  6
CONTINUOUS
 62
     5
 10
-274.82896259347473
 20
268.45602526006758
 30
0.0
 11
-291.26811642411212
 21
252.01687143031859
 31
0.0
  0
LINE
  8
DETAIL
  6
CONTINUOUS
 62
     5
 10
-252.01687143031799
 20
291.26811642322411
 30
0.0
 11
-268.45602526095581
 21
274.82896259347513
 31
0.0
  0
LINE
  8
DETAIL
  6
CONTINUOUS
 62
     5
 10
-274.12085844551592
 20
280.49379577803478
 30
0.0
 11
-261.12157853058562
 21
293.49307569207588
 31
0.0
  0
LINE
  8
DETAIL
  6
CONTINUOUS
 62
     5
 10
-293.49307569296468
 20
261.12157853058602
 30
0.0
 11
-280.49379577803438
 21
274.12085844462717
 31
0.0
  0
LINE
  8
DETAIL
  6
CONTINUOUS
 62
     5
 10
-345.89278265080827
 20
-326.26716015435602
 30
0.0
 11
-326.26716015435579
 21
-345.89278265080901
 31
0.0
  0
LINE
  8
DETAIL
  6
CONTINUOUS
 62
     5
 10
-275.18301466745368
 20
300.55795102437691
 30
0.0
 11
-270.17596221880967
 21
303.44877410323278
 31
0.0
  0
LINE
  8
DETAIL
  6
CONTINUOUS
 62
     5
 10
-275.18301466745368
 20
312.12124334068892
 30
0.0
 11
-280.19006711698722
 21
309.23042026183299
 31
0.0
  0
LINE
  8
DETAIL
  6
CONTINUOUS
 62
     5
 10
-311.29632621957762
 20
288.63699348045049
 30
0.0
 11
-288.63699348133878
 21
311.29632621957808
 31
0.0
  0
LINE
  8
DETAIL
  6
CONTINUOUS
 62
     5
 10
-314.48279488628151
 20
291.82346214715409
 30
0.0
 11
-291.82346214804278
 21
314.48279488539288
 31
0.0
  0
LINE
  8
DETAIL
  6
CONTINUOUS
 62
     5
 10
-299.55555166839468
 20
310.70126327126968
 30
0.0
 11
-310.70126327215769
 21
299.55555166750611
 31
0.0
  0
LINE
  8
DETAIL
  6
CONTINUOUS
 62
     5
 10
-305.39573446745561
 20
316.16697932447039
 30
0.0
 11
-316.16697932446971
 21
305.39573446656658
 31
0.0
  0
LINE
  8
DETAIL
  6
CONTINUOUS
 62
     5
 10
-326.26716015435579
 20
345.89278265080878
 30
0.0
 11
-345.89278265080827
 21
326.26716015346722
 31
0.0
  0
CIRCLE
  8
DETAIL
  6
CONTINUOUS
 62
     5
 10
0.0
 20
0.0
 30
0.0
 40
297.00000534631062
  0
CIRCLE
  8
DETAIL
  6
CONTINUOUS
 62
     5
 10
306.33959718297763
 20
275.18301466745419
 30
0.0
 40
3.0042314693641861
  0
CIRCLE
  8
DETAIL
  6
CONTINUOUS
 62
     5
 10
275.18301466745442
 20
-306.33959718297712
 30
0.0
 40
3.0042314693641861
  0
CIRCLE
  8
DETAIL
  6
CONTINUOUS
 62
     5
 10
-275.18301466745368
 20
306.33959718297717
 30
0.0
 40
3.0042314693641861
  0
CIRCLE
  8
DETAIL
  6
CONTINUOUS
 62
     5
 10
-306.33959718297677
 20
-275.18301466745442
 30
0.0
 40
3.0042314693641861
  0
CIRCLE
  8
DETAIL
  6
CONTINUOUS
 62
     5
 10
325.45840918053352
 20
325.45840918053318
 30
0.0
 40
7.0098734288128526
  0
CIRCLE
  8
DETAIL
  6
CONTINUOUS
 62
     5
 10
323.19822570567408
 20
227.3742573480462
 30
0.0
 40
6.5091681833262092
  0
ARC
  8
DETAIL
  6
CONTINUOUS
 62
     5
 10
0.0
 20
0.0
 30
0.0
 40
303.92808365038542
 50
135.8495878241967
 51
224.1504121758033
  0
ARC
  8
DETAIL
  6
CONTINUOUS
 62
     5
 10
0.0
 20
0.0
 30
0.0
 40
303.9280836503857
 50
45.849587824199553
 51
134.15041217580051
  0
ARC
  8
DETAIL
  6
CONTINUOUS
 62
     5
 10
0.0
 20
0.0
 30
0.0
 40
303.92808365038582
 50
315.84958782419659
 51
44.150412175803332
  0
ARC
  8
DETAIL
  6
CONTINUOUS
 62
     5
 10
0.0
 20
0.0
 30
0.0
 40
303.92808365038547
 50
225.8495878241996
 51
312.10619828140028
  0
CIRCLE
  8
DETAIL
  6
CONTINUOUS
 62
     5
 10
227.37425734804651
 20
-323.19822570567402
 30
0.0
 40
6.5091681833262092
  0
CIRCLE
  8
DETAIL
  6
CONTINUOUS
 62
     5
 10
325.45840918053352
 20
-325.45840918142193
 30
0.0
 40
7.0098734288128526
  0
CIRCLE
  8
DETAIL
  6
CONTINUOUS
 62
     5
 10
-227.37425734893461
 20
323.19822570567379
 30
0.0
 40
6.5091681833262092
  0
CIRCLE
  8
DETAIL
  6
CONTINUOUS
 62
     5
 10
-325.45840918142181
 20
325.45840918053318
 30
0.0
 40
7.0098734288128526
  0
CIRCLE
  8
DETAIL
  6
CONTINUOUS
 62
     5
 10
-323.19822570567328
 20
-227.37425734893489
 30
0.0
 40
6.5091681833262092
  0
CIRCLE
  8
DETAIL
  6
CONTINUOUS
 62
     5
 10
-325.45840918142181
 20
-325.45840918142193
 30
0.0
 40
7.0098734288128526
  0
ARC
  8
OUTLINE
  6
CONTINUOUS
 62
     3
 10
314.94359903775847
 20
314.94359903775808
 30
0.0
 40
40.056419591819363
 50
0.0
 51
90.0
  0
ARC
  8
OUTLINE
  6
CONTINUOUS
 62
     3
 10
314.94359903775847
 20
-314.94359903864711
 30
0.0
 40
40.056419591819413
 50
270.0
 51
0.0
  0
ARC
  8
OUTLINE
  6
CONTINUOUS
 62
     3
 10
-314.94359903864688
 20
314.94359903775808
 30
0.0
 40
40.056419591819413
 50
90.0
 51
180.0
  0
ARC
  8
OUTLINE
  6
CONTINUOUS
 62
     3
 10
-314.94359903864688
 20
-314.94359903864711
 30
0.0
 40
40.056419591819122
 50
180.0
 51
270.0
  0
LINE
  8
OUTLINE
  6
CONTINUOUS
 62
     3
 10
314.94359903775847
 20
355.00001862957748
 30
0.0
 11
-314.94359903864688
 21
355.00001862957748
 31
0.0
  0
LINE
  8
OUTLINE
  6
CONTINUOUS
 62
     3
 10
355.00001862957771
 20
-314.94359903864711
 30
0.0
 11
355.00001862957771
 21
314.94359903775808
 31
0.0
  0
LINE
  8
OUTLINE
  6
CONTINUOUS
 62
     3
 10
289.55052840018408
 20
-355.00001863046651
 30
0.0
 11
314.94359903775847
 21
-355.00001863046651
 31
0.0
  0
LINE
  8
OUTLINE
  6
CONTINUOUS
 62
     3
 10
-314.94359903864688
 20
-355.00001863046651
 30
0.0
 11
289.55052840018408
 21
-355.00001863046651
 31
0.0
  0
LINE
  8
OUTLINE
  6
CONTINUOUS
 62
     3
 10
-355.00001863046549
 20
314.94359903775808
 30
0.0
 11
-355.00001863046549
 21
-314.94359903864711
 31
0.0
  0
LINE
  8
SIZE
  6
CONTINUOUS
 62
    30
 10
671.50907641859862
 20
-282.88035084916447
 30
0.0
 11
335.46119806201438
 21
-141.31660276310041
 31
0.0
  0
LINE
  8
SIZE
  6
CONTINUOUS
 62
    30
 10
-335.46119806201409
 20
141.31660276310041
 30
0.0
 11
-346.51999964251331
 21
145.9752407188931
 31
0.0
  0
TEXT
  8
SIZE
  6
CONTINUOUS
 62
    30
 10
460.50722309302478
 20
-166.8658592873048
 30
0.0
 40
64.0
  1
φ703
 50
337.15622273469887
 41
0.9
 72
     1
 11
565.91340044315314
 21
-211.2693342030876
 31
0.0
  0
LINE
  8
SIZE
  6
CONTINUOUS
 62
    30
 10
-324.40239648151521
 20
136.6579648073081
 30
0.0
 11
324.40239648151521
 21
-136.65796480730799
 31
0.0
  0
CIRCLE
  8
SIZE
  6
CONTINUOUS
 62
    30
 10
-324.40239648151521
 20
136.6579648073081
 30
0.0
 40
6.0
  0
LINE
  8
SIZE
  6
CONTINUOUS
 62
    30
 10
-324.40239648151521
 20
136.6579648073081
 30
0.0
 11
-335.46119806201432
 21
141.31660276310049
 31
0.0
  0
CIRCLE
  8
SIZE
  6
CONTINUOUS
 62
    30
 10
324.40239648151521
 20
-136.65796480730799
 30
0.0
 40
6.0
  0
LINE
  8
SIZE
  6
CONTINUOUS
 62
    30
 10
324.40239648151521
 20
-136.65796480730799
 30
0.0
 11
335.46119806201438
 21
-141.31660276310029
 31
0.0
  0
POINT
  8
DEFPOINTS
  6
CONTINUOUS
 62
    30
 10
324.40239648151521
 20
-136.65796480730799
 30
0.0
  0
POINT
  8
DEFPOINTS
  6
CONTINUOUS
 62
    30
 10
-324.40239648151521
 20
136.6579648073081
 30
0.0
  0
LINE
  8
SIZE
  6
CONTINUOUS
 62
    30
 10
703.75512647047231
 20
-92.015171040066377
 30
0.0
 11
313.26178466478081
 21
-40.958617013293797
 31
0.0
  0
LINE
  8
SIZE
  6
CONTINUOUS
 62
    30
 10
-313.26178466478058
 20
40.958617013293797
 30
0.0
 11
-325.16050975608152
 21
42.514361594403738
 31
0.0
  0
TEXT
  8
SIZE
  6
CONTINUOUS
 62
    30
 10
469.52603848992737
 20
-36.177202748000923
 30
0.0
 40
64.0
  1
φ607
 50
352.55089922755769
 41
0.9
 72
     1
 11
582.93788678872431
 21
-51.00567109823703
 31
0.0
  0
LINE
  8
SIZE
  6
CONTINUOUS
 62
    30
 10
-301.36305957348009
 20
39.402872432183933
 30
0.0
 11
301.36305957347997
 21
-39.402872432183933
 31
0.0
  0
CIRCLE
  8
SIZE
  6
CONTINUOUS
 62
    30
 10
-301.36305957348009
 20
39.402872432183933
 30
0.0
 40
6.0
  0
LINE
  8
SIZE
  6
CONTINUOUS
 62
    30
 10
-301.36305957348009
 20
39.402872432183933
 30
0.0
 11
-313.26178466478092
 21
40.958617013293797
 31
0.0
  0
CIRCLE
  8
SIZE
  6
CONTINUOUS
 62
    30
 10
301.36305957347997
 20
-39.402872432183933
 30
0.0
 40
6.0
  0
LINE
  8
SIZE
  6
CONTINUOUS
 62
    30
 10
301.36305957347997
 20
-39.402872432183933
 30
0.0
 11
313.26178466478069
 21
-40.958617013293797
 31
0.0
  0
POINT
  8
DEFPOINTS
  6
CONTINUOUS
 62
    30
 10
301.36305957347997
 20
-39.402872432183933
 30
0.0
  0
POINT
  8
DEFPOINTS
  6
CONTINUOUS
 62
    30
 10
-301.36305957348009
 20
39.402872432183933
 30
0.0
  0
LINE
  8
SIZE
  6
CONTINUOUS
 62
    30
 10
726.7885439682575
 20
159.400955881572
 30
0.0
 11
301.82600353178378
 21
66.197181934367904
 31
0.0
  0
LINE
  8
SIZE
  6
CONTINUOUS
 62
    30
 10
-301.82600353178339
 20
-66.197181934367791
 30
0.0
 11
-313.54740152438927
 21
-68.767946236854243
 31
0.0
  0
TEXT
  8
SIZE
  6
CONTINUOUS
 62
    30
 10
487.5015891627923
 20
132.5142004225913
 30
0.0
 40
64.0
  1
φ600
 50
12.37037805953014
 41
0.9
 72
     1
 11
599.22325688659998
 21
157.01725674571921
 31
0.0
  0
LINE
  8
SIZE
  6
CONTINUOUS
 62
    30
 10
-290.10460553917778
 20
-63.626417631881353
 30
0.0
 11
290.10460553917812
 21
63.626417631881402
 31
0.0
  0
CIRCLE
  8
SIZE
  6
CONTINUOUS
 62
    30
 10
-290.10460553917778
 20
-63.626417631881353
 30
0.0
 40
6.0
  0
LINE
  8
SIZE
  6
CONTINUOUS
 62
    30
 10
-290.10460553917778
 20
-63.626417631881353
 30
0.0
 11
-301.82600353178339
 21
-66.197181934367791
 31
0.0
  0
CIRCLE
  8
SIZE
  6
CONTINUOUS
 62
    30
 10
290.10460553917812
 20
63.626417631881402
 30
0.0
 40
6.0
  0
LINE
  8
SIZE
  6
CONTINUOUS
 62
    30
 10
290.10460553917812
 20
63.626417631881402
 30
0.0
 11
301.82600353178373
 21
66.197181934367904
 31
0.0
  0
POINT
  8
DEFPOINTS
  6
CONTINUOUS
 62
    30
 10
290.10460553917812
 20
63.626417631881402
 30
0.0
  0
POINT
  8
DEFPOINTS
  6
CONTINUOUS
 62
    30
 10
-290.10460553917778
 20
-63.626417631881353
 30
0.0
  0
ARC
  8
DETAIL
  6
CONTINUOUS
 62
     5
 10
3674.136600650706
 20
3248.388392310273
 30
0.0
 40
4910.2700014224538
 50
223.77973260121431
 51
226.0835077032192
  0
ARC
  8
DETAIL
  6
CONTINUOUS
 62
     5
 10
283.45231701640012
 20
-296.26695055347972
 30
0.0
 40
4.9299942129586682
 50
183.158988888268
 51
22.526381982475051
  0
ARC
  8
DETAIL
  6
CONTINUOUS
 62
     5
 10
217.51720777644661
 20
-311.20514930338851
 30
0.0
 40
70.712182369464983
 50
4.9851382765920214
 51
9.6346883570020267
  0
ARC
  8
DETAIL
  6
CONTINUOUS
 62
     5
 10
-178.29838316185439
 20
32.646174216971083
 30
0.0
 40
189.6421007642906
 50
23.978788782717789
 51
95.101803848342499
  0
ARC
  8
DETAIL
  6
CONTINUOUS
 62
     5
 10
-171.93784866167289
 20
182.75495092322299
 30
0.0
 40
45.204266757834652
 50
120.91525543715559
 51
138.98629021941349
  0
ARC
  8
DETAIL
  6
CONTINUOUS
 62
     5
 10
2.8240424026146509
 20
1.1048947734137331
 30
0.0
 40
297.02662320633868
 50
136.40530974285821
 51
206.62355036723051
  0
ARC
  8
DETAIL
  6
CONTINUOUS
 62
     5
 10
-257.84686247873867
 20
-129.24160006475091
 30
0.0
 40
5.5903026152532851
 50
209.57341273393371
 51
323.89893400881732
  0
ARC
  8
DETAIL
  6
CONTINUOUS
 62
     5
 10
-110.5837676306442
 20
-155.27386707773991
 30
0.0
 40
144.54593064554209
 50
144.03603351979649
 51
170.9492561579338
  0
ARC
  8
DETAIL
  6
CONTINUOUS
 62
     5
 10
-497.02478762011049
 20
104.2636213571581
 30
0.0
 40
321.09851325955401
 50
327.04970865794382
 51
334.71466014291332
  0
ARC
  8
DETAIL
  6
CONTINUOUS
 62
     5
 10
-220.24847508729411
 20
61.032943184365017
 30
0.0
 40
79.338281661357911
 50
297.96004100426649
 51
317.80140487466991
  0
ARC
  8
DETAIL
  6
CONTINUOUS
 62
     5
 10
-136.61743059993441
 20
-19.290839838377511
 30
0.0
 40
36.722366479699282
 50
73.904421846162037
 51
132.59806405304519
  0
ARC
  8
DETAIL
  6
CONTINUOUS
 62
     5
 10
-163.08466427838039
 20
-52.481998756466233
 30
0.0
 40
47.806238821877528
 50
114.6854299770402
 51
155.80124841581119
  0
ARC
  8
DETAIL
  6
CONTINUOUS
 62
     5
 10
84.77531031823986
 20
-163.68934068882439
 30
0.0
 40
213.44403618533721
 50
171.6773276640883
 51
212.85411201610381
  0
ARC
  8
DETAIL
  6
CONTINUOUS
 62
     5
 10
-1.337462670277404
 20
0.6591744488056435
 30
0.0
 40
295.23622931112197
 50
251.5998272545751
 51
312.12304700216748
  0
ARC
  8
DETAIL
  6
CONTINUOUS
 62
     5
 10
-11.701478393774151
 20
5.0005394799283067
 30
0.0
 40
306.37489295003598
 50
316.72911849787488
 51
327.21190805121472
  0
ARC
  8
DETAIL
  6
CONTINUOUS
 62
     5
 10
241.37435225640681
 20
-158.3731303745991
 30
0.0
 40
5.0964673136484784
 50
334.25547777041203
 51
112.2348281822424
  0
ARC
  8
DETAIL
  6
CONTINUOUS
 62
     5
 10
188.59348315569829
 20
-13.277507216255509
 30
0.0
 40
149.3049877894679
 50
267.72433576854888
 51
289.91305355867809
  0
ARC
  8
DETAIL
  6
CONTINUOUS
 62
     5
 10
148.14986777669901
 20
-585.43854042109251
 30
0.0
 40
424.38815357640863
 50
85.31167405218622
 51
87.335001757874011
  0
ARC
  8
DETAIL
  6
CONTINUOUS
 62
     5
 10
52.564382956850302
 20
-231.2220844696354
 30
0.0
 40
90.290008758671462
 50
58.784486273650948
 51
77.607084422552774
  0
ARC
  8
DETAIL
  6
CONTINUOUS
 62
     5
 10
79.542900919182699
 20
-114.18458088115911
 30
0.0
 40
29.83581039922371
 50
221.44642008219091
 51
255.2406432625138
  0
ARC
  8
DETAIL
  6
CONTINUOUS
 62
     5
 10
130.21865508436159
 20
-108.05378684822691
 30
0.0
 40
55.351568439825819
 50
236.1141753311133
 51
281.90690443473233
  0
ARC
  8
DETAIL
  6
CONTINUOUS
 62
     5
 10
115.40596220517359
 20
141.40827257449959
 30
0.0
 40
192.91722209387169
 50
264.64922379072391
 51
334.54683602993788
  0
ARC
  8
DETAIL
  6
CONTINUOUS
 62
     5
 10
6.3541604718907081
 20
-1.6031174767467751
 30
0.0
 40
289.43664980277748
 50
11.99693111228498
 51
45.221767248046817
  0
ARC
  8
DETAIL
  6
CONTINUOUS
 62
     5
 10
0.0212760540230761
 20
3.2045532439357771
 30
0.0
 40
290.83895309959013
 50
45.444328148044391
 51
86.527548624704437
  0
ARC
  8
DETAIL
  6
CONTINUOUS
 62
     5
 10
17.61736623968272
 20
287.59865061130699
 30
0.0
 40
5.9109184694086316
 50
89.809795369930299
 51
202.9789954669578
  0
ARC
  8
DETAIL
  6
CONTINUOUS
 62
     5
 10
-86.435448638582315
 20
167.54568873341091
 30
0.0
 40
153.5841500439337
 50
26.180537650394061
 51
50.054058772828533
  0
ARC
  8
DETAIL
  6
CONTINUOUS
 62
     5
 10
309.73607054695037
 20
360.94511585007689
 30
0.0
 40
287.27413088515112
 50
205.93461174122319
 51
215.01098687250911
  0
ARC
  8
DETAIL
  6
CONTINUOUS
 62
     5
 10
190.58373537269969
 20
162.7133476664342
 30
0.0
 40
106.9632397963488
 50
177.90024493783801
 51
197.1610043752755
  0
ARC
  8
DETAIL
  6
CONTINUOUS
 62
     5
 10
40.006141197558009
 20
169.13370516735321
 30
0.0
 40
43.757722674934882
 50
356.72306494583881
 51
38.08757541322084
  0
ARC
  8
DETAIL
  6
CONTINUOUS
 62
     5
 10
3364.3488783603111
 20
2945.2581527633729
 30
0.0
 40
4467.6553686052939
 50
223.71923609937519
 51
226.30098035199481
  0
ARC
  8
DETAIL
  6
CONTINUOUS
 62
     5
 10
37.94327023207785
 20
-219.05656480412881
 30
0.0
 40
114.5394994658763
 50
39.364169448289253
 51
77.211255905318524
  0
ARC
  8
DETAIL
  6
CONTINUOUS
 62
     5
 10
38.317558463522317
 20
-218.6329119204901
 30
0.0
 40
123.1563829776844
 50
39.742644582741221
 51
76.366273131971923
  0
ARC
  8
DETAIL
  6
CONTINUOUS
 62
     5
 10
64.179888378191379
 20
-102.60954651697121
 30
0.0
 40
4.8302199425650949
 50
203.55078256833849
 51
47.027618525501239
  0
ARC
  8
DETAIL
  6
CONTINUOUS
 62
     5
 10
219.66620278141659
 20
49.14511489449535
 30
0.0
 40
212.44356097511039
 50
214.9389842045164
 51
224.24223848038611
  0
ARC
  8
DETAIL
  6
CONTINUOUS
 62
     5
 10
302.32910983905299
 20
114.1419582216753
 30
0.0
 40
326.59645482521512
 50
215.81575943126259
 51
222.03442616154791
  0
ARC
  8
DETAIL
  6
CONTINUOUS
 62
     5
 10
-8.0586012115992105
 20
108.7231830143314
 30
0.0
 40
3.193811468342977
 50
281.82193823240192
 51
18.1188469834923
  0
ARC
  8
DETAIL
  6
CONTINUOUS
 62
     5
 10
-11.336325796158549
 20
31.749450185872661
 30
0.0
 40
73.952272630256431
 50
86.952145336709165
 51
115.0802942188583
  0
ARC
  8
DETAIL
  6
CONTINUOUS
 62
     5
 10
-94.760310356973534
 20
47.753173936743018
 30
0.0
 40
72.873234642670567
 50
32.559775663448008
 51
44.38811803178934
  0
ARC
  8
DETAIL
  6
CONTINUOUS
 62
     5
 10
-108.1797216784867
 20
-6.5181433725600044
 30
0.0
 40
21.347068318473529
 50
43.102050938869432
 51
89.515058356533501
  0
ARC
  8
DETAIL
  6
CONTINUOUS
 62
     5
 10
-67.409157222996114
 20
801.04125376665934
 30
0.0
 40
787.26521008487839
 50
265.70005817720067
 51
267.064676986243
  0
ARC
  8
DETAIL
  6
CONTINUOUS
 62
     5
 10
30.228020878224271
 20
-161.5231950474375
 30
0.0
 40
159.65896297028911
 50
140.01141070899661
 51
163.66183662582239
  0
ARC
  8
DETAIL
  6
CONTINUOUS
 62
     5
 10
-90.002152729047012
 20
-61.515570879937989
 30
0.0
 40
3.335689176073986
 50
6.3170431154069284
 51
128.9316646697209
  0
ARC
  8
DETAIL
  6
CONTINUOUS
 62
     5
 10
-3330.474150652095
 20
-1733.9977968304879
 30
0.0
 40
3746.518089992177
 50
25.282414980944459
 51
25.923118516574721
  0
ARC
  8
DETAIL
  6
CONTINUOUS
 62
     5
 10
64.418749622216808
 20
-91.328354256506543
 30
0.0
 40
25.798996971942351
 50
157.09019083512709
 51
190.7766320383648
  0
ARC
  8
DETAIL
  6
CONTINUOUS
 62
     5
 10
98.08671844843218
 20
-47.400786264587651
 30
0.0
 40
3.193811468342977
 50
161.82193823240269
 51
258.11884698349252
  0
ARC
  8
DETAIL
  6
CONTINUOUS
 62
     5
 10
33.064372687150353
 20
-6.0753270935211816
 30
0.0
 40
73.952272630256431
 50
326.95214533670833
 51
355.08029421885772
  0
ARC
  8
DETAIL
  6
CONTINUOUS
 62
     5
 10
66.686045851048561
 20
144.8676635942378
 30
0.0
 40
162.30606984056499
 50
276.78579062844341
 51
284.28860136613469
  0
ARC
  8
DETAIL
  6
CONTINUOUS
 62
     5
 10
62.194449319059828
 20
125.2745083673415
 30
0.0
 40
26.743016788628051
 50
311.65711544024242
 51
12.68195826686393
  0
ARC
  8
DETAIL
  6
CONTINUOUS
 62
     5
 10
288.10669011032883
 20
-275.78870765155182
 30
0.0
 40
22.83759210977006
 50
224.35064156177791
 51
248.23814656365391
  0
ARC
  8
DETAIL
  6
CONTINUOUS
 62
     5
 10
256.87799357371563
 20
-300.83282756204881
 30
0.0
 40
21.292395817053421
 50
0.0
 51
12.859781039800801
  0
ARC
  8
DETAIL
  6
CONTINUOUS
 62
     5
 10
699.1561873282368
 20
-252.78206253767081
 30
0.0
 40
423.71548316350402
 50
186.736088119888
 51
188.19362830950089
  0
ARC
  8
DETAIL
  6
CONTINUOUS
 62
     5
 10
207.85013092404839
 20
-317.26990623290158
 30
0.0
 40
81.011617682833091
 50
3.6009365218761911
 51
7.710888243922069
  0
ARC
  8
DETAIL
  6
CONTINUOUS
 62
     5
 10
283.22809653408109
 20
-302.10592592709543
 30
0.0
 40
11.582444393545369
 50
252.5993313447334
 51
298.24675228798901
  0
LINE
  8
DETAIL
  6
CONTINUOUS
 62
     5
 10
276.90429918359081
 20
-430.11392199880271
 30
0.0
 11
279.87767341456981
 21
-430.8570444645112
 31
0.0
  0
LINE
  8
DETAIL
  6
CONTINUOUS
 62
     5
 10
284.95113932788541
 20
-430.52563200258959
 30
0.0
 11
287.90401313814482
 21
-430.68914463592279
 31
0.0
  0
LINE
  8
DETAIL
  6
CONTINUOUS
 62
     5
 10
292.91572113461177
 20
-430.70378350355122
 30
0.0
 11
295.91146968800109
 21
-430.51374360223679
 31
0.0
  0
ARC
  8
DETAIL
  6
CONTINUOUS
 62
     5
 10
128.38363350707249
 20
61.454067427521522
 30
0.0
 40
65.313308966550565
 50
137.83849883545341
 51
152.90022964659849
  0
ENDSEC
  0
EOF
