  0
SECTION
  2
HEADER
  9
$ACADVER
  1
AC1009
  9
$DWGCODEPAGE
  3
dos932
  9
$INSBASE
 10
0.0
 20
0.0
 30
0.0
  9
$EXTMIN
 10
-432.33946075469788
 20
-491.22618463731669
 30
-0.0015258207003583
  9
$EXTMAX
 10
1209.1003535770581
 20
852.67639992837394
 30
0.0000000349246037
  9
$LIMMIN
 10
-2970.0
 20
-2100.0
  9
$LIMMAX
 10
2970.0
 20
2100.0
  9
$ORTHOMODE
 70
     1
  9
$REGENMODE
 70
     1
  9
$FILLMODE
 70
     1
  9
$QTEXTMODE
 70
     0
  9
$MIRRTEXT
 70
     0
  9
$LTSCALE
 40
20.0
  9
$ATTMODE
 70
     1
  9
$TEXTSIZE
 40
64.0
  9
$TRACEWID
 40
0.05
  9
$TEXTSTYLE
  7
STANDARD
  9
$CLAYER
  8
SIZE
  9
$CELTYPE
  6
CONTINUOUS
  9
$CECOLOR
 62
     7
  9
$DIMSCALE
 40
1.0
  9
$DIMASZ
 40
12.0
  9
$DIMEXO
 40
20.0
  9
$DIMDLI
 40
200.0
  9
$DIMRND
 40
0.0
  9
$DIMDLE
 40
0.0
  9
$DIMEXE
 40
20.0
  9
$DIMTP
 40
0.0
  9
$DIMTM
 40
0.0
  9
$DIMTXT
 40
64.0
  9
$DIMCEN
 40
0.09
  9
$DIMTSZ
 40
0.0
  9
$DIMTOL
 70
     0
  9
$DIMLIM
 70
     0
  9
$DIMTIH
 70
     0
  9
$DIMTOH
 70
     0
  9
$DIMSE1
 70
     0
  9
$DIMSE2
 70
     0
  9
$DIMTAD
 70
     1
  9
$DIMZIN
 70
     8
  9
$DIMBLK
  1

  9
$DIMASO
 70
     1
  9
$DIMSHO
 70
     0
  9
$DIMPOST
  1

  9
$DIMAPOST
  1

  9
$DIMALT
 70
     0
  9
$DIMALTD
 70
     2
  9
$DIMALTF
 40
25.399999999999999
  9
$DIMLFAC
 40
1.0
  9
$DIMTOFL
 70
     1
  9
$DIMTVP
 40
0.0
  9
$DIMTIX
 70
     1
  9
$DIMSOXD
 70
     0
  9
$DIMSAH
 70
     0
  9
$DIMBLK1
  1

  9
$DIMBLK2
  1

  9
$DIMSTYLE
  2
STANDARD
  9
$DIMCLRD
 70
     7
  9
$DIMCLRE
 70
     7
  9
$DIMCLRT
 70
     7
  9
$DIMTFAC
 40
1.0
  9
$DIMGAP
 40
25.0
  9
$LUNITS
 70
     2
  9
$LUPREC
 70
     4
  9
$SKETCHINC
 40
0.1
  9
$FILLETRAD
 40
3.0
  9
$AUNITS
 70
     1
  9
$AUPREC
 70
     3
  9
$MENU
  1
ACAD
  9
$ELEVATION
 40
0.0
  9
$PELEVATION
 40
0.0
  9
$THICKNESS
 40
0.0
  9
$LIMCHECK
 70
     0
  9
$CHAMFERA
 40
0.0
  9
$CHAMFERB
 40
0.0
  9
$SKPOLY
 70
     0
  9
$TDCREATE
 40
2453019.62301037
  9
$TDUPDATE
 40
2458949.458189271
  9
$TDINDWG
 40
1.7560692245
  9
$TDUSRTIMER
 40
1.7560692245
  9
$USRTIMER
 70
     1
  9
$ANGBASE
 50
0.0
  9
$ANGDIR
 70
     0
  9
$PDMODE
 70
     3
  9
$PDSIZE
 40
-2.0
  9
$PLINEWID
 40
0.0
  9
$SPLFRAME
 70
     0
  9
$SPLINETYPE
 70
     6
  9
$SPLINESEGS
 70
     8
  9
$SURFTAB1
 70
     6
  9
$SURFTAB2
 70
     6
  9
$SURFTYPE
 70
     6
  9
$SURFU
 70
     6
  9
$SURFV
 70
     6
  9
$UCSNAME
  2

  9
$UCSORG
 10
0.0
 20
0.0
 30
0.0
  9
$UCSXDIR
 10
1.0
 20
0.0
 30
0.0
  9
$UCSYDIR
 10
0.0
 20
1.0
 30
0.0
  9
$PUCSNAME
  2

  9
$PUCSORG
 10
0.0
 20
0.0
 30
0.0
  9
$PUCSXDIR
 10
1.0
 20
0.0
 30
0.0
  9
$PUCSYDIR
 10
0.0
 20
1.0
 30
0.0
  9
$USERI1
 70
     0
  9
$USERI2
 70
     0
  9
$USERI3
 70
     0
  9
$USERI4
 70
     0
  9
$USERI5
 70
     0
  9
$USERR1
 40
20.0
  9
$USERR2
 40
0.0
  9
$USERR3
 40
0.0
  9
$USERR4
 40
0.0
  9
$USERR5
 40
0.0
  9
$WORLDVIEW
 70
     1
  9
$SHADEDGE
 70
     3
  9
$SHADEDIF
 70
    70
  9
$TILEMODE
 70
     1
  9
$MAXACTVP
 70
    48
  9
$PINSBASE
 10
0.0
 20
0.0
 30
0.0
  9
$PLIMCHECK
 70
     0
  9
$PEXTMIN
 10
-100000000000000000000.0
 20
-100000000000000000000.0
 30
-100000000000000000000.0
  9
$PEXTMAX
 10
100000000000000000000.0
 20
100000000000000000000.0
 30
100000000000000000000.0
  9
$PLIMMIN
 10
0.0
 20
0.0
  9
$PLIMMAX
 10
12.0
 20
9.0
  9
$UNITMODE
 70
     0
  9
$VISRETAIN
 70
     0
  9
$PLINEGEN
 70
     0
  9
$PSLTSCALE
 70
     0
  9
$TREEDEPTH
 70
  3020
  9
$ATTDIA
 70
     0
  9
$ATTREQ
 70
     1
  9
$BLIPMODE
 70
     1
  9
$COORDS
 70
     1
  9
$DRAGMODE
 70
     2
  9
$OSMODE
 70
     0
  9
$HANDLING
 70
     0
  9
$HANDSEED
  5
10E97
  0
ENDSEC
  0
SECTION
  2
TABLES
  0
TABLE
  2
LTYPE
 70
     2
  0
LTYPE
  2
CONTINUOUS
 70
     0
  3
実線
 72
    65
 73
     0
 40
0.0
  0
LTYPE
  2
DASHDOT
 70
     0
  3
____ _ ____ _ ____ _ ____ _ ____ _ ____ _ ____
 72
    65
 73
     4
 40
5.5
 49
4.0
 49
-0.6
 49
0.3
 49
-0.6
  0
ENDTAB
  0
TABLE
  2
LAYER
 70
    12
  0
LAYER
  2
0
 70
     0
 62
     7
  6
CONTINUOUS
  0
LAYER
  2
BASIS
 70
     0
 62
     6
  6
DASHDOT
  0
LAYER
  2
OUTLINE
 70
     0
 62
     3
  6
CONTINUOUS
  0
LAYER
  2
DETAIL
 70
     0
 62
     5
  6
CONTINUOUS
  0
LAYER
  2
SIZE
 70
     0
 62
    30
  6
CONTINUOUS
  0
LAYER
  2
ARRANGE
 70
     0
 62
     1
  6
CONTINUOUS
  0
LAYER
  2
DEFPOINTS
 70
     0
 62
     7
  6
CONTINUOUS
  0
LAYER
  2
ETC
 70
     0
 62
    61
  6
CONTINUOUS
  0
LAYER
  2
FIX
 70
     0
 62
    11
  6
CONTINUOUS
  0
LAYER
  2
NOTE
 70
     0
 62
     4
  6
CONTINUOUS
  0
LAYER
  2
SERVICESPACE
 70
    64
 62
     2
  6
DASHDOT
  0
LAYER
  2
SYMBOLLINE
 70
    64
 62
    15
  6
CONTINUOUS
  0
ENDTAB
  0
TABLE
  2
STYLE
 70
     1
  0
STYLE
  2
STANDARD
 70
     0
 40
64.0
 41
0.9
 50
0.0
 71
     0
 42
64.0
  3
SIMPLEX.shx
  4
BIGFONT.shx
  0
ENDTAB
  0
TABLE
  2
APPID
 70
    19
  0
APPID
  2
ACAD
 70
     0
  0
APPID
  2
AUTOCAD_POSTSCRIPT_FIGURE
 70
     0
  0
APPID
  2
ACAD_EXEMPT_FROM_CAD_STANDARDS
 70
     0
  0
APPID
  2
ACAD_PSEXT
 70
     0
  0
APPID
  2
ACAUTHENVIRON
 70
     0
  0
APPID
  2
GENIUS_GENOENT_13
 70
     0
  0
APPID
  2
GENIUS_GENCFG_13
 70
     0
  0
APPID
  2
GENIUS_GENCFG0_13
 70
     0
  0
APPID
  2
GENIUS_GENCFG1_13
 70
     0
  0
APPID
  2
GENIUS_GENCFG2_13
 70
     0
  0
APPID
  2
GENIUS_GENCFG3_13
 70
     0
  0
APPID
  2
GENIUS_GENCFG4_13
 70
     0
  0
APPID
  2
GENIUS_GEVCFG0_13
 70
     0
  0
APPID
  2
CONTENTBLOCKICON
 70
     0
  0
APPID
  2
CONTENTBLOCKDESCRIPTION
 70
     0
  0
APPID
  2
ACAD_NAV_VCDISPLAY
 70
     0
  0
APPID
  2
ACAD_MLEADERVER
 70
     0
  0
APPID
  2
ACDBDYNAMICBLOCKTRUENAME
 70
     0
  0
APPID
  2
ACDBDYNAMICBLOCKGUID
 70
     0
  0
ENDTAB
  0
TABLE
  2
DIMSTYLE
 70
     1
  0
DIMSTYLE
  2
STANDARD
 70
     0
  3

  4

  5
_ORIGIN
  6

  7

 40
1.0
 41
12.0
 42
20.0
 43
200.0
 44
20.0
 45
0.0
 46
0.0
 47
0.0
 48
0.0
140
64.0
141
0.09
142
0.0
143
25.399999999999999
144
1.0
145
0.0
146
1.0
147
25.0
 71
     0
 72
     0
 73
     0
 74
     0
 75
     0
 76
     0
 77
     1
 78
     8
170
     0
171
     2
172
     1
173
     0
174
     1
175
     0
176
     7
177
     7
178
     7
  0
ENDTAB
  0
TABLE
  2
VIEW
 70
     1
  0
VIEW
  2
ALL
 70
     0
 40
4282.6198079999986
 10
0.0
 20
41.309904000000003
 41
5940.0
 11
0.0
 21
0.0
 31
1.0
 12
0.0
 22
0.0
 32
0.0
 42
50.0
 43
0.0
 44
0.0
 50
0.0
 71
     0
  0
ENDTAB
  0
TABLE
  2
UCS
 70
     0
  0
ENDTAB
  0
TABLE
  2
VPORT
 70
     1
  0
VPORT
  2
*ACTIVE
 70
     0
 10
0.0
 20
0.0
 11
1.0
 21
1.0
 12
388.38044641117978
 22
180.7251076455286
 13
0.0
 23
0.0
 14
1.0
 24
1.0
 15
0.0
 25
0.0
 16
0.0
 26
0.0
 36
1.0
 17
0.0
 27
0.0
 37
0.0
 40
1352.8124359550759
 41
1.747787610619469
 42
50.0
 43
0.0
 44
0.0
 50
0.0
 51
0.0
 71
     0
 72
  1000
 73
     1
 74
     3
 75
     0
 76
     0
 77
     0
 78
     0
  0
ENDTAB
  0
ENDSEC
  0
SECTION
  2
BLOCKS
  0
BLOCK
  8
0
  2
_ORIGIN
 70
     0
 10
0.0
 20
0.0
 30
0.0
  3
_ORIGIN
  1
_ORIGIN
  0
CIRCLE
  8
0
  6
CONTINUOUS
 62
     7
 10
0.0
 20
0.0
 30
0.0
 40
0.5
  0
LINE
  8
0
  6
CONTINUOUS
 62
     7
 10
0.0
 20
0.0
 30
0.0
 11
-1.0
 21
0.0
 31
0.0
  0
ENDBLK
  8
0
  0
ENDSEC
  0
SECTION
  2
ENTITIES
  0
POINT
  8
ARRANGE
  6
CONTINUOUS
 62
     1
 10
0.0
 20
0.0
 30
0.0
  0
CIRCLE
  8
ARRANGE
  6
CONTINUOUS
 62
     1
 10
0.0
 20
0.0
 30
0.0
 40
40.0
  0
TEXT
  8
ETC
  6
CONTINUOUS
 62
    61
 10
457.30433381512648
 20
788.4670182795528
 30
0.0
 40
64.0
  1
EWG-60FTA2-H_5
 41
0.9
  0
TEXT
  8
ETC
  6
CONTINUOUS
 62
    61
 10
453.11833981512598
 20
670.51170826472162
 30
0.0
 40
64.0
  1
産業扇
 41
0.9
  0
TEXT
  8
ETC
  6
CONTINUOUS
 62
    61
 10
503.81973806368211
 20
562.36293537849633
 30
0.0
 40
40.0
  1
EWG-60FTA2-H
 41
0.9
  0
CIRCLE
  8
FIX
  6
CONTINUOUS
 62
    11
 10
0.0000000000001137
 20
325.45840918053318
 30
0.0
 40
9.8378378699999995
  0
LINE
  8
SIZE
  6
CONTINUOUS
 62
    30
 10
10.014104898176919
 20
368.39070939697638
 30
0.0
 11
10.014104898176919
 21
465.34315035136927
 31
0.0
  0
LINE
  8
SIZE
  6
CONTINUOUS
 62
    30
 10
0.0000000000001137
 20
411.75900216631959
 30
0.0
 11
0.0000000000001137
 21
465.34315035136927
 31
0.0
  0
LINE
  8
SIZE
  6
CONTINUOUS
 62
    30
 10
22.014104898176921
 20
445.34315035136939
 30
0.0
 11
34.014104898176917
 21
445.34315035136939
 31
0.0
  0
LINE
  8
SIZE
  6
CONTINUOUS
 62
    30
 10
-11.99999999999989
 20
445.34315035136939
 30
0.0
 11
-156.28571428571419
 21
445.34315035136939
 31
0.0
  0
LINE
  8
SIZE
  6
CONTINUOUS
 62
    30
 10
10.014104898176919
 20
445.34315035136939
 30
0.0
 11
0.0000000000001137
 21
445.34315035136939
 31
0.0
  0
CIRCLE
  8
SIZE
  6
CONTINUOUS
 62
    30
 10
10.014104898176919
 20
445.34315035136939
 30
0.0
 40
6.0
  0
LINE
  8
SIZE
  6
CONTINUOUS
 62
    30
 10
10.014104898176919
 20
445.34315035136939
 30
0.0
 11
22.014104898176921
 21
445.34315035136939
 31
0.0
  0
CIRCLE
  8
SIZE
  6
CONTINUOUS
 62
    30
 10
0.0000000000001137
 20
445.34315035136939
 30
0.0
 40
6.0
  0
LINE
  8
SIZE
  6
CONTINUOUS
 62
    30
 10
0.0000000000001137
 20
445.34315035136939
 30
0.0
 11
-11.99999999999989
 21
445.34315035136939
 31
0.0
  0
TEXT
  8
SIZE
  6
CONTINUOUS
 62
    30
 10
-131.28571428571411
 20
470.34315035136927
 30
0.0
 40
64.0
  1
10
 41
0.9
 72
     1
 11
-90.142857142856997
 21
470.34315035136927
 31
0.0
  0
POINT
  8
DEFPOINTS
  6
CONTINUOUS
 62
    30
 10
10.014104898176919
 20
348.39070939697638
 30
0.0
  0
POINT
  8
DEFPOINTS
  6
CONTINUOUS
 62
    30
 10
0.0000000000001137
 20
391.75900216631959
 30
0.0
  0
POINT
  8
DEFPOINTS
  6
CONTINUOUS
 62
    30
 10
0.0000000000001137
 20
445.34315035136939
 30
0.0
  0
LINE
  8
SIZE
  6
CONTINUOUS
 62
    30
 10
119.4025571380193
 20
370.00898874817773
 30
0.0
 11
119.4025571380193
 21
604.82427044790802
 31
0.0
  0
LINE
  8
SIZE
  6
CONTINUOUS
 62
    30
 10
0.0000000000001137
 20
411.75900216631959
 30
0.0
 11
0.0000000000001137
 21
604.82427044790802
 31
0.0
  0
LINE
  8
SIZE
  6
CONTINUOUS
 62
    30
 10
12.00000000000011
 20
584.82427044790802
 30
0.0
 11
107.4025571380193
 21
584.82427044790802
 31
0.0
  0
LINE
  8
SIZE
  6
CONTINUOUS
 62
    30
 10
119.4025571380193
 20
584.82427044790802
 30
0.0
 11
304.83112856659079
 21
584.82427044790802
 31
0.0
  0
CIRCLE
  8
SIZE
  6
CONTINUOUS
 62
    30
 10
0.0000000000001137
 20
584.82427044790802
 30
0.0
 40
6.0
  0
LINE
  8
SIZE
  6
CONTINUOUS
 62
    30
 10
0.0000000000001137
 20
584.82427044790802
 30
0.0
 11
12.00000000000011
 21
584.82427044790802
 31
0.0
  0
CIRCLE
  8
SIZE
  6
CONTINUOUS
 62
    30
 10
119.4025571380193
 20
584.82427044790802
 30
0.0
 40
6.0
  0
LINE
  8
SIZE
  6
CONTINUOUS
 62
    30
 10
119.4025571380193
 20
584.82427044790802
 30
0.0
 11
107.4025571380193
 21
584.82427044790802
 31
0.0
  0
TEXT
  8
SIZE
  6
CONTINUOUS
 62
    30
 10
156.4025571380194
 20
609.82427044790802
 30
0.0
 40
64.0
  1
119
 41
0.9
 72
     1
 11
218.1168428523051
 21
609.82427044790802
 31
0.0
  0
POINT
  8
DEFPOINTS
  6
CONTINUOUS
 62
    30
 10
119.4025571380193
 20
350.00898874817773
 30
0.0
  0
POINT
  8
DEFPOINTS
  6
CONTINUOUS
 62
    30
 10
0.0000000000001137
 20
391.75900216631959
 30
0.0
  0
POINT
  8
DEFPOINTS
  6
CONTINUOUS
 62
    30
 10
0.0000000000001137
 20
584.82427044790802
 30
0.0
  0
LINE
  8
SIZE
  6
CONTINUOUS
 62
    30
 10
-18.497884265317911
 20
-355.00001863046651
 30
0.0
 11
-303.74294075090529
 21
-355.00001863046617
 31
0.0
  0
LINE
  8
SIZE
  6
CONTINUOUS
 62
    30
 10
-18.497884265317911
 20
355.00001862957788
 30
0.0
 11
-303.74294075090518
 21
355.00001862957811
 31
0.0
  0
LINE
  8
SIZE
  6
CONTINUOUS
 62
    30
 10
-283.74294075090529
 20
-343.00001863046617
 30
0.0
 11
-283.74294075090518
 21
343.00001862957811
 31
0.0
  0
CIRCLE
  8
SIZE
  6
CONTINUOUS
 62
    30
 10
-283.74294075090529
 20
-355.00001863046617
 30
0.0
 40
6.0
  0
LINE
  8
SIZE
  6
CONTINUOUS
 62
    30
 10
-283.74294075090529
 20
-355.00001863046617
 30
0.0
 11
-283.74294075090529
 21
-343.00001863046617
 31
0.0
  0
CIRCLE
  8
SIZE
  6
CONTINUOUS
 62
    30
 10
-283.74294075090518
 20
355.00001862957811
 30
0.0
 40
6.0
  0
LINE
  8
SIZE
  6
CONTINUOUS
 62
    30
 10
-283.74294075090518
 20
355.00001862957811
 30
0.0
 11
-283.74294075090518
 21
343.00001862957811
 31
0.0
  0
TEXT
  8
SIZE
  6
CONTINUOUS
 62
    30
 10
-308.74294075090529
 20
-75.791363132209497
 30
0.0
 40
64.0
  1
710
 50
90.0
 41
0.9
 72
     1
 11
-308.74294075090529
 21
-7.2199345607809278
 31
0.0
  0
POINT
  8
DEFPOINTS
  6
CONTINUOUS
 62
    30
 10
1.502115734682093
 20
-355.00001863046651
 30
0.0
  0
POINT
  8
DEFPOINTS
  6
CONTINUOUS
 62
    30
 10
1.502115734682093
 20
355.00001862957788
 30
0.0
  0
POINT
  8
DEFPOINTS
  6
CONTINUOUS
 62
    30
 10
-283.74294075090518
 20
355.00001862957811
 30
0.0
  0
TEXT
  8
NOTE
  6
CONTINUOUS
 62
     4
 10
-422.93664723179847
 20
-472.7212635053769
 30
0.0
 40
64.0
  1
4-φ14
 41
0.9
 72
     2
 11
-142.61664723179851
 21
-472.7212635053769
 31
0.0
  0
LINE
  8
DETAIL
  6
CONTINUOUS
 62
     4
 10
-2.3017596329149228
 20
-331.22786339150781
 30
0.0
 11
0.0000000000001137
 21
-325.45840918142147
 31
0.0
  0
LINE
  8
DETAIL
  6
CONTINUOUS
 62
     4
 10
0.0000000000001137
 20
-325.45840918142147
 30
0.0
 11
-4.8781152156715279
 21
-329.30401592582888
 31
0.0
  0
LINE
  8
DETAIL
  6
CONTINUOUS
 62
     4
 10
0.0000000000001137
 20
-325.45840918142147
 30
0.0
 11
-7.1798748485865644
 21
-335.07347013591522
 31
0.0
  0
LINE
  8
NOTE
  6
CONTINUOUS
 62
     4
 10
-7.1798748485865644
 20
-335.07347013591527
 30
0.0
 11
-123.6130583250609
 21
-491.10899489053668
 31
0.0
  0
LINE
  8
NOTE
  6
CONTINUOUS
 62
     4
 10
-123.6130583250609
 20
-491.10899489053668
 30
0.0
 11
-432.15591546791802
 21
-491.10899489053668
 31
0.0
  0
LINE
  8
NOTE
  6
CONTINUOUS
 62
     4
 10
-39.543577809473618
 20
-325.45840918142147
 30
0.0
 11
39.543577809474073
 21
-325.45840918142147
 31
0.0
  0
LINE
  8
NOTE
  6
CONTINUOUS
 62
     4
 10
0.0000000000002274
 20
-240.90876467840991
 30
0.0
 11
0.0000000000002274
 21
-319.99592029735732
 31
0.0
  0
LINE
  8
NOTE
  6
CONTINUOUS
 62
     4
 10
-39.543577809473732
 20
325.45840918053318
 30
0.0
 11
39.543577809473959
 21
325.45840918053318
 31
0.0
  0
LINE
  8
NOTE
  6
CONTINUOUS
 62
     4
 10
0.0000000000002274
 20
319.99592029735771
 30
0.0
 11
0.0000000000002274
 21
240.90876467840999
 31
0.0
  0
LINE
  8
BASIS
  6
DASHDOT
 62
     6
 10
0.0000000000001137
 20
-391.75900216631982
 30
0.0
 11
0.0000000000001137
 21
391.75900216631959
 31
0.0
  0
LINE
  8
BASIS
  6
DASHDOT
 62
     6
 10
383.75585329492071
 20
0.0
 30
0.0
 11
-62.990633073021847
 21
0.0
 31
0.0
  0
CIRCLE
  8
FIX
  6
CONTINUOUS
 62
    11
 10
0.0000000000002274
 20
-325.45840918142147
 30
0.0
 40
9.8378378699999995
  0
TEXT
  8
NOTE
  6
CONTINUOUS
 62
     4
 10
160.0164516711113
 20
-418.32252322267368
 30
0.0
 40
64.0
  1
EL
 41
0.9
  0
LINE
  8
SIZE
  6
CONTINUOUS
 62
    30
 10
377.503544854344
 20
85.620596876880825
 30
0.0
 11
575.45602272282656
 21
85.620596876880711
 31
0.0
  0
LINE
  8
SIZE
  6
CONTINUOUS
 62
    30
 10
377.503544854344
 20
-85.620596876880654
 30
0.0
 11
575.45602272282656
 21
-85.620596876880697
 31
0.0
  0
LINE
  8
SIZE
  6
CONTINUOUS
 62
    30
 10
555.45602272282656
 20
73.620596876880697
 30
0.0
 11
555.45602272282656
 21
-73.620596876880697
 31
0.0
  0
LINE
  8
SIZE
  6
CONTINUOUS
 62
    30
 10
555.45602272282656
 20
-85.620596876880697
 30
0.0
 11
555.45602272282656
 21
-356.07773973402351
 31
0.0
  0
CIRCLE
  8
SIZE
  6
CONTINUOUS
 62
    30
 10
555.45602272282656
 20
85.620596876880711
 30
0.0
 40
6.0
  0
LINE
  8
SIZE
  6
CONTINUOUS
 62
    30
 10
555.45602272282656
 20
85.620596876880711
 30
0.0
 11
555.45602272282656
 21
73.620596876880697
 31
0.0
  0
CIRCLE
  8
SIZE
  6
CONTINUOUS
 62
    30
 10
555.45602272282656
 20
-85.620596876880697
 30
0.0
 40
6.0
  0
LINE
  8
SIZE
  6
CONTINUOUS
 62
    30
 10
555.45602272282656
 20
-85.620596876880697
 30
0.0
 11
555.45602272282656
 21
-73.620596876880697
 31
0.0
  0
TEXT
  8
SIZE
  6
CONTINUOUS
 62
    30
 10
519.78935605615993
 20
-341.22631116259493
 30
0.0
 40
64.0
  1
φ200
 50
90.0
 41
0.9
 72
     1
 11
519.78935605615993
 21
-226.849168305452
 31
0.0
  0
POINT
  8
DEFPOINTS
  6
CONTINUOUS
 62
    30
 10
357.503544854344
 20
85.620596876880825
 30
0.0
  0
POINT
  8
DEFPOINTS
  6
CONTINUOUS
 62
    30
 10
357.503544854344
 20
-85.620596876880654
 30
0.0
  0
POINT
  8
DEFPOINTS
  6
CONTINUOUS
 62
    30
 10
555.45602272282656
 20
-85.620596876880697
 30
0.0
  0
LINE
  8
DETAIL
  6
CONTINUOUS
 62
     4
 10
50.533936891053429
 20
-320.39310085143131
 30
0.0
 11
48.622659127797313
 21
-314.48279488628168
 31
0.0
  0
LINE
  8
DETAIL
  6
CONTINUOUS
 62
     4
 10
48.622659127797313
 20
-314.48279488628168
 30
0.0
 11
53.233033480194933
 21
-318.64562416704189
 31
0.0
  0
LINE
  8
DETAIL
  6
CONTINUOUS
 62
     4
 10
48.622659127797313
 20
-314.48279488628168
 30
0.0
 11
55.144311243451057
 21
-324.55593013219152
 31
0.0
  0
LINE
  8
NOTE
  6
CONTINUOUS
 62
     4
 10
55.144311243451057
 20
-324.55593013219152
 30
0.0
 11
139.94768271726869
 21
-455.00964234404682
 31
0.0
  0
LINE
  8
NOTE
  6
CONTINUOUS
 62
     4
 10
139.94768271726869
 20
-455.00964234404682
 30
0.0
 11
261.97625414584007
 21
-455.00964234404682
 31
0.0
  0
LINE
  8
SIZE
  6
CONTINUOUS
 62
    30
 10
-59.543577809473732
 20
325.45840918053318
 30
0.0
 11
-174.63540353333241
 21
325.45840918053318
 31
0.0
  0
LINE
  8
SIZE
  6
CONTINUOUS
 62
    30
 10
-59.543577809473618
 20
-325.45840918142147
 30
0.0
 11
-174.63540353333249
 21
-325.45840918142147
 31
0.0
  0
LINE
  8
SIZE
  6
CONTINUOUS
 62
    30
 10
-154.63540353333241
 20
313.45840918053318
 30
0.0
 11
-154.63540353333249
 21
-313.45840918142147
 31
0.0
  0
CIRCLE
  8
SIZE
  6
CONTINUOUS
 62
    30
 10
-154.63540353333241
 20
325.45840918053318
 30
0.0
 40
6.0
  0
LINE
  8
SIZE
  6
CONTINUOUS
 62
    30
 10
-154.63540353333241
 20
325.45840918053318
 30
0.0
 11
-154.63540353333241
 21
313.45840918053318
 31
0.0
  0
CIRCLE
  8
SIZE
  6
CONTINUOUS
 62
    30
 10
-154.63540353333249
 20
-325.45840918142147
 30
0.0
 40
6.0
  0
LINE
  8
SIZE
  6
CONTINUOUS
 62
    30
 10
-154.63540353333249
 20
-325.45840918142147
 30
0.0
 11
-154.63540353333249
 21
-313.45840918142147
 31
0.0
  0
TEXT
  8
SIZE
  6
CONTINUOUS
 62
    30
 10
-179.63540353333249
 20
-74.057142857586911
 30
0.0
 40
64.0
  1
650
 50
90.0
 41
0.9
 72
     1
 11
-179.63540353333249
 21
-0.0000000004440608
 31
0.0
  0
POINT
  8
DEFPOINTS
  6
CONTINUOUS
 62
    30
 10
-39.543577809473732
 20
325.45840918053318
 30
0.0
  0
POINT
  8
DEFPOINTS
  6
CONTINUOUS
 62
    30
 10
-39.543577809473618
 20
-325.45840918142147
 30
0.0
  0
POINT
  8
DEFPOINTS
  6
CONTINUOUS
 62
    30
 10
-154.63540353333249
 20
-325.45840918142147
 30
0.0
  0
LINE
  8
SIZE
  6
CONTINUOUS
 62
    30
 10
10.014104898176919
 20
368.39070939697638
 30
0.0
 11
10.014104898176919
 21
465.34315035136927
 31
0.0
  0
LINE
  8
SIZE
  6
CONTINUOUS
 62
    30
 10
20.028209795465269
 20
358.37660449879928
 30
0.0
 11
20.028209795465269
 21
465.34315035136927
 31
0.0
  0
LINE
  8
SIZE
  6
CONTINUOUS
 62
    30
 10
-1.985895101823075
 20
445.34315035136939
 30
0.0
 11
-13.985895101823081
 21
445.34315035136939
 31
0.0
  0
LINE
  8
SIZE
  6
CONTINUOUS
 62
    30
 10
32.028209795465273
 20
445.34315035136939
 30
0.0
 11
242.4567812240366
 21
445.34315035136939
 31
0.0
  0
LINE
  8
SIZE
  6
CONTINUOUS
 62
    30
 10
10.014104898176919
 20
445.34315035136939
 30
0.0
 11
20.028209795465269
 21
445.34315035136939
 31
0.0
  0
CIRCLE
  8
SIZE
  6
CONTINUOUS
 62
    30
 10
10.014104898176919
 20
445.34315035136939
 30
0.0
 40
6.0
  0
LINE
  8
SIZE
  6
CONTINUOUS
 62
    30
 10
10.014104898176919
 20
445.34315035136939
 30
0.0
 11
-1.985895101823075
 21
445.34315035136939
 31
0.0
  0
CIRCLE
  8
SIZE
  6
CONTINUOUS
 62
    30
 10
20.028209795465269
 20
445.34315035136939
 30
0.0
 40
6.0
  0
LINE
  8
SIZE
  6
CONTINUOUS
 62
    30
 10
20.028209795465269
 20
445.34315035136939
 30
0.0
 11
32.028209795465273
 21
445.34315035136939
 31
0.0
  0
TEXT
  8
SIZE
  6
CONTINUOUS
 62
    30
 10
135.17106693832241
 20
470.34315035136927
 30
0.0
 40
64.0
  1
10
 41
0.9
 72
     1
 11
176.31392408117961
 21
470.34315035136927
 31
0.0
  0
POINT
  8
DEFPOINTS
  6
CONTINUOUS
 62
    30
 10
10.014104898176919
 20
348.39070939697638
 30
0.0
  0
POINT
  8
DEFPOINTS
  6
CONTINUOUS
 62
    30
 10
20.028209795465269
 20
338.37660449879922
 30
0.0
  0
POINT
  8
DEFPOINTS
  6
CONTINUOUS
 62
    30
 10
20.028209795465269
 20
445.34315035136939
 30
0.0
  0
LINE
  8
SIZE
  6
CONTINUOUS
 62
    30
 10
0.0000000000001137
 20
411.75900216631959
 30
0.0
 11
0.0000000000001137
 21
736.44730056266496
 31
0.0
  0
LINE
  8
SIZE
  6
CONTINUOUS
 62
    30
 10
375.52893367052951
 20
61.057794971504052
 30
0.0
 11
375.52893367052951
 21
736.44730056266496
 31
0.0
  0
LINE
  8
SIZE
  6
CONTINUOUS
 62
    30
 10
12.00000000000011
 20
716.44730056266496
 30
0.0
 11
363.52893367052951
 21
716.44730056266496
 31
0.0
  0
CIRCLE
  8
SIZE
  6
CONTINUOUS
 62
    30
 10
0.0000000000001137
 20
716.44730056266496
 30
0.0
 40
6.0
  0
LINE
  8
SIZE
  6
CONTINUOUS
 62
    30
 10
0.0000000000001137
 20
716.44730056266496
 30
0.0
 11
12.00000000000011
 21
716.44730056266496
 31
0.0
  0
CIRCLE
  8
SIZE
  6
CONTINUOUS
 62
    30
 10
375.52893367052951
 20
716.44730056266496
 30
0.0
 40
6.0
  0
LINE
  8
SIZE
  6
CONTINUOUS
 62
    30
 10
375.52893367052951
 20
716.44730056266496
 30
0.0
 11
363.52893367052951
 21
716.44730056266496
 31
0.0
  0
TEXT
  8
SIZE
  6
CONTINUOUS
 62
    30
 10
89.706992845603565
 20
741.44730056266496
 30
0.0
 40
64.0
  1
375
 41
0.9
 72
     1
 11
163.76413570274639
 21
741.44730056266496
 31
0.0
  0
POINT
  8
DEFPOINTS
  6
CONTINUOUS
 62
    30
 10
0.0000000000001137
 20
391.75900216631959
 30
0.0
  0
POINT
  8
DEFPOINTS
  6
CONTINUOUS
 62
    30
 10
375.52893367052951
 20
41.057794971504052
 30
0.0
  0
POINT
  8
DEFPOINTS
  6
CONTINUOUS
 62
    30
 10
375.52893367052951
 20
716.44730056266496
 30
0.0
  0
LINE
  8
DETAIL
  6
CONTINUOUS
 62
     5
 10
19.527504550867661
 20
270.84678004828203
 30
0.0
 11
19.526780193547211
 21
270.89415547556888
 31
0.0
  0
LINE
  8
DETAIL
  6
CONTINUOUS
 62
     5
 10
19.526780193547211
 20
270.89415547556888
 30
0.0
 11
19.525394608893521
 21
270.94152886288288
 31
0.0
  0
LINE
  8
DETAIL
  6
CONTINUOUS
 62
     5
 10
19.525394608893521
 20
270.94152886288288
 30
0.0
 11
19.525394608893521
 21
270.94152886288288
 31
0.0
  0
LINE
  8
DETAIL
  6
CONTINUOUS
 62
     5
 10
19.525394608893521
 20
270.94152886288288
 30
0.0
 11
19.522830565563481
 21
270.98888919828647
 31
0.0
  0
LINE
  8
DETAIL
  6
CONTINUOUS
 62
     5
 10
19.522830565563481
 20
270.98888919828647
 30
0.0
 11
19.519146816169499
 21
271.03618958197973
 31
0.0
  0
LINE
  8
DETAIL
  6
CONTINUOUS
 62
     5
 10
19.519146816169499
 20
271.03618958197973
 30
0.0
 11
19.519146816169499
 21
271.03618958197973
 31
0.0
  0
LINE
  8
DETAIL
  6
CONTINUOUS
 62
     5
 10
19.519146816169499
 20
271.03618958197973
 30
0.0
 11
19.514502737925572
 21
271.08339674312617
 31
0.0
  0
LINE
  8
DETAIL
  6
CONTINUOUS
 62
     5
 10
19.514502737925572
 20
271.08339674312617
 30
0.0
 11
19.508884222491819
 21
271.13056781460972
 31
0.0
  0
LINE
  8
DETAIL
  6
CONTINUOUS
 62
     5
 10
19.508884222491819
 20
271.13056781460972
 30
0.0
 11
19.508884222491819
 21
271.13056781460972
 31
0.0
  0
LINE
  8
DETAIL
  6
CONTINUOUS
 62
     5
 10
19.508884222491819
 20
271.13056781460972
 30
0.0
 11
19.502263279705179
 21
271.17770109848948
 31
0.0
  0
LINE
  8
DETAIL
  6
CONTINUOUS
 62
     5
 10
19.502263279705179
 20
271.17770109848948
 30
0.0
 11
19.494729877657161
 21
271.22446916981249
 31
0.0
  0
LINE
  8
DETAIL
  6
CONTINUOUS
 62
     5
 10
19.494729877657161
 20
271.22446916981249
 30
0.0
 11
19.494729877657161
 21
271.22446916981249
 31
0.0
  0
LINE
  8
DETAIL
  6
CONTINUOUS
 62
     5
 10
19.494729877657161
 20
271.22446916981249
 30
0.0
 11
19.48632888713632
 21
271.27076629795602
 31
0.0
  0
LINE
  8
DETAIL
  6
CONTINUOUS
 62
     5
 10
19.48632888713632
 20
271.27076629795602
 30
0.0
 11
19.476806831461541
 21
271.31769925662678
 31
0.0
  0
LINE
  8
DETAIL
  6
CONTINUOUS
 62
     5
 10
19.476806831461541
 20
271.31769925662678
 30
0.0
 11
19.476806831461541
 21
271.31769925662678
 31
0.0
  0
LINE
  8
DETAIL
  6
CONTINUOUS
 62
     5
 10
19.476806831461541
 20
271.31769925662678
 30
0.0
 11
19.465940673501109
 21
271.36620215993202
 31
0.0
  0
LINE
  8
DETAIL
  6
CONTINUOUS
 62
     5
 10
19.465940673501109
 20
271.36620215993202
 30
0.0
 11
19.453927481785058
 21
271.41530597924668
 31
0.0
  0
LINE
  8
DETAIL
  6
CONTINUOUS
 62
     5
 10
19.453927481785058
 20
271.41530597924668
 30
0.0
 11
19.453927481785058
 21
271.41530597924668
 31
0.0
  0
LINE
  8
DETAIL
  6
CONTINUOUS
 62
     5
 10
19.453927481785058
 20
271.41530597924668
 30
0.0
 11
19.441016011762031
 21
271.46386201351447
 31
0.0
  0
LINE
  8
DETAIL
  6
CONTINUOUS
 62
     5
 10
19.441016011762031
 20
271.46386201351447
 30
0.0
 11
19.427241660896701
 21
271.51190601468039
 31
0.0
  0
LINE
  8
DETAIL
  6
CONTINUOUS
 62
     5
 10
19.427241660896701
 20
271.51190601468039
 30
0.0
 11
19.427241660896701
 21
271.51190601468039
 31
0.0
  0
LINE
  8
DETAIL
  6
CONTINUOUS
 62
     5
 10
19.427241660896701
 20
271.51190601468039
 30
0.0
 11
19.412584167090021
 21
271.55972909506289
 31
0.0
  0
LINE
  8
DETAIL
  6
CONTINUOUS
 62
     5
 10
19.412584167090021
 20
271.55972909506289
 30
0.0
 11
19.397013987968649
 21
271.60745935546771
 31
0.0
  0
LINE
  8
DETAIL
  6
CONTINUOUS
 62
     5
 10
19.397013987968649
 20
271.60745935546771
 30
0.0
 11
19.397013987968649
 21
271.60745935546771
 31
0.0
  0
LINE
  8
DETAIL
  6
CONTINUOUS
 62
     5
 10
19.397013987968649
 20
271.60745935546771
 30
0.0
 11
19.3805618808608
 21
271.65505104208421
 31
0.0
  0
LINE
  8
DETAIL
  6
CONTINUOUS
 62
     5
 10
19.3805618808608
 20
271.65505104208421
 30
0.0
 11
19.363509082171959
 21
271.70192599414781
 31
0.0
  0
LINE
  8
DETAIL
  6
CONTINUOUS
 62
     5
 10
19.363509082171959
 20
271.70192599414781
 30
0.0
 11
19.363509082171959
 21
271.70192599414781
 31
0.0
  0
LINE
  8
DETAIL
  6
CONTINUOUS
 62
     5
 10
19.363509082171959
 20
271.70192599414781
 30
0.0
 11
19.345951289067671
 21
271.74794610898698
 31
0.0
  0
LINE
  8
DETAIL
  6
CONTINUOUS
 62
     5
 10
19.345951289067671
 20
271.74794610898698
 30
0.0
 11
19.326991562678131
 21
271.79526592326067
 31
0.0
  0
LINE
  8
DETAIL
  6
CONTINUOUS
 62
     5
 10
19.326991562678131
 20
271.79526592326067
 30
0.0
 11
19.326991562678131
 21
271.79526592326067
 31
0.0
  0
LINE
  8
DETAIL
  6
CONTINUOUS
 62
     5
 10
19.326991562678131
 20
271.79526592326067
 30
0.0
 11
19.305861543629131
 21
271.84569596324428
 31
0.0
  0
LINE
  8
DETAIL
  6
CONTINUOUS
 62
     5
 10
19.305861543629131
 20
271.84569596324428
 30
0.0
 11
19.28329982656555
 21
271.89737807435068
 31
0.0
  0
LINE
  8
DETAIL
  6
CONTINUOUS
 62
     5
 10
19.28329982656555
 20
271.89737807435068
 30
0.0
 11
19.28329982656555
 21
271.89737807435068
 31
0.0
  0
LINE
  8
DETAIL
  6
CONTINUOUS
 62
     5
 10
19.28329982656555
 20
271.89737807435068
 30
0.0
 11
19.260192404957252
 21
271.94812374614258
 31
0.0
  0
LINE
  8
DETAIL
  6
CONTINUOUS
 62
     5
 10
19.260192404957252
 20
271.94812374614258
 30
0.0
 11
19.236507913554991
 21
271.99809172564159
 31
0.0
  0
LINE
  8
DETAIL
  6
CONTINUOUS
 62
     5
 10
19.236507913554991
 20
271.99809172564159
 30
0.0
 11
19.236507913554991
 21
271.99809172564159
 31
0.0
  0
LINE
  8
DETAIL
  6
CONTINUOUS
 62
     5
 10
19.236507913554991
 20
271.99809172564159
 30
0.0
 11
19.212051532068241
 21
272.04787320105038
 31
0.0
  0
LINE
  8
DETAIL
  6
CONTINUOUS
 62
     5
 10
19.212051532068241
 20
272.04787320105038
 30
0.0
 11
19.186891978759601
 21
272.09744186783217
 31
0.0
  0
LINE
  8
DETAIL
  6
CONTINUOUS
 62
     5
 10
19.186891978759601
 20
272.09744186783217
 30
0.0
 11
19.186891978759601
 21
272.09744186783217
 31
0.0
  0
LINE
  8
DETAIL
  6
CONTINUOUS
 62
     5
 10
19.186891978759601
 20
272.09744186783217
 30
0.0
 11
19.16112965765592
 21
272.14664772663929
 31
0.0
  0
LINE
  8
DETAIL
  6
CONTINUOUS
 62
     5
 10
19.16112965765592
 20
272.14664772663929
 30
0.0
 11
19.134728177289389
 21
272.19546349162158
 31
0.0
  0
LINE
  8
DETAIL
  6
CONTINUOUS
 62
     5
 10
19.134728177289389
 20
272.19546349162158
 30
0.0
 11
19.134728177289389
 21
272.19546349162158
 31
0.0
  0
LINE
  8
DETAIL
  6
CONTINUOUS
 62
     5
 10
19.134728177289389
 20
272.19546349162158
 30
0.0
 11
19.107687858174589
 21
272.24392421499101
 31
0.0
  0
LINE
  8
DETAIL
  6
CONTINUOUS
 62
     5
 10
19.107687858174589
 20
272.24392421499101
 30
0.0
 11
19.0802926642566
 21
272.29219158770991
 31
0.0
  0
LINE
  8
DETAIL
  6
CONTINUOUS
 62
     5
 10
19.0802926642566
 20
272.29219158770991
 30
0.0
 11
19.1081229331628
 21
272.39030909018197
 31
0.0
  0
LINE
  8
DETAIL
  6
CONTINUOUS
 62
     5
 10
19.1081229331628
 20
272.39030909018197
 30
0.0
 11
19.135509631382089
 21
272.48854359632429
 31
0.0
  0
LINE
  8
DETAIL
  6
CONTINUOUS
 62
     5
 10
19.135509631382089
 20
272.48854359632429
 30
0.0
 11
19.135509631382089
 21
272.48854359632429
 31
0.0
  0
LINE
  8
DETAIL
  6
CONTINUOUS
 62
     5
 10
19.135509631382089
 20
272.48854359632429
 30
0.0
 11
19.162099342036068
 21
272.58699540295339
 31
0.0
  0
LINE
  8
DETAIL
  6
CONTINUOUS
 62
     5
 10
19.162099342036068
 20
272.58699540295339
 30
0.0
 11
19.18789926347495
 21
272.68569797945952
 31
0.0
  0
LINE
  8
DETAIL
  6
CONTINUOUS
 62
     5
 10
19.18789926347495
 20
272.68569797945952
 30
0.0
 11
19.18789926347495
 21
272.68569797945952
 31
0.0
  0
LINE
  8
DETAIL
  6
CONTINUOUS
 62
     5
 10
19.18789926347495
 20
272.68569797945952
 30
0.0
 11
19.212974919570801
 21
272.78463309265442
 31
0.0
  0
LINE
  8
DETAIL
  6
CONTINUOUS
 62
     5
 10
19.212974919570801
 20
272.78463309265442
 30
0.0
 11
19.23726452105052
 21
272.88364252645448
 31
0.0
  0
LINE
  8
DETAIL
  6
CONTINUOUS
 62
     5
 10
19.23726452105052
 20
272.88364252645448
 30
0.0
 11
19.23726452105052
 21
272.88364252645448
 31
0.0
  0
LINE
  8
DETAIL
  6
CONTINUOUS
 62
     5
 10
19.23726452105052
 20
272.88364252645448
 30
0.0
 11
19.26071160969218
 21
272.98268975880347
 31
0.0
  0
LINE
  8
DETAIL
  6
CONTINUOUS
 62
     5
 10
19.26071160969218
 20
272.98268975880347
 30
0.0
 11
19.283408364625071
 21
273.08236502665079
 31
0.0
  0
LINE
  8
DETAIL
  6
CONTINUOUS
 62
     5
 10
19.283408364625071
 20
273.08236502665079
 30
0.0
 11
19.283408364625071
 21
273.08236502665079
 31
0.0
  0
LINE
  8
DETAIL
  6
CONTINUOUS
 62
     5
 10
19.283408364625071
 20
273.08236502665079
 30
0.0
 11
19.305367315251491
 21
273.18282349341558
 31
0.0
  0
LINE
  8
DETAIL
  6
CONTINUOUS
 62
     5
 10
19.305367315251491
 20
273.18282349341558
 30
0.0
 11
19.326133754713961
 21
273.28185326938888
 31
0.0
  0
LINE
  8
DETAIL
  6
CONTINUOUS
 62
     5
 10
19.326133754713961
 20
273.28185326938888
 30
0.0
 11
19.326133754713961
 21
273.28185326938888
 31
0.0
  0
LINE
  8
DETAIL
  6
CONTINUOUS
 62
     5
 10
19.326133754713961
 20
273.28185326938888
 30
0.0
 11
19.345328437839498
 21
273.37758150983728
 31
0.0
  0
LINE
  8
DETAIL
  6
CONTINUOUS
 62
     5
 10
19.345328437839498
 20
273.37758150983728
 30
0.0
 11
19.363341202451011
 21
273.47185860306269
 31
0.0
  0
LINE
  8
DETAIL
  6
CONTINUOUS
 62
     5
 10
19.363341202451011
 20
273.47185860306269
 30
0.0
 11
19.363341202451011
 21
273.47185860306269
 31
0.0
  0
LINE
  8
DETAIL
  6
CONTINUOUS
 62
     5
 10
19.363341202451011
 20
273.47185860306269
 30
0.0
 11
19.38062729860826
 21
273.56688035926987
 31
0.0
  0
LINE
  8
DETAIL
  6
CONTINUOUS
 62
     5
 10
19.38062729860826
 20
273.56688035926987
 30
0.0
 11
19.397134542321279
 21
273.66250104324428
 31
0.0
  0
LINE
  8
DETAIL
  6
CONTINUOUS
 62
     5
 10
19.397134542321279
 20
273.66250104324428
 30
0.0
 11
19.397134542321279
 21
273.66250104324428
 31
0.0
  0
LINE
  8
DETAIL
  6
CONTINUOUS
 62
     5
 10
19.397134542321279
 20
273.66250104324428
 30
0.0
 11
19.412716322374539
 21
273.7581300787885
 31
0.0
  0
LINE
  8
DETAIL
  6
CONTINUOUS
 62
     5
 10
19.412716322374539
 20
273.7581300787885
 30
0.0
 11
19.427355752699441
 21
273.85373907119902
 31
0.0
  0
LINE
  8
DETAIL
  6
CONTINUOUS
 62
     5
 10
19.427355752699441
 20
273.85373907119902
 30
0.0
 11
19.427355752699441
 21
273.85373907119902
 31
0.0
  0
LINE
  8
DETAIL
  6
CONTINUOUS
 62
     5
 10
19.427355752699441
 20
273.85373907119902
 30
0.0
 11
19.441065511878151
 21
273.94946337600783
 31
0.0
  0
LINE
  8
DETAIL
  6
CONTINUOUS
 62
     5
 10
19.441065511878151
 20
273.94946337600783
 30
0.0
 11
19.453846811961512
 21
274.04553116819261
 31
0.0
  0
LINE
  8
DETAIL
  6
CONTINUOUS
 62
     5
 10
19.453846811961512
 20
274.04553116819261
 30
0.0
 11
19.453846811961512
 21
274.04553116819261
 31
0.0
  0
LINE
  8
DETAIL
  6
CONTINUOUS
 62
     5
 10
19.453846811961512
 20
274.04553116819261
 30
0.0
 11
19.465677033612788
 21
274.14196046277272
 31
0.0
  0
LINE
  8
DETAIL
  6
CONTINUOUS
 62
     5
 10
19.465677033612788
 20
274.14196046277272
 30
0.0
 11
19.47644969848238
 21
274.23783581548929
 31
0.0
  0
LINE
  8
DETAIL
  6
CONTINUOUS
 62
     5
 10
19.47644969848238
 20
274.23783581548929
 30
0.0
 11
19.47644969848238
 21
274.23783581548929
 31
0.0
  0
LINE
  8
DETAIL
  6
CONTINUOUS
 62
     5
 10
19.47644969848238
 20
274.23783581548929
 30
0.0
 11
19.48608064126574
 21
274.33238958374852
 31
0.0
  0
LINE
  8
DETAIL
  6
CONTINUOUS
 62
     5
 10
19.48608064126574
 20
274.33238958374852
 30
0.0
 11
19.494658807848509
 21
274.42637879089301
 31
0.0
  0
LINE
  8
DETAIL
  6
CONTINUOUS
 62
     5
 10
19.494658807848509
 20
274.42637879089301
 30
0.0
 11
19.494658807848509
 21
274.42637879089301
 31
0.0
  0
LINE
  8
DETAIL
  6
CONTINUOUS
 62
     5
 10
19.494658807848509
 20
274.42637879089301
 30
0.0
 11
19.502284813125019
 21
274.52069837768852
 31
0.0
  0
LINE
  8
DETAIL
  6
CONTINUOUS
 62
     5
 10
19.502284813125019
 20
274.52069837768852
 30
0.0
 11
19.50893283683013
 21
274.6152702886514
 31
0.0
  0
LINE
  8
DETAIL
  6
CONTINUOUS
 62
     5
 10
19.50893283683013
 20
274.6152702886514
 30
0.0
 11
19.50893283683013
 21
274.6152702886514
 31
0.0
  0
LINE
  8
DETAIL
  6
CONTINUOUS
 62
     5
 10
19.50893283683013
 20
274.6152702886514
 30
0.0
 11
19.514563271541419
 21
274.70983850911148
 31
0.0
  0
LINE
  8
DETAIL
  6
CONTINUOUS
 62
     5
 10
19.514563271541419
 20
274.70983850911148
 30
0.0
 11
19.5192077963668
 21
274.8044081839044
 31
0.0
  0
LINE
  8
DETAIL
  6
CONTINUOUS
 62
     5
 10
19.5192077963668
 20
274.8044081839044
 30
0.0
 11
19.5192077963668
 21
274.8044081839044
 31
0.0
  0
LINE
  8
DETAIL
  6
CONTINUOUS
 62
     5
 10
19.5192077963668
 20
274.8044081839044
 30
0.0
 11
19.522876234306519
 21
274.89903183729842
 31
0.0
  0
LINE
  8
DETAIL
  6
CONTINUOUS
 62
     5
 10
19.522876234306519
 20
274.89903183729842
 30
0.0
 11
19.525419697398998
 21
274.99369035179188
 31
0.0
  0
LINE
  8
DETAIL
  6
CONTINUOUS
 62
     5
 10
19.525419697398998
 20
274.99369035179188
 30
0.0
 11
19.525419697398998
 21
274.99369035179188
 31
0.0
  0
LINE
  8
DETAIL
  6
CONTINUOUS
 62
     5
 10
19.525419697398998
 20
274.99369035179188
 30
0.0
 11
19.52679050927054
 21
275.08835305133459
 31
0.0
  0
LINE
  8
DETAIL
  6
CONTINUOUS
 62
     5
 10
19.52679050927054
 20
275.08835305133459
 30
0.0
 11
19.527504550867661
 21
275.18301466745447
 31
0.0
  0
LINE
  8
DETAIL
  6
CONTINUOUS
 62
     5
 10
19.527504550867661
 20
275.18301466745447
 30
0.0
 11
19.52677376962788
 21
275.27875659481663
 31
0.0
  0
LINE
  8
DETAIL
  6
CONTINUOUS
 62
     5
 10
19.52677376962788
 20
275.27875659481663
 30
0.0
 11
19.52537138648017
 21
275.37449727926082
 31
0.0
  0
LINE
  8
DETAIL
  6
CONTINUOUS
 62
     5
 10
19.52537138648017
 20
275.37449727926082
 30
0.0
 11
19.52537138648017
 21
275.37449727926082
 31
0.0
  0
LINE
  8
DETAIL
  6
CONTINUOUS
 62
     5
 10
19.52537138648017
 20
275.37449727926082
 30
0.0
 11
19.52276969784975
 21
275.47023127415082
 31
0.0
  0
LINE
  8
DETAIL
  6
CONTINUOUS
 62
     5
 10
19.52276969784975
 20
275.47023127415082
 30
0.0
 11
19.5190165934921
 21
275.56593631798029
 31
0.0
  0
LINE
  8
DETAIL
  6
CONTINUOUS
 62
     5
 10
19.5190165934921
 20
275.56593631798029
 30
0.0
 11
19.5190165934921
 21
275.56593631798029
 31
0.0
  0
LINE
  8
DETAIL
  6
CONTINUOUS
 62
     5
 10
19.5190165934921
 20
275.56593631798029
 30
0.0
 11
19.514264353023918
 21
275.66159500476027
 31
0.0
  0
LINE
  8
DETAIL
  6
CONTINUOUS
 62
     5
 10
19.514264353023918
 20
275.66159500476027
 30
0.0
 11
19.508507222164781
 21
275.75722616543447
 31
0.0
  0
LINE
  8
DETAIL
  6
CONTINUOUS
 62
     5
 10
19.508507222164781
 20
275.75722616543447
 30
0.0
 11
19.508507222164781
 21
275.75722616543447
 31
0.0
  0
LINE
  8
DETAIL
  6
CONTINUOUS
 62
     5
 10
19.508507222164781
 20
275.75722616543447
 30
0.0
 11
19.50171407372477
 21
275.85282565696559
 31
0.0
  0
LINE
  8
DETAIL
  6
CONTINUOUS
 62
     5
 10
19.50171407372477
 20
275.85282565696559
 30
0.0
 11
19.493910322759579
 21
275.94826120344368
 31
0.0
  0
LINE
  8
DETAIL
  6
CONTINUOUS
 62
     5
 10
19.493910322759579
 20
275.94826120344368
 30
0.0
 11
19.493910322759579
 21
275.94826120344368
 31
0.0
  0
LINE
  8
DETAIL
  6
CONTINUOUS
 62
     5
 10
19.493910322759579
 20
275.94826120344368
 30
0.0
 11
19.485118486114061
 21
276.04348756937861
 31
0.0
  0
LINE
  8
DETAIL
  6
CONTINUOUS
 62
     5
 10
19.485118486114061
 20
276.04348756937861
 30
0.0
 11
19.47529294553874
 21
276.13893581382769
 31
0.0
  0
LINE
  8
DETAIL
  6
CONTINUOUS
 62
     5
 10
19.47529294553874
 20
276.13893581382769
 30
0.0
 11
19.47529294553874
 21
276.13893581382769
 31
0.0
  0
LINE
  8
DETAIL
  6
CONTINUOUS
 62
     5
 10
19.47529294553874
 20
276.13893581382769
 30
0.0
 11
19.46439362905971
 21
276.23497077139012
 31
0.0
  0
LINE
  8
DETAIL
  6
CONTINUOUS
 62
     5
 10
19.46439362905971
 20
276.23497077139012
 30
0.0
 11
19.452470784894789
 21
276.33121608427712
 31
0.0
  0
LINE
  8
DETAIL
  6
CONTINUOUS
 62
     5
 10
19.452470784894789
 20
276.33121608427712
 30
0.0
 11
19.452470784894789
 21
276.33121608427712
 31
0.0
  0
LINE
  8
DETAIL
  6
CONTINUOUS
 62
     5
 10
19.452470784894789
 20
276.33121608427712
 30
0.0
 11
19.439587469461689
 21
276.42722112897252
 31
0.0
  0
LINE
  8
DETAIL
  6
CONTINUOUS
 62
     5
 10
19.439587469461689
 20
276.42722112897252
 30
0.0
 11
19.425767651787279
 21
276.52297941143291
 31
0.0
  0
LINE
  8
DETAIL
  6
CONTINUOUS
 62
     5
 10
19.425767651787279
 20
276.52297941143291
 30
0.0
 11
19.425767651787279
 21
276.52297941143291
 31
0.0
  0
LINE
  8
DETAIL
  6
CONTINUOUS
 62
     5
 10
19.425767651787279
 20
276.52297941143291
 30
0.0
 11
19.41102139609416
 21
276.61859687253269
 31
0.0
  0
LINE
  8
DETAIL
  6
CONTINUOUS
 62
     5
 10
19.41102139609416
 20
276.61859687253269
 30
0.0
 11
19.39534223477699
 21
276.71418506335073
 31
0.0
  0
LINE
  8
DETAIL
  6
CONTINUOUS
 62
     5
 10
19.39534223477699
 20
276.71418506335073
 30
0.0
 11
19.39534223477699
 21
276.71418506335073
 31
0.0
  0
LINE
  8
DETAIL
  6
CONTINUOUS
 62
     5
 10
19.39534223477699
 20
276.71418506335073
 30
0.0
 11
19.378745870948482
 21
276.80974029494519
 31
0.0
  0
LINE
  8
DETAIL
  6
CONTINUOUS
 62
     5
 10
19.378745870948482
 20
276.80974029494519
 30
0.0
 11
19.361353222425119
 21
276.90479230808558
 31
0.0
  0
LINE
  8
DETAIL
  6
CONTINUOUS
 62
     5
 10
19.361353222425119
 20
276.90479230808558
 30
0.0
 11
19.361353222425119
 21
276.90479230808558
 31
0.0
  0
LINE
  8
DETAIL
  6
CONTINUOUS
 62
     5
 10
19.361353222425119
 20
276.90479230808558
 30
0.0
 11
19.34321042895272
 21
276.99921936870692
 31
0.0
  0
LINE
  8
DETAIL
  6
CONTINUOUS
 62
     5
 10
19.34321042895272
 20
276.99921936870692
 30
0.0
 11
19.323959303291531
 21
277.09476041369368
 31
0.0
  0
LINE
  8
DETAIL
  6
CONTINUOUS
 62
     5
 10
19.323959303291531
 20
277.09476041369368
 30
0.0
 11
19.323959303291531
 21
277.09476041369368
 31
0.0
  0
LINE
  8
DETAIL
  6
CONTINUOUS
 62
     5
 10
19.323959303291531
 20
277.09476041369368
 30
0.0
 11
19.303293775995829
 21
277.19288192010521
 31
0.0
  0
LINE
  8
DETAIL
  6
CONTINUOUS
 62
     5
 10
19.303293775995829
 20
277.19288192010521
 30
0.0
 11
19.28152057578086
 21
277.29209985474728
 31
0.0
  0
LINE
  8
DETAIL
  6
CONTINUOUS
 62
     5
 10
19.28152057578086
 20
277.29209985474728
 30
0.0
 11
19.28152057578086
 21
277.29209985474728
 31
0.0
  0
LINE
  8
DETAIL
  6
CONTINUOUS
 62
     5
 10
19.28152057578086
 20
277.29209985474728
 30
0.0
 11
19.259006259711668
 21
277.39066136074399
 31
0.0
  0
LINE
  8
DETAIL
  6
CONTINUOUS
 62
     5
 10
19.259006259711668
 20
277.39066136074399
 30
0.0
 11
19.235743900089119
 21
277.48868879674279
 31
0.0
  0
LINE
  8
DETAIL
  6
CONTINUOUS
 62
     5
 10
19.235743900089119
 20
277.48868879674279
 30
0.0
 11
19.235743900089119
 21
277.48868879674279
 31
0.0
  0
LINE
  8
DETAIL
  6
CONTINUOUS
 62
     5
 10
19.235743900089119
 20
277.48868879674279
 30
0.0
 11
19.211663956727079
 21
277.58664953059929
 31
0.0
  0
LINE
  8
DETAIL
  6
CONTINUOUS
 62
     5
 10
19.211663956727079
 20
277.58664953059929
 30
0.0
 11
19.18681992425013
 21
277.68451575147361
 31
0.0
  0
LINE
  8
DETAIL
  6
CONTINUOUS
 62
     5
 10
19.18681992425013
 20
277.68451575147361
 30
0.0
 11
19.18681992425013
 21
277.68451575147361
 31
0.0
  0
LINE
  8
DETAIL
  6
CONTINUOUS
 62
     5
 10
19.18681992425013
 20
277.68451575147361
 30
0.0
 11
19.161266392365182
 21
277.78216222866558
 31
0.0
  0
LINE
  8
DETAIL
  6
CONTINUOUS
 62
     5
 10
19.161266392365182
 20
277.78216222866558
 30
0.0
 11
19.13493929629476
 21
277.87956923073199
 31
0.0
  0
LINE
  8
DETAIL
  6
CONTINUOUS
 62
     5
 10
19.13493929629476
 20
277.87956923073199
 30
0.0
 11
19.13493929629476
 21
277.87956923073199
 31
0.0
  0
LINE
  8
DETAIL
  6
CONTINUOUS
 62
     5
 10
19.13493929629476
 20
277.87956923073199
 30
0.0
 11
19.107832803421839
 21
277.97676169646007
 31
0.0
  0
LINE
  8
DETAIL
  6
CONTINUOUS
 62
     5
 10
19.107832803421839
 20
277.97676169646007
 30
0.0
 11
19.0802926642566
 21
278.07383774631018
 31
0.0
  0
LINE
  8
DETAIL
  6
CONTINUOUS
 62
     5
 10
19.0802926642566
 20
278.07383774631018
 30
0.0
 11
19.107684645397509
 21
278.12209935069677
 31
0.0
  0
LINE
  8
DETAIL
  6
CONTINUOUS
 62
     5
 10
19.107684645397509
 20
278.12209935069677
 30
0.0
 11
19.134721851269891
 21
278.17055428960202
 31
0.0
  0
LINE
  8
DETAIL
  6
CONTINUOUS
 62
     5
 10
19.134721851269891
 20
278.17055428960202
 30
0.0
 11
19.134721851269891
 21
278.17055428960202
 31
0.0
  0
LINE
  8
DETAIL
  6
CONTINUOUS
 62
     5
 10
19.134721851269891
 20
278.17055428960202
 30
0.0
 11
19.161120387854911
 21
278.21936421170051
 31
0.0
  0
LINE
  8
DETAIL
  6
CONTINUOUS
 62
     5
 10
19.161120387854911
 20
278.21936421170051
 30
0.0
 11
19.186879886131688
 21
278.26856402229038
 31
0.0
  0
LINE
  8
DETAIL
  6
CONTINUOUS
 62
     5
 10
19.186879886131688
 20
278.26856402229038
 30
0.0
 11
19.186879886131688
 21
278.26856402229038
 31
0.0
  0
LINE
  8
DETAIL
  6
CONTINUOUS
 62
     5
 10
19.186879886131688
 20
278.26856402229038
 30
0.0
 11
19.212036721682129
 21
278.31812641173451
 31
0.0
  0
LINE
  8
DETAIL
  6
CONTINUOUS
 62
     5
 10
19.212036721682129
 20
278.31812641173451
 30
0.0
 11
19.23649072349895
 21
278.36790195402921
 31
0.0
  0
LINE
  8
DETAIL
  6
CONTINUOUS
 62
     5
 10
19.23649072349895
 20
278.36790195402921
 30
0.0
 11
19.23649072349895
 21
278.36790195402921
 31
0.0
  0
LINE
  8
DETAIL
  6
CONTINUOUS
 62
     5
 10
19.23649072349895
 20
278.36790195402921
 30
0.0
 11
19.26017324926806
 21
278.41786449628938
 31
0.0
  0
LINE
  8
DETAIL
  6
CONTINUOUS
 62
     5
 10
19.26017324926806
 20
278.41786449628938
 30
0.0
 11
19.283278318030401
 21
278.46860309447061
 31
0.0
  0
LINE
  8
DETAIL
  6
CONTINUOUS
 62
     5
 10
19.283278318030401
 20
278.46860309447061
 30
0.0
 11
19.283278318030401
 21
278.46860309447061
 31
0.0
  0
LINE
  8
DETAIL
  6
CONTINUOUS
 62
     5
 10
19.283278318030401
 20
278.46860309447061
 30
0.0
 11
19.305837089457331
 21
278.52027592698897
 31
0.0
  0
LINE
  8
DETAIL
  6
CONTINUOUS
 62
     5
 10
19.305837089457331
 20
278.52027592698897
 30
0.0
 11
19.326966624384109
 21
278.57070245326719
 31
0.0
  0
LINE
  8
DETAIL
  6
CONTINUOUS
 62
     5
 10
19.326966624384109
 20
278.57070245326719
 30
0.0
 11
19.326966624384109
 21
278.57070245326719
 31
0.0
  0
LINE
  8
DETAIL
  6
CONTINUOUS
 62
     5
 10
19.326966624384109
 20
278.57070245326719
 30
0.0
 11
19.345930844566741
 21
278.61803127216717
 31
0.0
  0
LINE
  8
DETAIL
  6
CONTINUOUS
 62
     5
 10
19.345930844566741
 20
278.61803127216717
 30
0.0
 11
19.363495214283599
 21
278.66406625929801
 31
0.0
  0
LINE
  8
DETAIL
  6
CONTINUOUS
 62
     5
 10
19.363495214283599
 20
278.66406625929801
 30
0.0
 11
19.363495214283599
 21
278.66406625929801
 31
0.0
  0
LINE
  8
DETAIL
  6
CONTINUOUS
 62
     5
 10
19.363495214283599
 20
278.66406625929801
 30
0.0
 11
19.380553322632519
 21
278.71095409318809
 31
0.0
  0
LINE
  8
DETAIL
  6
CONTINUOUS
 62
     5
 10
19.380553322632519
 20
278.71095409318809
 30
0.0
 11
19.39700971547245
 21
278.75855738729399
 31
0.0
  0
LINE
  8
DETAIL
  6
CONTINUOUS
 62
     5
 10
19.39700971547245
 20
278.75855738729399
 30
0.0
 11
19.39700971547245
 21
278.75855738729399
 31
0.0
  0
LINE
  8
DETAIL
  6
CONTINUOUS
 62
     5
 10
19.39700971547245
 20
278.75855738729399
 30
0.0
 11
19.412584029425719
 21
278.80630011693461
 31
0.0
  0
LINE
  8
DETAIL
  6
CONTINUOUS
 62
     5
 10
19.412584029425719
 20
278.80630011693461
 30
0.0
 11
19.427245307404291
 21
278.85413576995148
 31
0.0
  0
LINE
  8
DETAIL
  6
CONTINUOUS
 62
     5
 10
19.427245307404291
 20
278.85413576995148
 30
0.0
 11
19.427245307404291
 21
278.85413576995148
 31
0.0
  0
LINE
  8
DETAIL
  6
CONTINUOUS
 62
     5
 10
19.427245307404291
 20
278.85413576995148
 30
0.0
 11
19.44102279841286
 21
278.90219171606412
 31
0.0
  0
LINE
  8
DETAIL
  6
CONTINUOUS
 62
     5
 10
19.44102279841286
 20
278.90219171606412
 30
0.0
 11
19.45393716953458
 21
278.95076133996531
 31
0.0
  0
LINE
  8
DETAIL
  6
CONTINUOUS
 62
     5
 10
19.45393716953458
 20
278.95076133996531
 30
0.0
 11
19.45393716953458
 21
278.95076133996531
 31
0.0
  0
LINE
  8
DETAIL
  6
CONTINUOUS
 62
     5
 10
19.45393716953458
 20
278.95076133996531
 30
0.0
 11
19.46595317272045
 21
278.99988113698521
 31
0.0
  0
LINE
  8
DETAIL
  6
CONTINUOUS
 62
     5
 10
19.46595317272045
 20
278.99988113698521
 30
0.0
 11
19.476820481317869
 21
279.04839403002939
 31
0.0
  0
LINE
  8
DETAIL
  6
CONTINUOUS
 62
     5
 10
19.476820481317869
 20
279.04839403002939
 30
0.0
 11
19.476820481317869
 21
279.04839403002939
 31
0.0
  0
LINE
  8
DETAIL
  6
CONTINUOUS
 62
     5
 10
19.476820481317869
 20
279.04839403002939
 30
0.0
 11
19.486340770062501
 21
279.09532386145918
 31
0.0
  0
LINE
  8
DETAIL
  6
CONTINUOUS
 62
     5
 10
19.486340770062501
 20
279.09532386145918
 30
0.0
 11
19.4947387978516
 21
279.14161172388617
 31
0.0
  0
LINE
  8
DETAIL
  6
CONTINUOUS
 62
     5
 10
19.4947387978516
 20
279.14161172388617
 30
0.0
 11
19.4947387978516
 21
279.14161172388617
 31
0.0
  0
LINE
  8
DETAIL
  6
CONTINUOUS
 62
     5
 10
19.4947387978516
 20
279.14161172388617
 30
0.0
 11
19.502269988934358
 21
279.18837267854411
 31
0.0
  0
LINE
  8
DETAIL
  6
CONTINUOUS
 62
     5
 10
19.502269988934358
 20
279.18837267854411
 30
0.0
 11
19.50888934480713
 21
279.23550041091158
 31
0.0
  0
LINE
  8
DETAIL
  6
CONTINUOUS
 62
     5
 10
19.50888934480713
 20
279.23550041091158
 30
0.0
 11
19.50888934480713
 21
279.23550041091158
 31
0.0
  0
LINE
  8
DETAIL
  6
CONTINUOUS
 62
     5
 10
19.50888934480713
 20
279.23550041091158
 30
0.0
 11
19.514506387120719
 21
279.2826652882448
 31
0.0
  0
LINE
  8
DETAIL
  6
CONTINUOUS
 62
     5
 10
19.514506387120719
 20
279.2826652882448
 30
0.0
 11
19.519149140894569
 21
279.3298657806684
 31
0.0
  0
LINE
  8
DETAIL
  6
CONTINUOUS
 62
     5
 10
19.519149140894569
 20
279.3298657806684
 30
0.0
 11
19.519149140894569
 21
279.3298657806684
 31
0.0
  0
LINE
  8
DETAIL
  6
CONTINUOUS
 62
     5
 10
19.519149140894569
 20
279.3298657806684
 30
0.0
 11
19.522831859310141
 21
279.37715962509469
 31
0.0
  0
LINE
  8
DETAIL
  6
CONTINUOUS
 62
     5
 10
19.522831859310141
 20
279.37715962509469
 30
0.0
 11
19.525395204826051
 21
279.42451352271843
 31
0.0
  0
LINE
  8
DETAIL
  6
CONTINUOUS
 62
     5
 10
19.525395204826051
 20
279.42451352271843
 30
0.0
 11
19.525395204826051
 21
279.42451352271843
 31
0.0
  0
LINE
  8
DETAIL
  6
CONTINUOUS
 62
     5
 10
19.525395204826051
 20
279.42451352271843
 30
0.0
 11
19.526780407099299
 21
279.47188042580552
 31
0.0
  0
LINE
  8
DETAIL
  6
CONTINUOUS
 62
     5
 10
19.526780407099299
 20
279.47188042580552
 30
0.0
 11
19.52750455531168
 21
279.51924932662411
 31
0.0
  0
LINE
  8
DETAIL
  6
CONTINUOUS
 62
     5
 10
19.4141209905988
 20
280.22731757490573
 30
0.0
 11
19.406310078295292
 21
280.25164105594791
 31
0.0
  0
LINE
  8
DETAIL
  6
CONTINUOUS
 62
     5
 10
19.406310078295292
 20
280.25164105594791
 30
0.0
 11
19.39833792345166
 21
280.27597704671359
 31
0.0
  0
LINE
  8
DETAIL
  6
CONTINUOUS
 62
     5
 10
19.39833792345166
 20
280.27597704671359
 30
0.0
 11
19.39833792345166
 21
280.27597704671359
 31
0.0
  0
LINE
  8
DETAIL
  6
CONTINUOUS
 62
     5
 10
19.39833792345166
 20
280.27597704671359
 30
0.0
 11
19.390097451847851
 21
280.30029021527139
 31
0.0
  0
LINE
  8
DETAIL
  6
CONTINUOUS
 62
     5
 10
19.390097451847851
 20
280.30029021527139
 30
0.0
 11
19.381698262547388
 21
280.32435386306332
 31
0.0
  0
LINE
  8
DETAIL
  6
CONTINUOUS
 62
     5
 10
19.381698262547388
 20
280.32435386306332
 30
0.0
 11
19.381698262547388
 21
280.32435386306332
 31
0.0
  0
LINE
  8
DETAIL
  6
CONTINUOUS
 62
     5
 10
19.381698262547388
 20
280.32435386306332
 30
0.0
 11
19.37319892180653
 21
280.34811948351421
 31
0.0
  0
LINE
  8
DETAIL
  6
CONTINUOUS
 62
     5
 10
19.37319892180653
 20
280.34811948351421
 30
0.0
 11
19.36423719137338
 21
280.37244270460451
 31
0.0
  0
LINE
  8
DETAIL
  6
CONTINUOUS
 62
     5
 10
19.36423719137338
 20
280.37244270460451
 30
0.0
 11
19.36423719137338
 21
280.37244270460451
 31
0.0
  0
LINE
  8
DETAIL
  6
CONTINUOUS
 62
     5
 10
19.36423719137338
 20
280.37244270460451
 30
0.0
 11
19.35471226805771
 21
280.39754889505417
 31
0.0
  0
LINE
  8
DETAIL
  6
CONTINUOUS
 62
     5
 10
19.35471226805771
 20
280.39754889505417
 30
0.0
 11
19.345989893419532
 21
280.42023825198748
 31
0.0
  0
LINE
  8
DETAIL
  6
CONTINUOUS
 62
     5
 10
19.345989893419532
 20
280.42023825198748
 30
0.0
 11
19.345989893419532
 21
280.42023825198748
 31
0.0
  0
LINE
  8
DETAIL
  6
CONTINUOUS
 62
     5
 10
19.345989893419532
 20
280.42023825198748
 30
0.0
 11
19.338441101582479
 21
280.43965381758682
 31
0.0
  0
LINE
  8
DETAIL
  6
CONTINUOUS
 62
     5
 10
19.338441101582479
 20
280.43965381758682
 30
0.0
 11
19.326991552173009
 21
280.46773518586218
 31
0.0
  0
LINE
  8
DETAIL
  6
CONTINUOUS
 62
     5
 10
19.326991552173009
 20
280.46773518586218
 30
0.0
 11
19.326991552173009
 21
280.46773518586218
 31
0.0
  0
LINE
  8
DETAIL
  6
CONTINUOUS
 62
     5
 10
19.326991552173009
 20
280.46773518586218
 30
0.0
 11
19.30728710782159
 21
280.51454572295847
 31
0.0
  0
LINE
  8
DETAIL
  6
CONTINUOUS
 62
     5
 10
19.30728710782159
 20
280.51454572295847
 30
0.0
 11
19.283299817669789
 21
280.56984733172919
 31
0.0
  0
LINE
  8
DETAIL
  6
CONTINUOUS
 62
     5
 10
19.283299817669789
 20
280.56984733172919
 30
0.0
 11
19.283299817669789
 21
280.56984733172919
 31
0.0
  0
LINE
  8
DETAIL
  6
CONTINUOUS
 62
     5
 10
19.283299817669789
 20
280.56984733172919
 30
0.0
 11
19.259810380422319
 21
280.62156293239002
 31
0.0
  0
LINE
  8
DETAIL
  6
CONTINUOUS
 62
     5
 10
19.259810380422319
 20
280.62156293239002
 30
0.0
 11
19.236507906529599
 21
280.67056097789731
 31
0.0
  0
LINE
  8
DETAIL
  6
CONTINUOUS
 62
     5
 10
19.236507906529599
 20
280.67056097789731
 30
0.0
 11
19.236507906529599
 21
280.67056097789731
 31
0.0
  0
LINE
  8
DETAIL
  6
CONTINUOUS
 62
     5
 10
19.236507906529599
 20
280.67056097789731
 30
0.0
 11
19.212154018314099
 21
280.72008222527268
 31
0.0
  0
LINE
  8
DETAIL
  6
CONTINUOUS
 62
     5
 10
19.212154018314099
 20
280.72008222527268
 30
0.0
 11
19.186891973849701
 21
280.76991111506283
 31
0.0
  0
LINE
  8
DETAIL
  6
CONTINUOUS
 62
     5
 10
19.186891973849701
 20
280.76991111506283
 30
0.0
 11
19.186891973849701
 21
280.76991111506283
 31
0.0
  0
LINE
  8
DETAIL
  6
CONTINUOUS
 62
     5
 10
19.186891973849701
 20
280.76991111506283
 30
0.0
 11
19.161101701459071
 21
280.81918794198498
 31
0.0
  0
LINE
  8
DETAIL
  6
CONTINUOUS
 62
     5
 10
19.161101701459071
 20
280.81918794198498
 30
0.0
 11
19.134728174725979
 21
280.86793273392038
 31
0.0
  0
LINE
  8
DETAIL
  6
CONTINUOUS
 62
     5
 10
19.134728174725979
 20
280.86793273392038
 30
0.0
 11
19.134728174725979
 21
280.86793273392038
 31
0.0
  0
LINE
  8
DETAIL
  6
CONTINUOUS
 62
     5
 10
19.134728174725979
 20
280.86793273392038
 30
0.0
 11
19.107697174352548
 21
280.91636979799711
 31
0.0
  0
LINE
  8
DETAIL
  6
CONTINUOUS
 62
     5
 10
19.107697174352548
 20
280.91636979799711
 30
0.0
 11
19.0802926642566
 21
280.96466082516588
 31
0.0
  0
LINE
  8
DETAIL
  6
CONTINUOUS
 62
     5
 10
19.52750455531168
 20
279.51924932662411
 30
0.0
 11
19.526772745201701
 21
279.56665714235942
 31
0.0
  0
LINE
  8
DETAIL
  6
CONTINUOUS
 62
     5
 10
19.526772745201701
 20
279.56665714235942
 30
0.0
 11
19.525394610146801
 21
279.61399814318878
 31
0.0
  0
LINE
  8
DETAIL
  6
CONTINUOUS
 62
     5
 10
19.525394610146801
 20
279.61399814318878
 30
0.0
 11
19.525394610146801
 21
279.61399814318878
 31
0.0
  0
LINE
  8
DETAIL
  6
CONTINUOUS
 62
     5
 10
19.525394610146801
 20
279.61399814318878
 30
0.0
 11
19.522852918809122
 21
279.66126131714009
 31
0.0
  0
LINE
  8
DETAIL
  6
CONTINUOUS
 62
     5
 10
19.522852918809122
 20
279.66126131714009
 30
0.0
 11
19.519146814280479
 21
279.70865886397172
 31
0.0
  0
LINE
  8
DETAIL
  6
CONTINUOUS
 62
     5
 10
19.519146814280479
 20
279.70865886397172
 30
0.0
 11
19.519146814280479
 21
279.70865886397172
 31
0.0
  0
LINE
  8
DETAIL
  6
CONTINUOUS
 62
     5
 10
19.519146814280479
 20
279.70865886397172
 30
0.0
 11
19.514420771399269
 21
279.75622228775848
 31
0.0
  0
LINE
  8
DETAIL
  6
CONTINUOUS
 62
     5
 10
19.514420771399269
 20
279.75622228775848
 30
0.0
 11
19.50888421755576
 21
279.8030370981017
 31
0.0
  0
LINE
  8
DETAIL
  6
CONTINUOUS
 62
     5
 10
19.50888421755576
 20
279.8030370981017
 30
0.0
 11
19.50888421755576
 21
279.8030370981017
 31
0.0
  0
LINE
  8
DETAIL
  6
CONTINUOUS
 62
     5
 10
19.50888421755576
 20
279.8030370981017
 30
0.0
 11
19.502568772118821
 21
279.84884249752469
 31
0.0
  0
LINE
  8
DETAIL
  6
CONTINUOUS
 62
     5
 10
19.502568772118821
 20
279.84884249752469
 30
0.0
 11
19.494729869814819
 21
279.89693845470998
 31
0.0
  0
LINE
  8
DETAIL
  6
CONTINUOUS
 62
     5
 10
19.494729869814819
 20
279.89693845470998
 30
0.0
 11
19.494729869814819
 21
279.89693845470998
 31
0.0
  0
LINE
  8
DETAIL
  6
CONTINUOUS
 62
     5
 10
19.494729869814819
 20
279.89693845470998
 30
0.0
 11
19.485188845713989
 21
279.94819086233758
 31
0.0
  0
LINE
  8
DETAIL
  6
CONTINUOUS
 62
     5
 10
19.485188845713989
 20
279.94819086233758
 30
0.0
 11
19.476806820900489
 21
279.99016854292478
 31
0.0
  0
LINE
  8
DETAIL
  6
CONTINUOUS
 62
     5
 10
19.476806820900489
 20
279.99016854292478
 30
0.0
 11
19.476806820900489
 21
279.99016854292478
 31
0.0
  0
LINE
  8
DETAIL
  6
CONTINUOUS
 62
     5
 10
19.476806820900489
 20
279.99016854292478
 30
0.0
 11
19.472082650405579
 21
280.01238335995868
 31
0.0
  0
LINE
  8
DETAIL
  6
CONTINUOUS
 62
     5
 10
19.472082650405579
 20
280.01238335995868
 30
0.0
 11
19.469026339032101
 21
280.02541641096678
 31
0.0
  0
LINE
  8
DETAIL
  6
CONTINUOUS
 62
     5
 10
19.469026339032101
 20
280.02541641096678
 30
0.0
 11
19.469026339032101
 21
280.02541641096678
 31
0.0
  0
LINE
  8
DETAIL
  6
CONTINUOUS
 62
     5
 10
19.469026339032101
 20
280.02541641096678
 30
0.0
 11
19.465183459418991
 21
280.04176689208941
 31
0.0
  0
LINE
  8
DETAIL
  6
CONTINUOUS
 62
     5
 10
19.465183459418991
 20
280.04176689208941
 30
0.0
 11
19.46073070577631
 21
280.06053715988128
 31
0.0
  0
LINE
  8
DETAIL
  6
CONTINUOUS
 62
     5
 10
19.46073070577631
 20
280.06053715988128
 30
0.0
 11
19.46073070577631
 21
280.06053715988128
 31
0.0
  0
LINE
  8
DETAIL
  6
CONTINUOUS
 62
     5
 10
19.46073070577631
 20
280.06053715988128
 30
0.0
 11
19.456327401227551
 21
280.07837777120119
 31
0.0
  0
LINE
  8
DETAIL
  6
CONTINUOUS
 62
     5
 10
19.456327401227551
 20
280.07837777120119
 30
0.0
 11
19.451932262975561
 21
280.09552892371647
 31
0.0
  0
LINE
  8
DETAIL
  6
CONTINUOUS
 62
     5
 10
19.451932262975561
 20
280.09552892371647
 30
0.0
 11
19.451932262975561
 21
280.09552892371647
 31
0.0
  0
LINE
  8
DETAIL
  6
CONTINUOUS
 62
     5
 10
19.451932262975561
 20
280.09552892371647
 30
0.0
 11
19.44737168227039
 21
280.1128877943857
 31
0.0
  0
LINE
  8
DETAIL
  6
CONTINUOUS
 62
     5
 10
19.44737168227039
 20
280.1128877943857
 30
0.0
 11
19.44264335247362
 21
280.13038983651973
 31
0.0
  0
LINE
  8
DETAIL
  6
CONTINUOUS
 62
     5
 10
19.44264335247362
 20
280.13038983651973
 30
0.0
 11
19.44264335247362
 21
280.13038983651973
 31
0.0
  0
LINE
  8
DETAIL
  6
CONTINUOUS
 62
     5
 10
19.44264335247362
 20
280.13038983651973
 30
0.0
 11
19.43779164184366
 21
280.14779438596253
 31
0.0
  0
LINE
  8
DETAIL
  6
CONTINUOUS
 62
     5
 10
19.43779164184366
 20
280.14779438596253
 30
0.0
 11
19.432876316112921
 21
280.16511803233709
 31
0.0
  0
LINE
  8
DETAIL
  6
CONTINUOUS
 62
     5
 10
19.0802926642566
 20
269.40136850885398
 30
0.0
 11
19.107684645379081
 21
269.44963011302661
 31
0.0
  0
LINE
  8
DETAIL
  6
CONTINUOUS
 62
     5
 10
19.107684645379081
 20
269.44963011302661
 30
0.0
 11
19.13472185122076
 21
269.49808505175798
 31
0.0
  0
LINE
  8
DETAIL
  6
CONTINUOUS
 62
     5
 10
19.13472185122076
 20
269.49808505175798
 30
0.0
 11
19.13472185122076
 21
269.49808505175798
 31
0.0
  0
LINE
  8
DETAIL
  6
CONTINUOUS
 62
     5
 10
19.13472185122076
 20
269.49808505175798
 30
0.0
 11
19.16112038775373
 21
269.54689497375358
 31
0.0
  0
LINE
  8
DETAIL
  6
CONTINUOUS
 62
     5
 10
19.16112038775373
 20
269.54689497375358
 30
0.0
 11
19.186879885965482
 21
269.59609478429837
 31
0.0
  0
LINE
  8
DETAIL
  6
CONTINUOUS
 62
     5
 10
19.186879885965482
 20
269.59609478429837
 30
0.0
 11
19.186879885965482
 21
269.59609478429837
 31
0.0
  0
LINE
  8
DETAIL
  6
CONTINUOUS
 62
     5
 10
19.186879885965482
 20
269.59609478429837
 30
0.0
 11
19.212036721447699
 21
269.64565717373381
 31
0.0
  0
LINE
  8
DETAIL
  6
CONTINUOUS
 62
     5
 10
19.212036721447699
 20
269.64565717373381
 30
0.0
 11
19.236490723199271
 21
269.69543271604851
 31
0.0
  0
LINE
  8
DETAIL
  6
CONTINUOUS
 62
     5
 10
19.236490723199271
 20
269.69543271604851
 30
0.0
 11
19.236490723199271
 21
269.69543271604851
 31
0.0
  0
LINE
  8
DETAIL
  6
CONTINUOUS
 62
     5
 10
19.236490723199271
 20
269.69543271604851
 30
0.0
 11
19.260173248910629
 21
269.74539525835098
 31
0.0
  0
LINE
  8
DETAIL
  6
CONTINUOUS
 62
     5
 10
19.260173248910629
 20
269.74539525835098
 30
0.0
 11
19.28327831762908
 21
269.79613385658359
 31
0.0
  0
LINE
  8
DETAIL
  6
CONTINUOUS
 62
     5
 10
19.28327831762908
 20
269.79613385658359
 30
0.0
 11
19.28327831762908
 21
269.79613385658359
 31
0.0
  0
LINE
  8
DETAIL
  6
CONTINUOUS
 62
     5
 10
19.28327831762908
 20
269.79613385658359
 30
0.0
 11
19.305837089032369
 21
269.8478066891517
 31
0.0
  0
LINE
  8
DETAIL
  6
CONTINUOUS
 62
     5
 10
19.305837089032369
 20
269.8478066891517
 30
0.0
 11
19.326966623963241
 21
269.89823321547749
 31
0.0
  0
LINE
  8
DETAIL
  6
CONTINUOUS
 62
     5
 10
19.326966623963241
 20
269.89823321547749
 30
0.0
 11
19.326966623963241
 21
269.89823321547749
 31
0.0
  0
LINE
  8
DETAIL
  6
CONTINUOUS
 62
     5
 10
19.326966623963241
 20
269.89823321547749
 30
0.0
 11
19.345930844182249
 21
269.94556203442318
 31
0.0
  0
LINE
  8
DETAIL
  6
CONTINUOUS
 62
     5
 10
19.345930844182249
 20
269.94556203442318
 30
0.0
 11
19.363495213955051
 21
269.99159702158568
 31
0.0
  0
LINE
  8
DETAIL
  6
CONTINUOUS
 62
     5
 10
19.363495213955051
 20
269.99159702158568
 30
0.0
 11
19.363495213955051
 21
269.99159702158568
 31
0.0
  0
LINE
  8
DETAIL
  6
CONTINUOUS
 62
     5
 10
19.363495213955051
 20
269.99159702158568
 30
0.0
 11
19.380553322368769
 21
270.03848485548878
 31
0.0
  0
LINE
  8
DETAIL
  6
CONTINUOUS
 62
     5
 10
19.380553322368769
 20
270.03848485548878
 30
0.0
 11
19.39700971528077
 21
270.08608814962622
 31
0.0
  0
LINE
  8
DETAIL
  6
CONTINUOUS
 62
     5
 10
19.39700971528077
 20
270.08608814962622
 30
0.0
 11
19.39700971528077
 21
270.08608814962622
 31
0.0
  0
LINE
  8
DETAIL
  6
CONTINUOUS
 62
     5
 10
19.39700971528077
 20
270.08608814962622
 30
0.0
 11
19.41258402930907
 21
270.13383087932948
 31
0.0
  0
LINE
  8
DETAIL
  6
CONTINUOUS
 62
     5
 10
19.41258402930907
 20
270.13383087932948
 30
0.0
 11
19.427245307334719
 21
270.18166653231958
 31
0.0
  0
LINE
  8
DETAIL
  6
CONTINUOUS
 62
     5
 10
19.427245307334719
 20
270.18166653231958
 30
0.0
 11
19.427245307334719
 21
270.18166653231958
 31
0.0
  0
LINE
  8
DETAIL
  6
CONTINUOUS
 62
     5
 10
19.427245307334719
 20
270.18166653231958
 30
0.0
 11
19.441022798348289
 21
270.22972247828397
 31
0.0
  0
LINE
  8
DETAIL
  6
CONTINUOUS
 62
     5
 10
19.441022798348289
 20
270.22972247828397
 30
0.0
 11
19.453937169512528
 21
270.27829210238701
 31
0.0
  0
LINE
  8
DETAIL
  6
CONTINUOUS
 62
     5
 10
19.453937169512528
 20
270.27829210238701
 30
0.0
 11
19.453937169512528
 21
270.27829210238701
 31
0.0
  0
LINE
  8
DETAIL
  6
CONTINUOUS
 62
     5
 10
19.453937169512528
 20
270.27829210238701
 30
0.0
 11
19.465953172794801
 21
270.32741190008812
 31
0.0
  0
LINE
  8
DETAIL
  6
CONTINUOUS
 62
     5
 10
19.465953172794801
 20
270.32741190008812
 30
0.0
 11
19.47682048120851
 21
270.37592479255028
 31
0.0
  0
LINE
  8
DETAIL
  6
CONTINUOUS
 62
     5
 10
19.47682048120851
 20
270.37592479255028
 30
0.0
 11
19.47682048120851
 21
270.37592479255028
 31
0.0
  0
LINE
  8
DETAIL
  6
CONTINUOUS
 62
     5
 10
19.47682048120851
 20
270.37592479255028
 30
0.0
 11
19.486340769224171
 21
270.42285462065831
 31
0.0
  0
LINE
  8
DETAIL
  6
CONTINUOUS
 62
     5
 10
19.486340769224171
 20
270.42285462065831
 30
0.0
 11
19.494738796095131
 21
270.46914247847587
 31
0.0
  0
LINE
  8
DETAIL
  6
CONTINUOUS
 62
     5
 10
19.494738796095131
 20
270.46914247847587
 30
0.0
 11
19.494738796095131
 21
270.46914247847587
 31
0.0
  0
LINE
  8
DETAIL
  6
CONTINUOUS
 62
     5
 10
19.494738796095131
 20
270.46914247847587
 30
0.0
 11
19.50226998647463
 21
270.51590342896168
 31
0.0
  0
LINE
  8
DETAIL
  6
CONTINUOUS
 62
     5
 10
19.50226998647463
 20
270.51590342896168
 30
0.0
 11
19.50888934182581
 21
270.56303115746721
 31
0.0
  0
LINE
  8
DETAIL
  6
CONTINUOUS
 62
     5
 10
19.50888934182581
 20
270.56303115746721
 30
0.0
 11
19.50888934182581
 21
270.56303115746721
 31
0.0
  0
LINE
  8
DETAIL
  6
CONTINUOUS
 62
     5
 10
19.50888934182581
 20
270.56303115746721
 30
0.0
 11
19.514506383687149
 21
270.61019603078358
 31
0.0
  0
LINE
  8
DETAIL
  6
CONTINUOUS
 62
     5
 10
19.514506383687149
 20
270.61019603078358
 30
0.0
 11
19.519149137079008
 21
270.65739651906853
 31
0.0
  0
LINE
  8
DETAIL
  6
CONTINUOUS
 62
     5
 10
19.519149137079008
 20
270.65739651906853
 30
0.0
 11
19.519149137079008
 21
270.65739651906853
 31
0.0
  0
LINE
  8
DETAIL
  6
CONTINUOUS
 62
     5
 10
19.519149137079008
 20
270.65739651906853
 30
0.0
 11
19.52283185520696
 21
270.70469035935628
 31
0.0
  0
LINE
  8
DETAIL
  6
CONTINUOUS
 62
     5
 10
19.52283185520696
 20
270.70469035935628
 30
0.0
 11
19.52539520053347
 21
270.75204425282533
 31
0.0
  0
LINE
  8
DETAIL
  6
CONTINUOUS
 62
     5
 10
19.52539520053347
 20
270.75204425282533
 30
0.0
 11
19.52539520053347
 21
270.75204425282533
 31
0.0
  0
LINE
  8
DETAIL
  6
CONTINUOUS
 62
     5
 10
19.52539520053347
 20
270.75204425282533
 30
0.0
 11
19.526780402706891
 21
270.79941115170448
 31
0.0
  0
LINE
  8
DETAIL
  6
CONTINUOUS
 62
     5
 10
19.526780402706891
 20
270.79941115170448
 30
0.0
 11
19.527504550867661
 21
270.84678004828203
 31
0.0
  0
ARC
  8
DETAIL
  6
CONTINUOUS
 62
     5
 10
1.502115734682093
 20
353.49790289489579
 30
0.0
 40
1.5021157346822349
 50
0.0
 51
180.0
  0
ARC
  8
DETAIL
  6
CONTINUOUS
 62
     5
 10
117.3997361578508
 20
350.00898874817773
 30
0.0
 40
2.0028209792798748
 50
0.0
 51
180.0
  0
ARC
  8
DETAIL
  6
CONTINUOUS
 62
     5
 10
16.798504179680091
 20
279.404690662105
 30
0.0
 40
2.7419274867620711
 50
16.101102686002449
 51
17.458669187594989
  0
ARC
  8
DETAIL
  6
CONTINUOUS
 62
     5
 10
13.01833636754122
 20
249.15497606517249
 30
0.0
 40
3.0042314693641861
 50
180.0
 51
270.0
  0
ARC
  8
DETAIL
  6
CONTINUOUS
 62
     5
 10
6.4090271349398336
 20
348.39070939697638
 30
0.0
 40
3.6050777632370909
 50
0.0
 51
90.0
  0
ARC
  8
DETAIL
  6
CONTINUOUS
 62
     5
 10
16.423132032228299
 20
242.5456668325709
 30
0.0
 40
3.6050777632371478
 50
0.0
 51
90.0
  0
ARC
  8
DETAIL
  6
CONTINUOUS
 62
     5
 10
16.423132032228299
 20
338.37660449879922
 30
0.0
 40
3.6050777632372051
 50
0.0
 51
90.0
  0
ARC
  8
DETAIL
  6
CONTINUOUS
 62
     5
 10
6.4090271349398336
 20
284.32381156925459
 30
0.0
 40
3.6050777632371478
 50
0.0
 51
90.0
  0
ARC
  8
DETAIL
  6
CONTINUOUS
 62
     5
 10
145.90550836182661
 20
21.029620285549811
 30
0.0
 40
2.0028209792798748
 50
180.0000128092004
 51
270.0
  0
ARC
  8
DETAIL
  6
CONTINUOUS
 62
     5
 10
145.90550836182661
 20
-21.02962028554958
 30
0.0
 40
2.002820979279925
 50
90.0
 51
179.9999871907996
  0
ARC
  8
DETAIL
  6
CONTINUOUS
 62
     5
 10
164.13117927656231
 20
-32.846264065345217
 30
0.0
 40
5.0070524486440604
 50
0.0000003212008077
 51
90.0
  0
ARC
  8
DETAIL
  6
CONTINUOUS
 62
     5
 10
164.13117927656231
 20
32.846264064456527
 30
0.0
 40
5.0070524486440036
 50
270.0
 51
0.0
  0
ARC
  8
DETAIL
  6
CONTINUOUS
 62
     5
 10
156.92102375008841
 20
-21.830748677972512
 30
0.0
 40
6.0084629387284849
 50
179.9999994573015
 51
270.0
  0
ARC
  8
DETAIL
  6
CONTINUOUS
 62
     5
 10
156.92102375008841
 20
21.830748677083928
 30
0.0
 40
6.0084629387283686
 50
90.0
 51
180.0000005426985
  0
ARC
  8
DETAIL
  6
CONTINUOUS
 62
     5
 10
334.44857185349429
 20
-74.322122260080349
 30
0.0
 40
6.531699919346492
 50
313.89739816710602
 51
46.102601832894067
  0
ARC
  8
DETAIL
  6
CONTINUOUS
 62
     5
 10
1.502115734682093
 20
-353.49790289578431
 30
0.0
 40
1.5021157346821781
 50
180.0
 51
0.0
  0
ARC
  8
DETAIL
  6
CONTINUOUS
 62
     5
 10
117.3997361578508
 20
-350.00898874906642
 30
0.0
 40
2.0028209792798748
 50
180.0
 51
0.0
  0
ARC
  8
DETAIL
  6
CONTINUOUS
 62
     5
 10
13.01833636754122
 20
-249.15497606606101
 30
0.0
 40
3.0042314693641861
 50
90.0
 51
180.0
  0
ARC
  8
DETAIL
  6
CONTINUOUS
 62
     5
 10
6.4090271349398336
 20
-284.32381157014322
 30
0.0
 40
3.605077763237007
 50
270.0
 51
0.0
  0
ARC
  8
DETAIL
  6
CONTINUOUS
 62
     5
 10
16.423132032228299
 20
-242.54566683345959
 30
0.0
 40
3.605077763237007
 50
270.0
 51
0.0
  0
ARC
  8
DETAIL
  6
CONTINUOUS
 62
     5
 10
16.423132032228299
 20
-338.37660449968809
 30
0.0
 40
3.605077763237007
 50
270.0
 51
0.0
  0
ARC
  8
DETAIL
  6
CONTINUOUS
 62
     5
 10
6.4090271349398336
 20
-348.39070939786518
 30
0.0
 40
3.605077763237007
 50
270.0
 51
0.0
  0
LINE
  8
DETAIL
  6
CONTINUOUS
 62
     5
 10
6.4090271349398336
 20
351.99578716021352
 30
0.0
 11
3.0042314693641861
 21
351.99578716021352
 31
0.0
  0
LINE
  8
DETAIL
  6
CONTINUOUS
 62
     5
 10
3.0042314693641861
 20
348.82584606761969
 30
0.0
 11
5.1071934979188427
 21
348.82584606761969
 31
0.0
  0
LINE
  8
DETAIL
  6
CONTINUOUS
 62
     5
 10
16.423132032228299
 20
341.98168226203649
 30
0.0
 11
13.88719749516417
 21
341.98168226203649
 31
0.0
  0
LINE
  8
DETAIL
  6
CONTINUOUS
 62
     5
 10
14.52045210222332
 20
314.48279488539288
 30
0.0
 11
112.65868010115879
 21
314.48279488539288
 31
0.0
  0
LINE
  8
DETAIL
  6
CONTINUOUS
 62
     5
 10
188.2651720798624
 20
303.15312851627368
 30
0.0
 11
114.6615010804385
 21
303.15312851627368
 31
0.0
  0
LINE
  8
DETAIL
  6
CONTINUOUS
 62
     5
 10
5.1071934979188427
 20
299.25855570161087
 30
0.0
 11
3.0042314693641861
 21
299.25855570161087
 31
0.0
  0
LINE
  8
DETAIL
  6
CONTINUOUS
 62
     5
 10
114.6615010804385
 20
296.78019118375488
 30
0.0
 11
188.2651720798624
 21
296.78019118375488
 31
0.0
  0
LINE
  8
DETAIL
  6
CONTINUOUS
 62
     5
 10
112.65868010115879
 20
291.82346214715398
 30
0.0
 11
14.52045210222332
 21
291.82346214715398
 31
0.0
  0
LINE
  8
DETAIL
  6
CONTINUOUS
 62
     5
 10
112.65868010115879
 20
288.63699348045049
 30
0.0
 11
14.52045210222332
 21
288.63699348045049
 31
0.0
  0
LINE
  8
DETAIL
  6
CONTINUOUS
 62
     5
 10
3.0042314693641861
 20
287.92888933249168
 30
0.0
 11
6.4090271349398336
 21
287.92888933249168
 31
0.0
  0
LINE
  8
DETAIL
  6
CONTINUOUS
 62
     5
 10
19.0802926642566
 20
269.40136850885398
 30
0.0
 11
19.527504550867661
 21
270.17596221792138
 31
0.0
  0
LINE
  8
DETAIL
  6
CONTINUOUS
 62
     5
 10
114.6615010804385
 20
293.23967044307187
 30
0.0
 11
112.65868010115879
 21
291.82346214715398
 31
0.0
  0
LINE
  8
DETAIL
  6
CONTINUOUS
 62
     5
 10
112.65868010115879
 20
288.63699348045049
 30
0.0
 11
114.6615010804385
 21
290.05320177636838
 31
0.0
  0
LINE
  8
DETAIL
  6
CONTINUOUS
 62
     5
 10
14.52045210222332
 20
280.96466082516588
 30
0.0
 11
19.0802926642566
 21
280.96466082516588
 31
0.0
  0
LINE
  8
DETAIL
  6
CONTINUOUS
 62
     5
 10
14.52045210222332
 20
278.07383774631018
 30
0.0
 11
19.0802926642566
 21
278.07383774631018
 31
0.0
  0
LINE
  8
DETAIL
  6
CONTINUOUS
 62
     5
 10
20.428773991676739
 20
277.68654089133207
 30
0.0
 11
19.527504550867661
 21
277.68654089133207
 31
0.0
  0
LINE
  8
DETAIL
  6
CONTINUOUS
 62
     5
 10
188.2651720798624
 20
274.12085844462729
 30
0.0
 11
20.428773991676739
 21
274.12085844462729
 31
0.0
  0
LINE
  8
DETAIL
  6
CONTINUOUS
 62
     5
 10
20.428773991676739
 20
272.67948844268813
 30
0.0
 11
19.527504550867661
 21
272.67948844268813
 31
0.0
  0
LINE
  8
DETAIL
  6
CONTINUOUS
 62
     5
 10
14.52045210222332
 20
272.29219158770991
 30
0.0
 11
19.0802926642566
 21
272.29219158770991
 31
0.0
  0
LINE
  8
DETAIL
  6
CONTINUOUS
 62
     5
 10
14.52045210222332
 20
269.40136850885398
 30
0.0
 11
19.0802926642566
 21
269.40136850885398
 31
0.0
  0
LINE
  8
DETAIL
  6
CONTINUOUS
 62
     5
 10
14.52045210222332
 20
258.18851511288642
 30
0.0
 11
10.01410489817704
 21
258.18851511288642
 31
0.0
  0
LINE
  8
DETAIL
  6
CONTINUOUS
 62
     5
 10
13.01833636754122
 20
246.15074459580811
 30
0.0
 11
16.423132032228299
 21
246.15074459580811
 31
0.0
  0
LINE
  8
DETAIL
  6
CONTINUOUS
 62
     5
 10
112.65868010115879
 20
-291.82346214804278
 30
0.0
 11
114.6615010804385
 21
-293.23967044396062
 31
0.0
  0
LINE
  8
DETAIL
  6
CONTINUOUS
 62
     5
 10
114.6615010804385
 20
-290.05320177725679
 30
0.0
 11
112.65868010115879
 21
-288.63699348133912
 31
0.0
  0
LINE
  8
DETAIL
  6
CONTINUOUS
 62
     5
 10
0.0
 20
-353.49790289578431
 30
0.0
 11
0.0
 21
353.49790289489579
 31
0.0
  0
LINE
  8
DETAIL
  6
CONTINUOUS
 62
     5
 10
3.0042314693641861
 20
-353.49790289578431
 30
0.0
 11
3.0042314693641861
 21
353.49790289489579
 31
0.0
  0
LINE
  8
DETAIL
  6
CONTINUOUS
 62
     5
 10
5.1071934979188427
 20
298.85533231613618
 30
0.0
 11
5.1071934979188427
 21
348.82584606761969
 31
0.0
  0
LINE
  8
DETAIL
  6
CONTINUOUS
 62
     5
 10
5.1071934979188427
 20
-348.82584606850838
 30
0.0
 11
5.1071934979188427
 21
-298.85533231702487
 31
0.0
  0
LINE
  8
DETAIL
  6
CONTINUOUS
 62
     5
 10
10.01410489817704
 20
284.32381156925459
 30
0.0
 11
10.01410489817704
 21
289.94127575366122
 31
0.0
  0
LINE
  8
DETAIL
  6
CONTINUOUS
 62
     5
 10
10.01410489817704
 20
-284.32381157014322
 30
0.0
 11
10.01410489817704
 21
284.32381156925459
 31
0.0
  0
LINE
  8
DETAIL
  6
CONTINUOUS
 62
     5
 10
10.01410489817704
 20
-348.39070939786518
 30
0.0
 11
10.01410489817704
 21
-344.55397031892647
 31
0.0
  0
LINE
  8
DETAIL
  6
CONTINUOUS
 62
     5
 10
10.01410489817704
 20
-284.32381157014322
 30
0.0
 11
10.01410489817704
 21
-289.94127575366082
 31
0.0
  0
LINE
  8
DETAIL
  6
CONTINUOUS
 62
     5
 10
10.01410489817704
 20
348.39070939697638
 30
0.0
 11
10.01410489817704
 21
345.18094901346211
 31
0.0
  0
LINE
  8
DETAIL
  6
CONTINUOUS
 62
     5
 10
14.52045210222332
 20
258.18851511288642
 30
0.0
 11
14.52045210222332
 21
339.50856611878078
 31
0.0
  0
LINE
  8
DETAIL
  6
CONTINUOUS
 62
     5
 10
14.52045210222332
 20
-339.50856611966952
 30
0.0
 11
14.52045210222332
 21
-258.18851511377511
 31
0.0
  0
LINE
  8
DETAIL
  6
CONTINUOUS
 62
     5
 10
19.527504550867661
 20
270.17596221792138
 30
0.0
 11
19.527504550867661
 21
280.19006711609848
 31
0.0
  0
LINE
  8
DETAIL
  6
CONTINUOUS
 62
     5
 10
20.028209795465269
 20
314.48279488539288
 30
0.0
 11
20.028209795465269
 21
338.37660449879922
 31
0.0
  0
LINE
  8
DETAIL
  6
CONTINUOUS
 62
     5
 10
20.028209795465269
 20
-274.12085844551598
 30
0.0
 11
20.028209795465269
 21
272.67948844268813
 31
0.0
  0
LINE
  8
DETAIL
  6
CONTINUOUS
 62
     5
 10
20.028209795465269
 20
-338.37660449968809
 30
0.0
 11
20.028209795465269
 21
-314.48279488628168
 31
0.0
  0
LINE
  8
DETAIL
  6
CONTINUOUS
 62
     5
 10
20.428773991676739
 20
277.68420000928131
 30
0.0
 11
20.428773991676739
 21
272.68182932473889
 31
0.0
  0
LINE
  8
DETAIL
  6
CONTINUOUS
 62
     5
 10
20.528915040951919
 20
-336.97462981428077
 30
0.0
 11
20.528915040951919
 21
-314.48279488628168
 31
0.0
  0
LINE
  8
DETAIL
  6
CONTINUOUS
 62
     5
 10
21.430184481760989
 20
278.18724613681871
 30
0.0
 11
21.430184481760989
 21
272.17878319809017
 31
0.0
  0
LINE
  8
DETAIL
  6
CONTINUOUS
 62
     5
 10
258.36390636532411
 20
99.900159648158876
 30
0.0
 11
205.28606698010839
 21
99.900159648158876
 31
0.0
  0
LINE
  8
DETAIL
  6
CONTINUOUS
 62
     5
 10
343.48688149367968
 20
99.900159648158876
 30
0.0
 11
290.40904203824641
 21
99.900159648158876
 31
0.0
  0
LINE
  8
DETAIL
  6
CONTINUOUS
 62
     5
 10
258.36390636532411
 20
97.980080820924911
 30
0.0
 11
205.2706680397655
 21
97.980080820924911
 31
0.0
  0
LINE
  8
DETAIL
  6
CONTINUOUS
 62
     5
 10
343.50227998960958
 20
97.980080820924911
 30
0.0
 11
290.40904203824641
 21
97.980080820924911
 31
0.0
  0
LINE
  8
DETAIL
  6
CONTINUOUS
 62
     5
 10
258.36390636532411
 20
96.302164138404294
 30
0.0
 11
224.31594971223331
 21
96.302164138404294
 31
0.0
  0
LINE
  8
DETAIL
  6
CONTINUOUS
 62
     5
 10
324.4569986913375
 20
96.302164138404294
 30
0.0
 11
290.40904203824641
 21
96.302164138404294
 31
0.0
  0
LINE
  8
DETAIL
  6
CONTINUOUS
 62
     5
 10
224.31594971223331
 20
94.177295315303752
 30
0.0
 11
205.24329396969321
 21
94.177295315303752
 31
0.0
  0
LINE
  8
DETAIL
  6
CONTINUOUS
 62
     5
 10
343.52965462941921
 20
94.177295315303752
 30
0.0
 11
324.4569986913375
 21
94.177295315303752
 31
0.0
  0
LINE
  8
DETAIL
  6
CONTINUOUS
 62
     5
 10
224.31594971223331
 20
88.565820027222969
 30
0.0
 11
205.20457978709621
 21
88.565820027222969
 31
0.0
  0
LINE
  8
DETAIL
  6
CONTINUOUS
 62
     5
 10
343.56836896222762
 20
88.565820027222969
 30
0.0
 11
324.4569986913375
 21
88.565820027222969
 31
0.0
  0
LINE
  8
DETAIL
  6
CONTINUOUS
 62
     5
 10
224.31594971223331
 20
87.096810213161405
 30
0.0
 11
220.3103077536737
 21
87.096810213161405
 31
0.0
  0
LINE
  8
DETAIL
  6
CONTINUOUS
 62
     5
 10
328.46264065078611
 20
87.096810213161405
 30
0.0
 11
324.4569986913375
 21
87.096810213161405
 31
0.0
  0
LINE
  8
DETAIL
  6
CONTINUOUS
 62
     5
 10
220.3103077536737
 20
86.713981877846834
 30
0.0
 11
210.2962028554964
 21
86.713981877846834
 31
0.0
  0
LINE
  8
DETAIL
  6
CONTINUOUS
 62
     5
 10
328.46264065078611
 20
86.713981877846834
 30
0.0
 11
338.47674554807429
 21
86.713981877846834
 31
0.0
  0
LINE
  8
DETAIL
  6
CONTINUOUS
 62
     5
 10
338.47674554807429
 20
79.906763602465219
 30
0.0
 11
342.03517562091213
 21
79.906763602465219
 31
0.0
  0
LINE
  8
DETAIL
  6
CONTINUOUS
 62
     5
 10
258.36390636532411
 20
77.537404214827859
 30
0.0
 11
290.40904203824641
 21
77.537404214827859
 31
0.0
  0
LINE
  8
DETAIL
  6
CONTINUOUS
 62
     5
 10
338.47674554807429
 20
75.818522397284426
 30
0.0
 11
342.03517562091213
 21
75.818522397284426
 31
0.0
  0
LINE
  8
DETAIL
  6
CONTINUOUS
 62
     5
 10
338.47674554807429
 20
70.233881054010979
 30
0.0
 11
342.03517562091213
 21
70.233881054010979
 31
0.0
  0
LINE
  8
DETAIL
  6
CONTINUOUS
 62
     5
 10
338.47674554807429
 20
68.73748091591807
 30
0.0
 11
342.03517562091213
 21
68.73748091591807
 31
0.0
  0
LINE
  8
DETAIL
  6
CONTINUOUS
 62
     5
 10
210.2962028554964
 20
65.76950926181172
 30
0.0
 11
206.7377727826586
 21
65.76950926181172
 31
0.0
  0
LINE
  8
DETAIL
  6
CONTINUOUS
 62
     5
 10
224.31594971223331
 20
65.145581622881366
 30
0.0
 11
324.4569986913375
 21
65.145581622881366
 31
0.0
  0
LINE
  8
DETAIL
  6
CONTINUOUS
 62
     5
 10
210.2962028554964
 20
61.681268056630813
 30
0.0
 11
206.7377727826586
 21
61.681268056630813
 31
0.0
  0
LINE
  8
DETAIL
  6
CONTINUOUS
 62
     5
 10
224.31594971223331
 20
61.605060883087113
 30
0.0
 11
220.3103077536737
 21
61.605060883087113
 31
0.0
  0
LINE
  8
DETAIL
  6
CONTINUOUS
 62
     5
 10
328.46264065078611
 20
61.605060883087113
 30
0.0
 11
324.4569986913375
 21
61.605060883087113
 31
0.0
  0
LINE
  8
DETAIL
  6
CONTINUOUS
 62
     5
 10
224.31594971223331
 20
58.772644290362848
 30
0.0
 11
324.4569986913375
 21
58.772644290362848
 31
0.0
  0
LINE
  8
DETAIL
  6
CONTINUOUS
 62
     5
 10
210.2962028554964
 20
56.096626713357352
 30
0.0
 11
206.7377727826586
 21
56.096626713357352
 31
0.0
  0
LINE
  8
DETAIL
  6
CONTINUOUS
 62
     5
 10
210.2962028554964
 20
54.600226575264571
 30
0.0
 11
206.7377727826586
 21
54.600226575264571
 31
0.0
  0
LINE
  8
DETAIL
  6
CONTINUOUS
 62
     5
 10
343.86374137033067
 20
47.677470690540822
 30
0.0
 11
204.90920697279989
 21
47.677470690540822
 31
0.0
  0
LINE
  8
DETAIL
  6
CONTINUOUS
 62
     5
 10
375.52893367052951
 20
41.057830081015076
 30
0.0
 11
361.402281764029
 21
41.057830081015076
 31
0.0
  0
LINE
  8
DETAIL
  6
CONTINUOUS
 62
     5
 10
173.24401473304121
 20
41.057830081015076
 30
0.0
 11
187.3706666395417
 21
41.057830081015076
 31
0.0
  0
LINE
  8
DETAIL
  6
CONTINUOUS
 62
     5
 10
328.46264065078611
 20
38.417050673471351
 30
0.0
 11
220.3103077536737
 21
38.417050673471351
 31
0.0
  0
LINE
  8
DETAIL
  6
CONTINUOUS
 62
     5
 10
343.9567114577452
 20
35.073890837537931
 30
0.0
 11
204.81623694227031
 21
35.073890837537931
 31
0.0
  0
LINE
  8
DETAIL
  6
CONTINUOUS
 62
     5
 10
169.1382317252062
 20
35.049367142286478
 30
0.0
 11
169.93936011674049
 21
35.049367142286478
 31
0.0
  0
LINE
  8
DETAIL
  6
CONTINUOUS
 62
     5
 10
156.92102375008841
 20
27.83921161581242
 30
0.0
 11
164.13117927656231
 21
27.83921161581242
 31
0.0
  0
LINE
  8
DETAIL
  6
CONTINUOUS
 62
     5
 10
328.46264065078611
 20
27.393919867746551
 30
0.0
 11
220.3103077536737
 21
27.393919867746551
 31
0.0
  0
LINE
  8
DETAIL
  6
CONTINUOUS
 62
     5
 10
112.65868010115879
 20
-291.82346214804278
 30
0.0
 11
112.65868010115879
 21
-288.63699348133912
 31
0.0
  0
LINE
  8
DETAIL
  6
CONTINUOUS
 62
     5
 10
112.65868010115879
 20
291.82346214715398
 30
0.0
 11
112.65868010115879
 21
288.63699348045049
 31
0.0
  0
LINE
  8
DETAIL
  6
CONTINUOUS
 62
     5
 10
114.6615010804385
 20
-313.06658659036401
 30
0.0
 11
114.6615010804385
 21
-290.05320177725679
 31
0.0
  0
LINE
  8
DETAIL
  6
CONTINUOUS
 62
     5
 10
114.6615010804385
 20
313.06658658947532
 30
0.0
 11
114.6615010804385
 21
290.05320177636838
 31
0.0
  0
LINE
  8
DETAIL
  6
CONTINUOUS
 62
     5
 10
115.39691517857089
 20
-303.15312851716232
 30
0.0
 11
115.39691517857089
 21
-350.00898874906642
 31
0.0
  0
LINE
  8
DETAIL
  6
CONTINUOUS
 62
     5
 10
115.39691517857089
 20
274.12085844462729
 30
0.0
 11
115.39691517857089
 21
-274.12085844551598
 31
0.0
  0
LINE
  8
DETAIL
  6
CONTINUOUS
 62
     5
 10
115.39691517857089
 20
350.00898874817773
 30
0.0
 11
115.39691517857089
 21
303.15312851627368
 31
0.0
  0
LINE
  8
DETAIL
  6
CONTINUOUS
 62
     5
 10
119.4025571380193
 20
-303.15312851716232
 30
0.0
 11
119.4025571380193
 21
-350.00898874906642
 31
0.0
  0
LINE
  8
DETAIL
  6
CONTINUOUS
 62
     5
 10
119.4025571380193
 20
274.12085844462729
 30
0.0
 11
119.4025571380193
 21
-274.12085844551598
 31
0.0
  0
LINE
  8
DETAIL
  6
CONTINUOUS
 62
     5
 10
119.4025571380193
 20
350.00898874817773
 30
0.0
 11
119.4025571380193
 21
303.15312851627368
 31
0.0
  0
LINE
  8
DETAIL
  6
CONTINUOUS
 62
     5
 10
150.9125645390956
 20
-18.025392710131481
 30
0.0
 11
149.91115443031731
 21
-19.026803242879449
 31
0.0
  0
LINE
  8
DETAIL
  6
CONTINUOUS
 62
     5
 10
143.9026873825467
 20
23.032441264829629
 30
0.0
 11
135.8914034645384
 21
23.032441264829629
 31
0.0
  0
LINE
  8
DETAIL
  6
CONTINUOUS
 62
     5
 10
344.05257439074762
 20
21.812001740308521
 30
0.0
 11
204.72037400126851
 21
21.812001740308521
 31
0.0
  0
LINE
  8
DETAIL
  6
CONTINUOUS
 62
     5
 10
149.91115049370751
 20
19.026799305381079
 30
0.0
 11
145.90550836182661
 21
19.026799305381079
 31
0.0
  0
LINE
  8
DETAIL
  6
CONTINUOUS
 62
     5
 10
328.46264065078611
 20
15.83759757198465
 30
0.0
 11
220.3103077536737
 21
15.83759757198465
 31
0.0
  0
LINE
  8
DETAIL
  6
CONTINUOUS
 62
     5
 10
173.24401473304121
 20
15.02115734682133
 30
0.0
 11
169.93936011674049
 21
15.02115734682133
 31
0.0
  0
LINE
  8
DETAIL
  6
CONTINUOUS
 62
     5
 10
344.15168844882783
 20
8.1499309850819941
 30
0.0
 11
204.62125995385369
 21
8.1499309850819941
 31
0.0
  0
LINE
  8
DETAIL
  6
CONTINUOUS
 62
     5
 10
328.46264065078611
 20
3.973014453801341
 30
0.0
 11
220.3103077536737
 21
3.973014453801341
 31
0.0
  0
LINE
  8
DETAIL
  6
CONTINUOUS
 62
     5
 10
328.46264065078611
 20
-3.973014454690087
 30
0.0
 11
220.3103077536737
 21
-3.973014454690087
 31
0.0
  0
LINE
  8
DETAIL
  6
CONTINUOUS
 62
     5
 10
135.8914034645384
 20
-51.720463746995279
 30
0.0
 11
135.89257047158529
 21
22.727763701273769
 31
0.0
  0
LINE
  8
DETAIL
  6
CONTINUOUS
 62
     5
 10
143.9026873825467
 20
23.032284581714919
 30
0.0
 11
143.9026873825467
 21
-23.032284582603491
 31
0.0
  0
LINE
  8
DETAIL
  6
CONTINUOUS
 62
     5
 10
149.9111515087468
 20
-19.026799210276469
 30
0.0
 11
149.9111515087468
 21
19.026799209387889
 31
0.0
  0
LINE
  8
DETAIL
  6
CONTINUOUS
 62
     5
 10
150.9125608113595
 20
21.831190550647701
 30
0.0
 11
150.9125608113595
 21
-21.831190551536281
 31
0.0
  0
LINE
  8
DETAIL
  6
CONTINUOUS
 62
     5
 10
344.15168844971657
 20
-8.1499309859705704
 30
0.0
 11
204.62125995474281
 21
-8.1499309859705704
 31
0.0
  0
LINE
  8
DETAIL
  6
CONTINUOUS
 62
     5
 10
173.24401473304121
 20
-15.0211573468211
 30
0.0
 11
169.93936011674049
 21
-15.0211573468211
 31
0.0
  0
LINE
  8
DETAIL
  6
CONTINUOUS
 62
     5
 10
328.46264065078611
 20
-15.83759757198442
 30
0.0
 11
220.3103077536737
 21
-15.83759757198442
 31
0.0
  0
LINE
  8
DETAIL
  6
CONTINUOUS
 62
     5
 10
149.91115049370751
 20
-19.026799306269709
 30
0.0
 11
145.90550836182661
 21
-19.026799306269709
 31
0.0
  0
LINE
  8
DETAIL
  6
CONTINUOUS
 62
     5
 10
344.05257440230241
 20
-21.81200174119704
 30
0.0
 11
204.72037401282299
 21
-21.81200174119704
 31
0.0
  0
LINE
  8
DETAIL
  6
CONTINUOUS
 62
     5
 10
143.9026873825467
 20
-23.032441265718209
 30
0.0
 11
135.8914034645384
 21
-23.032441265718209
 31
0.0
  0
LINE
  8
DETAIL
  6
CONTINUOUS
 62
     5
 10
328.46264065078611
 20
-27.39391986863512
 30
0.0
 11
220.3103077536737
 21
-27.39391986863512
 31
0.0
  0
LINE
  8
DETAIL
  6
CONTINUOUS
 62
     5
 10
156.92102375008841
 20
-27.83921161670099
 30
0.0
 11
164.13117927656231
 21
-27.83921161670099
 31
0.0
  0
LINE
  8
DETAIL
  6
CONTINUOUS
 62
     5
 10
169.1382317252062
 20
-35.049367143175168
 30
0.0
 11
169.1382317252062
 21
35.049367142286478
 31
0.0
  0
LINE
  8
DETAIL
  6
CONTINUOUS
 62
     5
 10
169.93936011674049
 20
-35.049367143175168
 30
0.0
 11
169.93936011674049
 21
35.049367142286478
 31
0.0
  0
LINE
  8
DETAIL
  6
CONTINUOUS
 62
     5
 10
173.24401473304121
 20
-41.057794972392628
 30
0.0
 11
173.24401473304121
 21
41.057794971504052
 31
0.0
  0
LINE
  8
DETAIL
  6
CONTINUOUS
 62
     5
 10
187.3706666395417
 20
41.057830081015076
 30
0.0
 11
191.26940354922661
 21
85.620596876880825
 31
0.0
  0
LINE
  8
DETAIL
  6
CONTINUOUS
 62
     5
 10
169.1382317252062
 20
-35.049367143175168
 30
0.0
 11
169.93936011674049
 21
-35.049367143175168
 31
0.0
  0
LINE
  8
DETAIL
  6
CONTINUOUS
 62
     5
 10
343.95671146130047
 20
-35.073890838426507
 30
0.0
 11
204.81623694582569
 21
-35.073890838426507
 31
0.0
  0
LINE
  8
DETAIL
  6
CONTINUOUS
 62
     5
 10
328.46264065078611
 20
-38.417050674359928
 30
0.0
 11
220.3103077536737
 21
-38.417050674359928
 31
0.0
  0
LINE
  8
DETAIL
  6
CONTINUOUS
 62
     5
 10
375.52893367052951
 20
-41.05783008190366
 30
0.0
 11
361.402281764029
 21
-41.05783008190366
 31
0.0
  0
LINE
  8
DETAIL
  6
CONTINUOUS
 62
     5
 10
173.24401473304121
 20
-41.05783008190366
 30
0.0
 11
187.3706666395417
 21
-41.05783008190366
 31
0.0
  0
LINE
  8
DETAIL
  6
CONTINUOUS
 62
     5
 10
343.8637414307708
 20
-47.677470691429377
 30
0.0
 11
204.90920703324011
 21
-47.677470691429377
 31
0.0
  0
LINE
  8
DETAIL
  6
CONTINUOUS
 62
     5
 10
338.47674554807429
 20
-54.600226576153148
 30
0.0
 11
342.03517562091213
 21
-54.600226576153148
 31
0.0
  0
LINE
  8
DETAIL
  6
CONTINUOUS
 62
     5
 10
338.47674554807429
 20
-58.688467781334047
 30
0.0
 11
342.03517562091213
 21
-58.688467781334047
 31
0.0
  0
LINE
  8
DETAIL
  6
CONTINUOUS
 62
     5
 10
324.4569986913375
 20
-58.772644291251417
 30
0.0
 11
224.31594971223331
 21
-58.772644291251417
 31
0.0
  0
LINE
  8
DETAIL
  6
CONTINUOUS
 62
     5
 10
224.31594971223331
 20
-61.605060883086821
 30
0.0
 11
220.3103077536737
 21
-61.605060883086821
 31
0.0
  0
LINE
  8
DETAIL
  6
CONTINUOUS
 62
     5
 10
328.46264065078611
 20
-61.605060883086821
 30
0.0
 11
324.4569986913375
 21
-61.605060883086821
 31
0.0
  0
LINE
  8
DETAIL
  6
CONTINUOUS
 62
     5
 10
150.9125645390956
 20
18.025392709242912
 30
0.0
 11
149.91115443031731
 21
19.02680324199088
 31
0.0
  0
LINE
  8
DETAIL
  6
CONTINUOUS
 62
     5
 10
19.0802926642566
 20
280.96466082516588
 30
0.0
 11
19.527504550867661
 21
280.19006711609848
 31
0.0
  0
LINE
  8
DETAIL
  6
CONTINUOUS
 62
     5
 10
187.3706666395417
 20
-41.05783008190366
 30
0.0
 11
191.26940354922661
 21
-85.620596876880654
 31
0.0
  0
LINE
  8
DETAIL
  6
CONTINUOUS
 62
     5
 10
187.3706666395417
 20
-41.05783008190366
 30
0.0
 11
187.3706666395417
 21
41.057830081015076
 31
0.0
  0
LINE
  8
DETAIL
  6
CONTINUOUS
 62
     5
 10
191.26940354922661
 20
85.620596876880825
 30
0.0
 11
191.26940354922661
 21
-85.620596876880654
 31
0.0
  0
LINE
  8
DETAIL
  6
CONTINUOUS
 62
     5
 10
210.2962028554964
 20
-47.677470691429377
 30
0.0
 11
210.2962028554964
 21
-86.713933899025548
 31
0.0
  0
LINE
  8
DETAIL
  6
CONTINUOUS
 62
     5
 10
210.2962028554964
 20
86.71393389902579
 30
0.0
 11
210.2962028554964
 21
47.677470690540822
 31
0.0
  0
LINE
  8
DETAIL
  6
CONTINUOUS
 62
     5
 10
338.47674554807429
 20
-64.273109124607572
 30
0.0
 11
342.03517562091213
 21
-64.273109124607572
 31
0.0
  0
LINE
  8
DETAIL
  6
CONTINUOUS
 62
     5
 10
324.4569986913375
 20
-65.145581623769942
 30
0.0
 11
224.31594971223331
 21
-65.145581623769942
 31
0.0
  0
LINE
  8
DETAIL
  6
CONTINUOUS
 62
     5
 10
338.47674554807429
 20
-65.769509261811436
 30
0.0
 11
342.03517562091213
 21
-65.769509261811436
 31
0.0
  0
LINE
  8
DETAIL
  6
CONTINUOUS
 62
     5
 10
210.2962028554964
 20
-68.73748091680676
 30
0.0
 11
206.7377727826586
 21
-68.73748091680676
 31
0.0
  0
LINE
  8
DETAIL
  6
CONTINUOUS
 62
     5
 10
338.97745079356082
 20
-69.615492957483809
 30
0.0
 11
338.47674554807429
 21
-69.615492957483809
 31
0.0
  0
LINE
  8
DETAIL
  6
CONTINUOUS
 62
     5
 10
210.2962028554964
 20
-72.82572212198761
 30
0.0
 11
206.7377727826586
 21
-72.82572212198761
 31
0.0
  0
LINE
  8
DETAIL
  6
CONTINUOUS
 62
     5
 10
340.61522042972922
 20
-74.322122260080349
 30
0.0
 11
340.98027177284052
 21
-74.322122260080349
 31
0.0
  0
LINE
  8
DETAIL
  6
CONTINUOUS
 62
     5
 10
258.36390636532411
 20
-77.537404214827731
 30
0.0
 11
290.40904203824641
 21
-77.537404214827731
 31
0.0
  0
LINE
  8
DETAIL
  6
CONTINUOUS
 62
     5
 10
210.2962028554964
 20
-78.41036346437231
 30
0.0
 11
206.7377727826586
 21
-78.41036346437231
 31
0.0
  0
LINE
  8
DETAIL
  6
CONTINUOUS
 62
     5
 10
338.97745079356082
 20
-79.028751561788042
 30
0.0
 11
338.47674554807429
 21
-79.028751561788042
 31
0.0
  0
LINE
  8
DETAIL
  6
CONTINUOUS
 62
     5
 10
210.2962028554964
 20
-79.906763602464977
 30
0.0
 11
206.7377727826586
 21
-79.906763602464977
 31
0.0
  0
LINE
  8
DETAIL
  6
CONTINUOUS
 62
     5
 10
220.3103077536737
 20
-86.71398187873541
 30
0.0
 11
210.2962028554964
 21
-86.71398187873541
 31
0.0
  0
LINE
  8
DETAIL
  6
CONTINUOUS
 62
     5
 10
328.46264065078611
 20
-86.71398187873541
 30
0.0
 11
338.47674554807429
 21
-86.71398187873541
 31
0.0
  0
LINE
  8
DETAIL
  6
CONTINUOUS
 62
     5
 10
224.31594971223331
 20
-87.096810214050052
 30
0.0
 11
220.3103077536737
 21
-87.096810214050052
 31
0.0
  0
LINE
  8
DETAIL
  6
CONTINUOUS
 62
     5
 10
328.46264065078611
 20
-87.096810214050052
 30
0.0
 11
324.4569986913375
 21
-87.096810214050052
 31
0.0
  0
LINE
  8
DETAIL
  6
CONTINUOUS
 62
     5
 10
224.31594971223331
 20
-88.56582002811156
 30
0.0
 11
205.20457944134299
 21
-88.56582002811156
 31
0.0
  0
LINE
  8
DETAIL
  6
CONTINUOUS
 62
     5
 10
343.56836861647412
 20
-88.56582002811156
 30
0.0
 11
324.4569986913375
 21
-88.56582002811156
 31
0.0
  0
LINE
  8
DETAIL
  6
CONTINUOUS
 62
     5
 10
290.40904203824641
 20
-89.221122658815418
 30
0.0
 11
299.07124277520961
 21
-89.221122658815418
 31
0.0
  0
LINE
  8
DETAIL
  6
CONTINUOUS
 62
     5
 10
290.40904203824641
 20
-89.64598514759075
 30
0.0
 11
299.07124277520961
 21
-89.64598514759075
 31
0.0
  0
LINE
  8
DETAIL
  6
CONTINUOUS
 62
     5
 10
290.40904203824641
 20
-90.354089295549599
 30
0.0
 11
299.07124277520961
 21
-90.354089295549599
 31
0.0
  0
LINE
  8
DETAIL
  6
CONTINUOUS
 62
     5
 10
290.40904203824641
 20
-90.778951784325002
 30
0.0
 11
299.07124277520961
 21
-90.778951784325002
 31
0.0
  0
LINE
  8
DETAIL
  6
CONTINUOUS
 62
     5
 10
220.3103077536737
 20
-99.900110739625745
 30
0.0
 11
220.3103077536737
 21
99.900110739626086
 31
0.0
  0
LINE
  8
DETAIL
  6
CONTINUOUS
 62
     5
 10
224.31594971223331
 20
-96.302164139292799
 30
0.0
 11
224.31594971223331
 21
-58.772644291251417
 31
0.0
  0
LINE
  8
DETAIL
  6
CONTINUOUS
 62
     5
 10
224.31594971223331
 20
96.302164138404294
 30
0.0
 11
224.31594971223331
 21
58.772644290362848
 31
0.0
  0
LINE
  8
DETAIL
  6
CONTINUOUS
 62
     5
 10
224.31594971223331
 20
-94.177295316192328
 30
0.0
 11
205.2432937741514
 21
-94.177295316192328
 31
0.0
  0
LINE
  8
DETAIL
  6
CONTINUOUS
 62
     5
 10
343.52965443387762
 20
-94.177295316192328
 30
0.0
 11
324.4569986913375
 21
-94.177295316192328
 31
0.0
  0
LINE
  8
DETAIL
  6
CONTINUOUS
 62
     5
 10
299.07124277520961
 20
-96.302164139292799
 30
0.0
 11
324.4569986913375
 21
-96.302164139292799
 31
0.0
  0
LINE
  8
DETAIL
  6
CONTINUOUS
 62
     5
 10
224.31594971223331
 20
-96.302164139292799
 30
0.0
 11
258.36390636532411
 21
-96.302164139292799
 31
0.0
  0
LINE
  8
DETAIL
  6
CONTINUOUS
 62
     5
 10
258.36390636532411
 20
-97.98008082092457
 30
0.0
 11
205.2706684139612
 21
-97.98008082092457
 31
0.0
  0
LINE
  8
DETAIL
  6
CONTINUOUS
 62
     5
 10
343.50228036469412
 20
-97.98008082092457
 30
0.0
 11
315.24608245641741
 21
-97.98008082092457
 31
0.0
  0
LINE
  8
DETAIL
  6
CONTINUOUS
 62
     5
 10
258.36390636532411
 20
-99.900159649047438
 30
0.0
 11
205.2860669098911
 21
-99.900159649047438
 31
0.0
  0
LINE
  8
DETAIL
  6
CONTINUOUS
 62
     5
 10
343.48688142435088
 20
-99.900159649047438
 30
0.0
 11
314.189142396107
 21
-99.900159649047453
 31
0.0
  0
LINE
  8
DETAIL
  6
CONTINUOUS
 62
     5
 10
258.36390636532411
 20
77.537404214827859
 30
0.0
 11
258.36390636532411
 21
224.5535680795077
 31
0.0
  0
LINE
  8
DETAIL
  6
CONTINUOUS
 62
     5
 10
258.36390636532411
 20
-77.537404214827731
 30
0.0
 11
258.36390636532411
 21
-224.5535680803961
 31
0.0
  0
LINE
  8
DETAIL
  6
CONTINUOUS
 62
     5
 10
290.40904203824641
 20
-77.537404214827731
 30
0.0
 11
290.4090420382463
 21
-224.55356808053489
 31
0.0
  0
LINE
  8
DETAIL
  6
CONTINUOUS
 62
     5
 10
290.40904203824641
 20
224.5535680795077
 30
0.0
 11
290.40904203824641
 21
77.537404214827859
 31
0.0
  0
LINE
  8
DETAIL
  6
CONTINUOUS
 62
     5
 10
299.07124277520961
 20
-107.706333736085
 30
0.0
 11
299.07124277520961
 21
-89.221122658815418
 31
0.0
  0
LINE
  8
DETAIL
  6
CONTINUOUS
 62
     5
 10
324.4569986913375
 20
58.772644290362848
 30
0.0
 11
324.4569986913375
 21
96.302164138404294
 31
0.0
  0
LINE
  8
DETAIL
  6
CONTINUOUS
 62
     5
 10
324.4569986913375
 20
-96.302164139292799
 30
0.0
 11
324.4569986913375
 21
-58.772644291251417
 31
0.0
  0
LINE
  8
DETAIL
  6
CONTINUOUS
 62
     5
 10
328.46264065078611
 20
99.900110739626086
 30
0.0
 11
328.46264065078611
 21
-99.900110739625745
 31
0.0
  0
LINE
  8
DETAIL
  6
CONTINUOUS
 62
     5
 10
338.47674554807429
 20
47.677470690540822
 30
0.0
 11
338.47674554807429
 21
86.71393389902579
 31
0.0
  0
LINE
  8
DETAIL
  6
CONTINUOUS
 62
     5
 10
338.47674554807429
 20
-86.713933899025548
 30
0.0
 11
338.47674554807429
 21
-47.677470691429377
 31
0.0
  0
LINE
  8
DETAIL
  6
CONTINUOUS
 62
     5
 10
338.97745079356082
 20
-79.028751561788042
 30
0.0
 11
338.97745079356082
 21
-69.615492957483809
 31
0.0
  0
LINE
  8
DETAIL
  6
CONTINUOUS
 62
     5
 10
357.503544854344
 20
-85.620596876880654
 30
0.0
 11
357.503544854344
 21
85.620596876880825
 31
0.0
  0
LINE
  8
DETAIL
  6
CONTINUOUS
 62
     5
 10
114.6615010804385
 20
-313.06658659036401
 30
0.0
 11
112.65868010115879
 21
-314.48279488628168
 31
0.0
  0
LINE
  8
DETAIL
  6
CONTINUOUS
 62
     5
 10
361.402281764029
 20
41.057830081015076
 30
0.0
 11
357.503544854344
 21
85.620596876880825
 31
0.0
  0
LINE
  8
DETAIL
  6
CONTINUOUS
 62
     5
 10
361.402281764029
 20
-41.05783008190366
 30
0.0
 11
361.402281764029
 21
41.057830081015076
 31
0.0
  0
LINE
  8
DETAIL
  6
CONTINUOUS
 62
     5
 10
375.52893367052951
 20
41.057794971504052
 30
0.0
 11
375.52893367052951
 21
-41.057794972392628
 31
0.0
  0
LINE
  8
DETAIL
  6
CONTINUOUS
 62
     5
 10
361.402281764029
 20
-41.05783008190366
 30
0.0
 11
357.503544854344
 21
-85.620596876880654
 31
0.0
  0
LINE
  8
DETAIL
  6
CONTINUOUS
 62
     5
 10
16.423132032228299
 20
-246.1507445966968
 30
0.0
 11
13.01833636754122
 21
-246.1507445966968
 31
0.0
  0
LINE
  8
DETAIL
  6
CONTINUOUS
 62
     5
 10
14.52045210222332
 20
-258.18851511377511
 30
0.0
 11
10.01410489817704
 21
-258.18851511377511
 31
0.0
  0
LINE
  8
DETAIL
  6
CONTINUOUS
 62
     5
 10
188.2651720798624
 20
-274.12085844551598
 30
0.0
 11
14.52045210222332
 21
-274.12085844551598
 31
0.0
  0
LINE
  8
DETAIL
  6
CONTINUOUS
 62
     5
 10
6.4090271349398336
 20
-287.92888933338031
 30
0.0
 11
3.0042314693641861
 21
-287.92888933338031
 31
0.0
  0
LINE
  8
DETAIL
  6
CONTINUOUS
 62
     5
 10
14.52045210222332
 20
-288.63699348133912
 30
0.0
 11
112.65868010115879
 21
-288.63699348133912
 31
0.0
  0
LINE
  8
DETAIL
  6
CONTINUOUS
 62
     5
 10
14.52045210222332
 20
-291.82346214804278
 30
0.0
 11
112.65868010115879
 21
-291.82346214804278
 31
0.0
  0
LINE
  8
DETAIL
  6
CONTINUOUS
 62
     5
 10
112.65868010115879
 20
314.48279488539288
 30
0.0
 11
114.6615010804385
 21
313.06658658947532
 31
0.0
  0
LINE
  8
DETAIL
  6
CONTINUOUS
 62
     5
 10
188.2651720798624
 20
-296.78019118375482
 30
0.0
 11
114.6615010804385
 21
-296.78019118375482
 31
0.0
  0
LINE
  8
DETAIL
  6
CONTINUOUS
 62
     5
 10
5.1071934979188427
 20
-299.25855570249968
 30
0.0
 11
3.0042314693641861
 21
-299.25855570249968
 31
0.0
  0
LINE
  8
DETAIL
  6
CONTINUOUS
 62
     5
 10
114.6615010804385
 20
-303.15312851716232
 30
0.0
 11
188.2651720798624
 21
-303.15312851716232
 31
0.0
  0
LINE
  8
DETAIL
  6
CONTINUOUS
 62
     5
 10
112.65868010115879
 20
-314.48279488628168
 30
0.0
 11
14.52045210222332
 21
-314.48279488628168
 31
0.0
  0
LINE
  8
DETAIL
  6
CONTINUOUS
 62
     5
 10
20.028209795465269
 20
-336.97462981428077
 30
0.0
 11
20.528915040951919
 21
-336.97462981428077
 31
0.0
  0
LINE
  8
DETAIL
  6
CONTINUOUS
 62
     5
 10
13.5809918394127
 20
-341.98168226292512
 30
0.0
 11
16.423132032228299
 21
-341.98168226292512
 31
0.0
  0
LINE
  8
DETAIL
  6
CONTINUOUS
 62
     5
 10
5.1071934979188427
 20
-348.82584606850838
 30
0.0
 11
3.0042314693641861
 21
-348.82584606850838
 31
0.0
  0
LINE
  8
DETAIL
  6
CONTINUOUS
 62
     5
 10
3.0042314693641861
 20
-351.99578716110221
 30
0.0
 11
6.4090271349398336
 21
-351.99578716110221
 31
0.0
  0
LINE
  8
DETAIL
  6
CONTINUOUS
 62
     5
 10
19.527504550867661
 20
278.18724613681871
 30
0.0
 11
21.430184481760989
 21
278.18724613681871
 31
0.0
  0
LINE
  8
DETAIL
  6
CONTINUOUS
 62
     5
 10
19.527504550867661
 20
272.17878319809017
 30
0.0
 11
21.430184481760989
 21
272.17878319809017
 31
0.0
  0
ARC
  8
DETAIL
  6
CONTINUOUS
 62
     5
 10
49.469678195234792
 20
333.97039834402801
 30
0.0
 40
29.441468399769551
 50
180.0
 51
221.4520332125025
  0
ARC
  8
DETAIL
  6
CONTINUOUS
 62
     5
 10
69.497887991589096
 20
353.99860813949317
 30
0.0
 40
49.469678195234962
 50
306.98010776349503
 51
338.1134446232993
  0
ARC
  8
DETAIL
  6
CONTINUOUS
 62
     5
 10
49.469678195234792
 20
-333.97039834491659
 30
0.0
 40
29.44146839976943
 50
138.5479667874975
 51
169.44436404610099
  0
ARC
  8
DETAIL
  6
CONTINUOUS
 62
     5
 10
69.497887991589096
 20
-353.99860814038198
 30
0.0
 40
49.469678195234877
 50
21.886555376700681
 51
53.019892236505058
  0
LINE
  8
DETAIL
  6
CONTINUOUS
 62
     5
 10
299.07124277520961
 20
-107.70645221390809
 30
0.0
 11
290.40904203824641
 21
-107.70645221390809
 31
0.0
  0
ARC
  8
OUTLINE
  6
CONTINUOUS
 62
     3
 10
1.502115734682093
 20
353.49790289489579
 30
0.0
 40
1.5021157346822349
 50
0.0
 51
180.0
  0
ARC
  8
OUTLINE
  6
CONTINUOUS
 62
     3
 10
117.3997361578508
 20
350.00898874817773
 30
0.0
 40
2.0028209792798748
 50
0.0
 51
180.0
  0
ARC
  8
OUTLINE
  6
CONTINUOUS
 62
     3
 10
6.4090271349398336
 20
348.39070939697638
 30
0.0
 40
3.6050777632370909
 50
0.0
 51
90.0
  0
ARC
  8
OUTLINE
  6
CONTINUOUS
 62
     3
 10
16.423132032228299
 20
338.37660449879922
 30
0.0
 40
3.6050777632372051
 50
0.0
 51
90.0
  0
ARC
  8
OUTLINE
  6
CONTINUOUS
 62
     3
 10
1.502115734682093
 20
-353.49790289578431
 30
0.0
 40
1.5021157346821781
 50
180.0
 51
0.0
  0
ARC
  8
OUTLINE
  6
CONTINUOUS
 62
     3
 10
117.3997361578508
 20
-350.00898874906642
 30
0.0
 40
2.0028209792798748
 50
180.0
 51
0.0
  0
ARC
  8
OUTLINE
  6
CONTINUOUS
 62
     3
 10
16.423132032228299
 20
-338.37660449968809
 30
0.0
 40
3.605077763237007
 50
270.0
 51
0.0
  0
ARC
  8
OUTLINE
  6
CONTINUOUS
 62
     3
 10
6.4090271349398336
 20
-348.39070939786518
 30
0.0
 40
3.605077763237007
 50
270.0
 51
0.0
  0
LINE
  8
OUTLINE
  6
CONTINUOUS
 62
     3
 10
6.4090271349398336
 20
351.99578716021352
 30
0.0
 11
3.0042314693641861
 21
351.99578716021352
 31
0.0
  0
LINE
  8
OUTLINE
  6
CONTINUOUS
 62
     3
 10
16.423132032228299
 20
341.98168226203649
 30
0.0
 11
13.88719749516417
 21
341.98168226203649
 31
0.0
  0
LINE
  8
OUTLINE
  6
CONTINUOUS
 62
     3
 10
27.400845580580381
 20
314.48279488539288
 30
0.0
 11
99.259433038968155
 21
314.48279488539288
 31
0.0
  0
LINE
  8
OUTLINE
  6
CONTINUOUS
 62
     3
 10
188.2651720798624
 20
303.15312851627368
 30
0.0
 11
119.4025571380193
 21
303.15312851627368
 31
0.0
  0
LINE
  8
OUTLINE
  6
CONTINUOUS
 62
     3
 10
0.0
 20
-353.49790289578431
 30
0.0
 11
0.0
 21
353.49790289489579
 31
0.0
  0
LINE
  8
OUTLINE
  6
CONTINUOUS
 62
     3
 10
3.0042314693641861
 20
-353.49790289578431
 30
0.0
 11
3.0042314693641861
 21
-351.99578716110221
 31
0.0
  0
LINE
  8
OUTLINE
  6
CONTINUOUS
 62
     3
 10
10.01410489817704
 20
-348.39070939786518
 30
0.0
 11
10.01410489817704
 21
-344.55397031892647
 31
0.0
  0
LINE
  8
OUTLINE
  6
CONTINUOUS
 62
     3
 10
10.01410489817704
 20
348.39070939697638
 30
0.0
 11
10.01410489817704
 21
345.18094901346211
 31
0.0
  0
LINE
  8
OUTLINE
  6
CONTINUOUS
 62
     3
 10
20.028209795465269
 20
333.97039834402801
 30
0.0
 11
20.028209795465269
 21
338.37660449879922
 31
0.0
  0
LINE
  8
OUTLINE
  6
CONTINUOUS
 62
     3
 10
20.028209795465269
 20
-338.37660449968809
 30
0.0
 11
20.028209795465269
 21
-336.97462981428077
 31
0.0
  0
LINE
  8
OUTLINE
  6
CONTINUOUS
 62
     3
 10
20.528915040951919
 20
-336.97462981428077
 30
0.0
 11
20.526433404575759
 21
-328.57700956580828
 31
0.0
  0
LINE
  8
OUTLINE
  6
CONTINUOUS
 62
     3
 10
343.48688149367968
 20
99.900159648158876
 30
0.0
 11
290.40904203824653
 21
99.900159648158876
 31
0.0
  0
LINE
  8
OUTLINE
  6
CONTINUOUS
 62
     3
 10
375.52893367052923
 20
41.057830081015076
 30
0.0
 11
361.40228176402923
 21
41.057830081015076
 31
0.0
  0
LINE
  8
OUTLINE
  6
CONTINUOUS
 62
     3
 10
115.39691517857089
 20
-335.54519750633392
 30
0.0
 11
115.39691517857089
 21
-350.00898874906642
 31
0.0
  0
LINE
  8
OUTLINE
  6
CONTINUOUS
 62
     3
 10
115.39691517857089
 20
350.00898874817773
 30
0.0
 11
115.39691517857089
 21
335.54519750544478
 31
0.0
  0
LINE
  8
OUTLINE
  6
CONTINUOUS
 62
     3
 10
119.4025571380193
 20
-303.15312851716232
 30
0.0
 11
119.4025571380193
 21
-350.00898874906642
 31
0.0
  0
LINE
  8
OUTLINE
  6
CONTINUOUS
 62
     3
 10
119.4025571380193
 20
350.00898874817773
 30
0.0
 11
119.4025571380193
 21
303.15312851627368
 31
0.0
  0
LINE
  8
OUTLINE
  6
CONTINUOUS
 62
     3
 10
375.52893367052923
 20
-41.05783008190366
 30
0.0
 11
361.40228176402923
 21
-41.05783008190366
 31
0.0
  0
LINE
  8
OUTLINE
  6
CONTINUOUS
 62
     3
 10
343.48688142435088
 20
-99.900159649047438
 30
0.0
 11
314.189142396107
 21
-99.900159649047453
 31
0.0
  0
LINE
  8
OUTLINE
  6
CONTINUOUS
 62
     3
 10
290.40904203824653
 20
-107.70645221390809
 30
0.0
 11
290.40904203824641
 21
-224.55356808053489
 31
0.0
  0
LINE
  8
OUTLINE
  6
CONTINUOUS
 62
     3
 10
290.40904203824653
 20
224.5535680795077
 30
0.0
 11
290.40904203824653
 21
99.900159648158876
 31
0.0
  0
LINE
  8
OUTLINE
  6
CONTINUOUS
 62
     3
 10
361.40228176402923
 20
41.057830081015076
 30
0.0
 11
357.503544854344
 21
85.620596876880825
 31
0.0
  0
LINE
  8
OUTLINE
  6
CONTINUOUS
 62
     3
 10
375.52893367052923
 20
41.057794971504052
 30
0.0
 11
375.52893367052923
 21
-41.057794972392628
 31
0.0
  0
LINE
  8
OUTLINE
  6
CONTINUOUS
 62
     3
 10
361.40228176402923
 20
-41.05783008190366
 30
0.0
 11
357.503544854344
 21
-85.620596876880654
 31
0.0
  0
LINE
  8
OUTLINE
  6
CONTINUOUS
 62
     3
 10
119.4025571380193
 20
-303.15312851716232
 30
0.0
 11
188.2651720798624
 21
-303.15312851716232
 31
0.0
  0
LINE
  8
OUTLINE
  6
CONTINUOUS
 62
     3
 10
99.259433038967927
 20
-314.48279488628162
 30
0.0
 11
27.402997637561612
 21
-314.48035804992912
 31
0.0
  0
LINE
  8
OUTLINE
  6
CONTINUOUS
 62
     3
 10
20.028209795465269
 20
-336.97462981428077
 30
0.0
 11
20.528915040951919
 21
-336.97462981428077
 31
0.0
  0
LINE
  8
OUTLINE
  6
CONTINUOUS
 62
     3
 10
13.5809918394127
 20
-341.98168226292512
 30
0.0
 11
16.423132032228299
 21
-341.98168226292512
 31
0.0
  0
LINE
  8
OUTLINE
  6
CONTINUOUS
 62
     3
 10
3.0042314693641861
 20
-351.99578716110221
 30
0.0
 11
6.4090271349398336
 21
-351.99578716110221
 31
0.0
  0
ARC
  8
OUTLINE
  6
CONTINUOUS
 62
     3
 10
49.469678195234792
 20
333.97039834402801
 30
0.0
 40
29.441468399769551
 50
180.0
 51
221.4520332125025
  0
ARC
  8
OUTLINE
  6
CONTINUOUS
 62
     3
 10
69.497887991589096
 20
353.99860813949317
 30
0.0
 40
49.469678195234962
 50
306.98010776349088
 51
338.113444623296
  0
ARC
  8
OUTLINE
  6
CONTINUOUS
 62
     3
 10
49.469678195234792
 20
-333.97039834491659
 30
0.0
 40
29.44146839976943
 50
138.5479667874975
 51
169.44436404610099
  0
ARC
  8
OUTLINE
  6
CONTINUOUS
 62
     3
 10
69.497887991589096
 20
-353.99860814038198
 30
0.0
 40
49.469678195234877
 50
21.886555376703971
 51
53.019892236509008
  0
LINE
  8
OUTLINE
  6
CONTINUOUS
 62
     3
 10
299.07124277520961
 20
-107.70645221390809
 30
0.0
 11
290.40904203824653
 21
-107.70645221390809
 31
0.0
  0
LINE
  8
OUTLINE
  6
CONTINUOUS
 62
     3
 10
3.0042314693641861
 20
351.99578716021352
 30
0.0
 11
3.0042314693641861
 21
353.49790289489579
 31
0.0
  0
ARC
  8
DETAIL
  6
CONTINUOUS
 62
     5
 10
7.7583345056264079
 20
290.0459640659692
 30
0.0
 40
2.258198331998241
 50
357.34286001938642
 51
79.0304674118359
  0
ARC
  8
DETAIL
  6
CONTINUOUS
 62
     5
 10
11.55934115539276
 20
307.81805766661319
 30
0.0
 40
15.916298108852009
 50
237.48596081176169
 51
257.77129889833321
  0
ARC
  8
DETAIL
  6
CONTINUOUS
 62
     5
 10
8.374836210252397
 20
289.57493884489759
 30
0.0
 40
6.2861764016178876
 50
12.13915879252893
 51
72.072746180321431
  0
ARC
  8
DETAIL
  6
CONTINUOUS
 62
     5
 10
15.7128692020342
 20
309.82706698427091
 30
0.0
 40
15.25972865973614
 50
225.97192487643321
 51
249.26323018366131
  0
ARC
  8
DETAIL
  6
CONTINUOUS
 62
     5
 10
8.5232130617914663
 20
339.40977733135998
 30
0.0
 40
5.9980526283619184
 50
0.9437123790721025
 51
74.322877795363482
  0
ARC
  8
DETAIL
  6
CONTINUOUS
 62
     5
 10
12.690172591162989
 20
354.01110337580212
 30
0.0
 40
9.1863194632368348
 50
214.36440388854001
 51
253.9085131934128
  0
ARC
  8
DETAIL
  6
CONTINUOUS
 62
     5
 10
-16.37705405539236
 20
133.81664514182009
 30
0.0
 40
185.41327140034389
 50
322.14920307599601
 51
350.46465706886528
  0
ARC
  8
DETAIL
  6
CONTINUOUS
 62
     5
 10
918.76697533679533
 20
-342.14625679533361
 30
0.0
 40
941.51964886198471
 50
139.25454512582061
 51
148.03943741390609
  0
ARC
  8
DETAIL
  6
CONTINUOUS
 62
     5
 10
600.41802192713305
 20
51.940531709118197
 30
0.0
 40
436.94906010714737
 50
150.46948339019769
 51
173.27595303101381
  0
ARC
  8
DETAIL
  6
CONTINUOUS
 62
     5
 10
146.07225729085991
 20
46.962827744337567
 30
0.0
 40
219.30666659167241
 50
287.87928245694798
 51
294.02707612822871
  0
ARC
  8
DETAIL
  6
CONTINUOUS
 62
     5
 10
235.34886678251499
 20
-159.10928708650951
 30
0.0
 40
5.7677096084686346
 50
343.14993926140318
 51
89.820045025651254
  0
ARC
  8
DETAIL
  6
CONTINUOUS
 62
     5
 10
-8.410666960204253
 20
-82.499948842531452
 30
0.0
 40
261.28198426252561
 50
312.89081997079609
 51
342.56616027958
  0
ARC
  8
DETAIL
  6
CONTINUOUS
 62
     5
 10
-287.97225671989878
 20
-167.01187542794881
 30
0.0
 40
505.17872851711121
 50
24.079915036841051
 51
28.044098159593648
  0
ARC
  8
DETAIL
  6
CONTINUOUS
 62
     5
 10
206.67590344821289
 20
-139.9795309182073
 30
0.0
 40
22.78828161166911
 50
258.45708894518452
 51
287.16727691880368
  0
ARC
  8
DETAIL
  6
CONTINUOUS
 62
     5
 10
195.05139606073129
 20
-187.82407357053441
 30
0.0
 40
26.47702065831275
 50
74.525024929790177
 51
105.0739053770897
  0
ARC
  8
DETAIL
  6
CONTINUOUS
 62
     5
 10
186.43075011065591
 20
-154.96150142013491
 30
0.0
 40
7.5000127791119029
 50
197.7058614432884
 51
283.37481945403789
  0
ARC
  8
DETAIL
  6
CONTINUOUS
 62
     5
 10
144.07201742932381
 20
-168.52751644382309
 30
0.0
 40
36.97806424611337
 50
17.76910183388221
 51
38.021478010363872
  0
ARC
  8
DETAIL
  6
CONTINUOUS
 62
     5
 10
193.387186542921
 20
-128.8697700787325
 30
0.0
 40
26.313134880697788
 50
179.86038688704369
 51
219.90654137684851
  0
ARC
  8
DETAIL
  6
CONTINUOUS
 62
     5
 10
92.57673825749589
 20
-130.24778595938639
 30
0.0
 40
74.511348746201065
 50
1.109002992025248
 51
14.4469720200807
  0
ARC
  8
DETAIL
  6
CONTINUOUS
 62
     5
 10
-718.77941774355349
 20
-320.07773656416481
 30
0.0
 40
907.84983493103482
 50
13.27334718648509
 51
14.541536723710131
  0
ARC
  8
DETAIL
  6
CONTINUOUS
 62
     5
 10
159.79855053696161
 20
-93.869934522659591
 30
0.0
 40
1.7470962206160661
 50
83.766882876260738
 51
112.5983574085395
  0
ARC
  8
DETAIL
  6
CONTINUOUS
 62
     5
 10
1451.9016331540879
 20
117.7337852756305
 30
0.0
 40
1309.718060465098
 50
188.92462447982609
 51
189.22621251648991
  0
ARC
  8
DETAIL
  6
CONTINUOUS
 62
     5
 10
9589.8443560376509
 20
6689.780023462883
 30
0.0
 40
11613.03864227805
 50
215.51473788232209
 51
215.69114667023649
  0
ARC
  8
DETAIL
  6
CONTINUOUS
 62
     5
 10
147.2281060923888
 20
-50.992611004176517
 30
0.0
 40
11.3600438417966
 50
183.67353122295279
 51
208.33121639029869
  0
ARC
  8
DETAIL
  6
CONTINUOUS
 62
     5
 10
61.66755295700932
 20
2.1768657203551811
 30
0.0
 40
96.644250619687
 50
15.18937016882338
 51
27.5266725797558
  0
ARC
  8
DETAIL
  6
CONTINUOUS
 62
     5
 10
2250.0684062571199
 20
652.64465080485252
 30
0.0
 40
2157.0847782991609
 50
200.418289771947
 51
201.34442030777029
  0
ARC
  8
DETAIL
  6
CONTINUOUS
 62
     5
 10
531.26173488243137
 20
87.220594396197157
 30
0.0
 40
368.09310718450757
 50
210.55409905256221
 51
217.03916109148841
  0
ARC
  8
DETAIL
  6
CONTINUOUS
 62
     5
 10
238.70623498152781
 20
-132.6553079471291
 30
0.0
 40
2.2404047568406851
 50
235.61569174218181
 51
4.5668079727448294
  0
ARC
  8
DETAIL
  6
CONTINUOUS
 62
     5
 10
7.5828860351139156
 20
-289.09799647738367
 30
0.0
 40
2.573314030178655
 50
283.6013679659419
 51
340.87066523542433
  0
ARC
  8
DETAIL
  6
CONTINUOUS
 62
     5
 10
11.55934115539276
 20
-307.15429882933091
 30
0.0
 40
15.91629810885194
 50
102.2287011016668
 51
122.5140391882383
  0
ARC
  8
DETAIL
  6
CONTINUOUS
 62
     5
 10
8.374836210252397
 20
-288.91118000761531
 30
0.0
 40
6.2861764016178849
 50
287.92725381967858
 51
347.86084120747108
  0
ARC
  8
DETAIL
  6
CONTINUOUS
 62
     5
 10
13.170190146745879
 20
-304.11282466741483
 30
0.0
 40
9.6541587326125953
 50
107.2347841853815
 51
146.62450705007541
  0
ARC
  8
DETAIL
  6
CONTINUOUS
 62
     5
 10
8.4348363527606125
 20
-338.61182309541391
 30
0.0
 40
6.1513305147470732
 50
286.13192282031582
 51
351.61753072546009
  0
ARC
  8
DETAIL
  6
CONTINUOUS
 62
     5
 10
11.89148700951773
 20
-351.66454666063368
 30
0.0
 40
7.3542409195802936
 50
103.74602715791291
 51
157.29447191143601
  0
ARC
  8
DETAIL
  6
CONTINUOUS
 62
     5
 10
191.6311637496037
 20
201.85720426734039
 30
0.0
 40
101.351833577626
 50
12.94034200729496
 51
91.903197800007035
  0
ARC
  8
DETAIL
  6
CONTINUOUS
 62
     5
 10
190.50181740846159
 20
191.6033506849744
 30
0.0
 40
105.2006195781743
 50
18.252976916714829
 51
91.218243718550752
  0
ARC
  8
DETAIL
  6
CONTINUOUS
 62
     5
 10
190.29879396994511
 20
202.6458985541249
 30
0.0
 40
71.503884576070234
 50
17.841467707926402
 51
91.629752927426566
  0
ARC
  8
DETAIL
  6
CONTINUOUS
 62
     5
 10
191.6311637496037
 20
-201.85720426734039
 30
0.0
 40
101.351833577626
 50
268.09680219999302
 51
347.05965799270501
  0
ARC
  8
DETAIL
  6
CONTINUOUS
 62
     5
 10
190.50181740846159
 20
-191.6033506849744
 30
0.0
 40
105.2006195781743
 50
268.78175628144919
 51
341.74702308328438
  0
ARC
  8
DETAIL
  6
CONTINUOUS
 62
     5
 10
190.29879396994511
 20
-202.6458985541249
 30
0.0
 40
71.503884576070234
 50
268.37024707257342
 51
342.15853229207312
  0
LINE
  8
DETAIL
  6
CONTINUOUS
 62
     5
 10
204.58036247724519
 20
-5.6750323053711327
 30
0.0
 11
196.87462717166269
 21
-3.991834528180334
 31
0.0
  0
LINE
  8
DETAIL
  6
CONTINUOUS
 62
     5
 10
204.58036247724519
 20
-19.373903741470709
 30
0.0
 11
196.87799621325391
 21
-15.86090285958562
 31
0.0
  0
LINE
  8
DETAIL
  6
CONTINUOUS
 62
     5
 10
204.58036247724519
 20
-32.69602536386811
 30
0.0
 11
196.88127815205729
 21
-27.423109748440769
 31
0.0
  0
LINE
  8
DETAIL
  6
CONTINUOUS
 62
     5
 10
204.58036247724519
 20
-45.382097229015933
 30
0.0
 11
196.88440905497549
 21
-38.45322014951671
 31
0.0
  0
LINE
  8
DETAIL
  6
CONTINUOUS
 62
     5
 10
196.87576152444669
 20
-7.9881374344877258
 30
0.0
 11
204.58036247724519
 21
-8.1690142607876624
 31
0.0
  0
LINE
  8
DETAIL
  6
CONTINUOUS
 62
     5
 10
196.87910838056629
 20
-19.77904677241531
 30
0.0
 11
204.58036247724519
 21
-21.819343176142869
 31
0.0
  0
LINE
  8
DETAIL
  6
CONTINUOUS
 62
     5
 10
196.88234649609149
 20
-31.186865109761129
 30
0.0
 11
204.58036247724519
 21
-35.045324579408771
 31
0.0
  0
LINE
  8
DETAIL
  6
CONTINUOUS
 62
     5
 10
196.88541279631681
 20
-41.989381460465673
 30
0.0
 11
204.58036247724519
 21
-47.589529787834167
 31
0.0
  0
LINE
  8
DETAIL
  6
CONTINUOUS
 62
     5
 10
350.81275198239751
 20
-4.2215261957171606
 30
0.0
 11
344.15855275648943
 21
-5.6750323053711327
 31
0.0
  0
LINE
  8
DETAIL
  6
CONTINUOUS
 62
     5
 10
344.15855275648943
 20
-8.1690142607876624
 30
0.0
 11
350.81275198239751
 21
-8.0127971581860038
 31
0.0
  0
LINE
  8
DETAIL
  6
CONTINUOUS
 62
     5
 10
318.90616005580517
 20
-88.719187879167293
 30
0.0
 11
313.99078324993752
 21
-94.739270412752361
 31
0.0
  0
LINE
  8
DETAIL
  6
CONTINUOUS
 62
     5
 10
318.55506171219167
 20
-88.28918198377869
 30
0.0
 11
313.99078324993752
 21
-93.879258621967864
 31
0.0
  0
LINE
  8
DETAIL
  6
CONTINUOUS
 62
     5
 10
299.24465283328038
 20
-88.719187879167293
 30
0.0
 11
304.16002963820569
 21
-82.699105345585863
 31
0.0
  0
LINE
  8
DETAIL
  6
CONTINUOUS
 62
     5
 10
299.24462427744578
 20
-84.299174231309735
 30
0.0
 11
304.16002963820569
 21
-78.279056724051756
 31
0.0
  0
LINE
  8
DETAIL
  6
CONTINUOUS
 62
     5
 10
249.49420529005511
 20
-81.636696693884005
 30
0.0
 11
244.5788284841874
 21
-87.656779227469102
 31
0.0
  0
LINE
  8
DETAIL
  6
CONTINUOUS
 62
     5
 10
249.14310694644141
 20
-81.206690798495387
 30
0.0
 11
244.5788284841874
 21
-86.796767436688228
 31
0.0
  0
LINE
  8
DETAIL
  6
CONTINUOUS
 62
     5
 10
229.83269806753009
 20
-81.636696693884005
 30
0.0
 11
234.74807487245559
 21
-75.616614160302561
 31
0.0
  0
LINE
  8
DETAIL
  6
CONTINUOUS
 62
     5
 10
313.99078324993752
 20
-94.739270412752361
 30
0.0
 11
304.16002963820569
 21
-94.739270412752361
 31
0.0
  0
LINE
  8
DETAIL
  6
CONTINUOUS
 62
     5
 10
313.99078324993752
 20
-93.879258621967864
 30
0.0
 11
304.16002963820569
 21
-93.879258621967864
 31
0.0
  0
LINE
  8
DETAIL
  6
CONTINUOUS
 62
     5
 10
244.5788284841874
 20
-87.656779227469102
 30
0.0
 11
234.74807487245559
 21
-87.656779227469102
 31
0.0
  0
LINE
  8
DETAIL
  6
CONTINUOUS
 62
     5
 10
244.5788284841874
 20
-86.796767436688228
 30
0.0
 11
234.74807487245559
 21
-86.796767436688228
 31
0.0
  0
LINE
  8
DETAIL
  6
CONTINUOUS
 62
     5
 10
357.50354485434582
 20
85.620596876880882
 30
0.0
 11
351.84421596266111
 21
85.620596876880882
 31
0.0
  0
LINE
  8
DETAIL
  6
CONTINUOUS
 62
     5
 10
191.2353703793851
 20
85.620596876880882
 30
0.0
 11
196.8946992718484
 21
85.620596876880882
 31
0.0
  0
LINE
  8
DETAIL
  6
CONTINUOUS
 62
     5
 10
304.16002963820569
 20
-82.699105345585863
 30
0.0
 11
313.99078324993752
 21
-82.699105345585863
 31
0.0
  0
LINE
  8
DETAIL
  6
CONTINUOUS
 62
     5
 10
304.16002963820569
 20
-78.279056724051756
 30
0.0
 11
313.99084036127527
 21
-78.279056724051756
 31
0.0
  0
LINE
  8
DETAIL
  6
CONTINUOUS
 62
     5
 10
234.74807487245559
 20
-75.616614160302561
 30
0.0
 11
244.5788284841874
 21
-75.616614160302561
 31
0.0
  0
LINE
  8
DETAIL
  6
CONTINUOUS
 62
     5
 10
229.83266951169571
 20
-77.216683046801322
 30
0.0
 11
234.74807487245559
 21
-71.196565539547009
 31
0.0
  0
LINE
  8
DETAIL
  6
CONTINUOUS
 62
     5
 10
234.74807487245559
 20
-71.196565539547009
 30
0.0
 11
244.57888559552521
 21
-71.196565539547009
 31
0.0
  0
LINE
  8
DETAIL
  6
CONTINUOUS
 62
     5
 10
234.74807487245559
 20
-87.656779227469102
 30
0.0
 11
229.83269806753009
 21
-81.636696693884005
 31
0.0
  0
LINE
  8
DETAIL
  6
CONTINUOUS
 62
     5
 10
234.74807487245559
 20
-86.796767436688228
 30
0.0
 11
230.1837964102015
 21
-81.206690798495387
 31
0.0
  0
LINE
  8
DETAIL
  6
CONTINUOUS
 62
     5
 10
244.5788284841874
 20
-75.616614160302561
 30
0.0
 11
249.49420529005511
 21
-81.636696693884005
 31
0.0
  0
LINE
  8
DETAIL
  6
CONTINUOUS
 62
     5
 10
244.57888559552521
 20
-71.196565539547009
 30
0.0
 11
249.49429095628511
 21
-77.216683046801322
 31
0.0
  0
LINE
  8
DETAIL
  6
CONTINUOUS
 62
     5
 10
206.70690645743159
 20
65.765445142475073
 30
0.0
 11
206.70690645743159
 21
54.593875765134733
 31
0.0
  0
LINE
  8
DETAIL
  6
CONTINUOUS
 62
     5
 10
318.90624572203518
 20
77.181624781176652
 30
0.0
 11
313.99084036127527
 21
71.161507273918687
 31
0.0
  0
LINE
  8
DETAIL
  6
CONTINUOUS
 62
     5
 10
318.90616005580517
 20
81.60163842903421
 30
0.0
 11
313.99078324993752
 21
75.581555895452766
 31
0.0
  0
LINE
  8
DETAIL
  6
CONTINUOUS
 62
     5
 10
299.59575117595159
 20
81.171632533645607
 30
0.0
 11
304.16002963820569
 21
86.761709171838447
 31
0.0
  0
LINE
  8
DETAIL
  6
CONTINUOUS
 62
     5
 10
299.24465283328038
 20
81.60163842903421
 30
0.0
 11
304.16002963820569
 21
87.621720962619293
 31
0.0
  0
LINE
  8
DETAIL
  6
CONTINUOUS
 62
     5
 10
229.83266951169571
 20
-77.216683046801322
 30
0.0
 11
229.83266951169571
 21
-81.636731667560525
 31
0.0
  0
LINE
  8
DETAIL
  6
CONTINUOUS
 62
     5
 10
229.83266951169571
 20
84.264115965681412
 30
0.0
 11
229.83266951169571
 21
88.684164587215491
 31
0.0
  0
LINE
  8
DETAIL
  6
CONTINUOUS
 62
     5
 10
304.16002963820569
 20
-94.739270412752361
 30
0.0
 11
299.24465283328038
 21
-88.719187879167293
 31
0.0
  0
LINE
  8
DETAIL
  6
CONTINUOUS
 62
     5
 10
304.16002963820569
 20
-93.879258621967864
 30
0.0
 11
299.59575117595159
 21
-88.28918198377869
 31
0.0
  0
LINE
  8
DETAIL
  6
CONTINUOUS
 62
     5
 10
313.99078324993752
 20
-82.699105345585863
 30
0.0
 11
318.90616005580517
 21
-88.719187879167293
 31
0.0
  0
LINE
  8
DETAIL
  6
CONTINUOUS
 62
     5
 10
313.99084036127527
 20
-78.279056724051756
 30
0.0
 11
318.90624572203518
 21
-84.299174231309735
 31
0.0
  0
LINE
  8
DETAIL
  6
CONTINUOUS
 62
     5
 10
234.74807487245559
 20
-71.196565539547009
 30
0.0
 11
234.74807487245559
 21
-75.616614160302561
 31
0.0
  0
LINE
  8
DETAIL
  6
CONTINUOUS
 62
     5
 10
234.74807487245559
 20
78.243998458427086
 30
0.0
 11
234.74807487245559
 21
82.664047079957527
 31
0.0
  0
LINE
  8
DETAIL
  6
CONTINUOUS
 62
     5
 10
244.57888559552521
 20
-71.196565539547009
 30
0.0
 11
244.57888559552521
 21
-75.616614160302561
 31
0.0
  0
LINE
  8
DETAIL
  6
CONTINUOUS
 62
     5
 10
244.57888559552521
 20
78.243998458427086
 30
0.0
 11
244.57888559552521
 21
82.664047079957527
 31
0.0
  0
LINE
  8
DETAIL
  6
CONTINUOUS
 62
     5
 10
249.49429095628511
 20
-77.216683046801322
 30
0.0
 11
249.49429095628511
 21
-81.636731667560525
 31
0.0
  0
LINE
  8
DETAIL
  6
CONTINUOUS
 62
     5
 10
249.49429095628511
 20
84.264115965681412
 30
0.0
 11
249.49429095628511
 21
88.684164587215491
 31
0.0
  0
LINE
  8
DETAIL
  6
CONTINUOUS
 62
     5
 10
249.49429095628511
 20
84.264115965681412
 30
0.0
 11
244.57888559552521
 21
78.243998458427086
 31
0.0
  0
LINE
  8
DETAIL
  6
CONTINUOUS
 62
     5
 10
249.49420529005511
 20
88.684129613542609
 30
0.0
 11
244.5788284841874
 21
82.664047079957527
 31
0.0
  0
LINE
  8
DETAIL
  6
CONTINUOUS
 62
     5
 10
230.1837964102015
 20
88.254123718150367
 30
0.0
 11
234.74807487245559
 21
93.844200357285445
 31
0.0
  0
LINE
  8
DETAIL
  6
CONTINUOUS
 62
     5
 10
229.83269806753009
 20
88.684129613542609
 30
0.0
 11
234.74807487245559
 21
94.704212147124053
 31
0.0
  0
LINE
  8
DETAIL
  6
CONTINUOUS
 62
     5
 10
234.74807487245559
 20
78.243998458427086
 30
0.0
 11
229.83266951169571
 21
84.264115965681412
 31
0.0
  0
LINE
  8
DETAIL
  6
CONTINUOUS
 62
     5
 10
234.74807487245559
 20
82.664047079957527
 30
0.0
 11
229.83269806753009
 21
88.684129613542609
 31
0.0
  0
LINE
  8
DETAIL
  6
CONTINUOUS
 62
     5
 10
299.24462427744578
 20
-84.299174231309735
 30
0.0
 11
299.24462427744578
 21
-88.719222852065272
 31
0.0
  0
LINE
  8
DETAIL
  6
CONTINUOUS
 62
     5
 10
299.24462427744578
 20
77.181624781176652
 30
0.0
 11
299.24462427744578
 21
81.601673401932203
 31
0.0
  0
LINE
  8
DETAIL
  6
CONTINUOUS
 62
     5
 10
304.16002963820569
 20
-78.279056724051756
 30
0.0
 11
304.16002963820569
 21
-82.699105345585863
 31
0.0
  0
LINE
  8
DETAIL
  6
CONTINUOUS
 62
     5
 10
304.16002963820569
 20
71.161507273918687
 30
0.0
 11
304.16002963820569
 21
75.581555895452766
 31
0.0
  0
LINE
  8
DETAIL
  6
CONTINUOUS
 62
     5
 10
313.99084036127527
 20
71.161507273918687
 30
0.0
 11
304.16002963820569
 21
71.161507273918687
 31
0.0
  0
LINE
  8
DETAIL
  6
CONTINUOUS
 62
     5
 10
244.5788284841874
 20
93.844200357285445
 30
0.0
 11
249.14310694644141
 21
88.254123718150367
 31
0.0
  0
LINE
  8
DETAIL
  6
CONTINUOUS
 62
     5
 10
244.5788284841874
 20
94.704212147124053
 30
0.0
 11
249.49420529005511
 21
88.684129613542609
 31
0.0
  0
LINE
  8
DETAIL
  6
CONTINUOUS
 62
     5
 10
313.99078324993752
 20
87.621720962619293
 30
0.0
 11
313.99078324993752
 21
86.761709171838447
 31
0.0
  0
LINE
  8
DETAIL
  6
CONTINUOUS
 62
     5
 10
313.99084036127527
 20
-78.279056724051756
 30
0.0
 11
313.99084036127527
 21
-82.699105345585863
 31
0.0
  0
LINE
  8
DETAIL
  6
CONTINUOUS
 62
     5
 10
313.99084036127527
 20
71.161507273918687
 30
0.0
 11
313.99084036127527
 21
75.581555895452766
 31
0.0
  0
LINE
  8
DETAIL
  6
CONTINUOUS
 62
     5
 10
318.90624572203518
 20
-84.299174231309735
 30
0.0
 11
318.90624572203518
 21
-88.719222852065272
 31
0.0
  0
LINE
  8
DETAIL
  6
CONTINUOUS
 62
     5
 10
318.90624572203518
 20
77.181624781176652
 30
0.0
 11
318.90624572203518
 21
81.601673401932203
 31
0.0
  0
LINE
  8
DETAIL
  6
CONTINUOUS
 62
     5
 10
313.99078324993752
 20
75.581555895452766
 30
0.0
 11
304.16002963820569
 21
75.581555895452766
 31
0.0
  0
LINE
  8
DETAIL
  6
CONTINUOUS
 62
     5
 10
244.57888559552521
 20
78.243998458427086
 30
0.0
 11
234.74807487245559
 21
78.243998458427086
 31
0.0
  0
LINE
  8
DETAIL
  6
CONTINUOUS
 62
     5
 10
244.5788284841874
 20
82.664047079957527
 30
0.0
 11
234.74807487245559
 21
82.664047079957527
 31
0.0
  0
LINE
  8
DETAIL
  6
CONTINUOUS
 62
     5
 10
357.50354485434582
 20
-85.655655142505566
 30
0.0
 11
351.84421596266111
 21
-85.655655142505566
 31
0.0
  0
LINE
  8
DETAIL
  6
CONTINUOUS
 62
     5
 10
304.16002963820569
 20
86.761709171838447
 30
0.0
 11
313.99078324993752
 21
86.761709171838447
 31
0.0
  0
LINE
  8
DETAIL
  6
CONTINUOUS
 62
     5
 10
304.16002963820569
 20
87.621720962619293
 30
0.0
 11
313.99078324993752
 21
87.621720962619293
 31
0.0
  0
LINE
  8
DETAIL
  6
CONTINUOUS
 62
     5
 10
234.74807487245559
 20
93.844200357285445
 30
0.0
 11
244.5788284841874
 21
93.844200357285445
 31
0.0
  0
LINE
  8
DETAIL
  6
CONTINUOUS
 62
     5
 10
234.74807487245559
 20
94.704212147124053
 30
0.0
 11
244.5788284841874
 21
94.704212147124053
 31
0.0
  0
LINE
  8
DETAIL
  6
CONTINUOUS
 62
     5
 10
304.16002963820569
 20
71.161507273918687
 30
0.0
 11
299.24462427744578
 21
77.181624781176652
 31
0.0
  0
LINE
  8
DETAIL
  6
CONTINUOUS
 62
     5
 10
304.16002963820569
 20
75.581555895452766
 30
0.0
 11
299.24465283328038
 21
81.60163842903421
 31
0.0
  0
LINE
  8
DETAIL
  6
CONTINUOUS
 62
     5
 10
342.03200877629922
 20
68.734024430948921
 30
0.0
 11
342.03200877629922
 21
79.905593807514379
 31
0.0
  0
LINE
  8
DETAIL
  6
CONTINUOUS
 62
     5
 10
313.99078324993752
 20
86.761709171838447
 30
0.0
 11
318.55506171219167
 21
81.171632533645607
 31
0.0
  0
LINE
  8
DETAIL
  6
CONTINUOUS
 62
     5
 10
313.99078324993752
 20
87.621720962619293
 30
0.0
 11
318.90616005580517
 21
81.60163842903421
 31
0.0
  0
LINE
  8
DETAIL
  6
CONTINUOUS
 62
     5
 10
196.88541279631681
 20
-41.989381460465673
 30
0.0
 11
196.88440905497549
 21
-38.45322014951671
 31
0.0
  0
LINE
  8
DETAIL
  6
CONTINUOUS
 62
     5
 10
196.88234649609149
 20
-31.186865109761129
 30
0.0
 11
196.88127815205729
 21
-27.423109748440769
 31
0.0
  0
LINE
  8
DETAIL
  6
CONTINUOUS
 62
     5
 10
196.87910838056629
 20
-19.77904677241531
 30
0.0
 11
196.87799621325391
 21
-15.86090285958562
 31
0.0
  0
LINE
  8
DETAIL
  6
CONTINUOUS
 62
     5
 10
196.87576152444669
 20
-7.9881374344877258
 30
0.0
 11
196.87462717166269
 21
-3.991834528180334
 31
0.0
  0
LINE
  8
DETAIL
  6
CONTINUOUS
 62
     5
 10
204.58036247724519
 20
-5.6750323053711327
 30
0.0
 11
204.5899603134385
 21
-8.1691286561508605
 31
0.0
  0
LINE
  8
DETAIL
  6
CONTINUOUS
 62
     5
 10
204.58036247724519
 20
-19.373903741470709
 30
0.0
 11
204.68909465326939
 21
-21.833996451543499
 31
0.0
  0
LINE
  8
DETAIL
  6
CONTINUOUS
 62
     5
 10
204.58036247724519
 20
-32.69602536386811
 30
0.0
 11
204.58036247724519
 21
-35.045324579408771
 31
0.0
  0
LINE
  8
DETAIL
  6
CONTINUOUS
 62
     5
 10
204.58036247724519
 20
-45.382097229015933
 30
0.0
 11
204.58036247724519
 21
-47.589529787834167
 31
0.0
  0
LINE
  8
DETAIL
  6
CONTINUOUS
 62
     5
 10
343.4840118578395
 20
-87.888473527404116
 30
0.0
 11
351.84421603176088
 21
-74.705455051844183
 31
0.0
  0
LINE
  8
DETAIL
  6
CONTINUOUS
 62
     5
 10
344.15855282636772
 20
-5.6750323053711327
 30
0.0
 11
351.86428813194652
 21
-3.991834528180334
 31
0.0
  0
LINE
  8
DETAIL
  6
CONTINUOUS
 62
     5
 10
343.4840118578395
 20
-93.722383885637086
 30
0.0
 11
351.84421603176088
 21
-79.820890721235628
 31
0.0
  0
LINE
  8
DETAIL
  6
CONTINUOUS
 62
     5
 10
344.15855282636772
 20
-19.373903741470709
 30
0.0
 11
351.8609190903552
 21
-15.86090285958562
 31
0.0
  0
LINE
  8
DETAIL
  6
CONTINUOUS
 62
     5
 10
344.15855282636772
 20
-32.69602536386811
 30
0.0
 11
351.85763715155548
 21
-27.423109748440769
 31
0.0
  0
LINE
  8
DETAIL
  6
CONTINUOUS
 62
     5
 10
343.4840118578395
 20
-97.73243583307341
 30
0.0
 11
351.84421603176088
 21
-83.383044732989234
 31
0.0
  0
LINE
  8
DETAIL
  6
CONTINUOUS
 62
     5
 10
344.15855282636772
 20
-45.382097229015933
 30
0.0
 11
351.85450624863358
 21
-38.45322014951671
 31
0.0
  0
LINE
  8
DETAIL
  6
CONTINUOUS
 62
     5
 10
351.86315377916247
 20
-7.9881374344877258
 30
0.0
 11
344.15855282636772
 21
-8.1690142607876624
 31
0.0
  0
LINE
  8
DETAIL
  6
CONTINUOUS
 62
     5
 10
351.85980692304662
 20
-19.77904677241531
 30
0.0
 11
344.15855282636772
 21
-21.819343176142869
 31
0.0
  0
LINE
  8
DETAIL
  6
CONTINUOUS
 62
     5
 10
351.85656880751782
 20
-31.186865109761129
 30
0.0
 11
344.15855282636772
 21
-35.045324579408771
 31
0.0
  0
LINE
  8
DETAIL
  6
CONTINUOUS
 62
     5
 10
351.85350250729613
 20
-41.989381460465673
 30
0.0
 11
344.15855282636772
 21
-47.589529787834167
 31
0.0
  0
LINE
  8
DETAIL
  6
CONTINUOUS
 62
     5
 10
351.84421603176088
 20
-76.584332828671904
 30
0.0
 11
343.4840118578395
 21
-89.000296625155883
 31
0.0
  0
LINE
  8
DETAIL
  6
CONTINUOUS
 62
     5
 10
351.84421603176088
 20
-81.189693641987091
 30
0.0
 11
343.4840118578395
 21
-94.532370954315411
 31
0.0
  0
LINE
  8
DETAIL
  6
CONTINUOUS
 62
     5
 10
351.84421603176088
 20
-84.215130606302424
 30
0.0
 11
343.4840118578395
 21
-98.224821397052438
 31
0.0
  0
LINE
  8
DETAIL
  6
CONTINUOUS
 62
     5
 10
351.81293315568843
 20
-85.655655142505566
 30
0.0
 11
343.4840118578395
 21
-99.938141374186685
 31
0.0
  0
LINE
  8
DETAIL
  6
CONTINUOUS
 62
     5
 10
351.84421603176088
 20
-84.215130606302424
 30
0.0
 11
351.84421603176088
 21
-83.383044732989234
 31
0.0
  0
LINE
  8
DETAIL
  6
CONTINUOUS
 62
     5
 10
351.84421603176088
 20
-81.189693641987091
 30
0.0
 11
351.84421603176088
 21
-79.820890721235628
 31
0.0
  0
LINE
  8
DETAIL
  6
CONTINUOUS
 62
     5
 10
351.84421603176088
 20
-76.584332828671904
 30
0.0
 11
351.84421603176088
 21
-74.705455051844183
 31
0.0
  0
LINE
  8
DETAIL
  6
CONTINUOUS
 62
     5
 10
343.4840118578395
 20
-98.224821397052438
 30
0.0
 11
343.4840118578395
 21
-97.73243583307341
 31
0.0
  0
LINE
  8
DETAIL
  6
CONTINUOUS
 62
     5
 10
343.4840118578395
 20
-94.532370954315411
 30
0.0
 11
343.4840118578395
 21
-93.722383885637086
 31
0.0
  0
LINE
  8
DETAIL
  6
CONTINUOUS
 62
     5
 10
343.4840118578395
 20
-89.000296625155883
 30
0.0
 11
343.4840118578395
 21
-87.888473527404116
 31
0.0
  0
LINE
  8
DETAIL
  6
CONTINUOUS
 62
     5
 10
351.85350250729613
 20
-41.989381460465673
 30
0.0
 11
351.85450624863358
 21
-38.45322014951671
 31
0.0
  0
LINE
  8
DETAIL
  6
CONTINUOUS
 62
     5
 10
351.85656880751782
 20
-31.186865109761129
 30
0.0
 11
351.85763715155548
 21
-27.423109748440769
 31
0.0
  0
LINE
  8
DETAIL
  6
CONTINUOUS
 62
     5
 10
351.85980692304662
 20
-19.77904677241531
 30
0.0
 11
351.8609190903552
 21
-15.86090285958562
 31
0.0
  0
LINE
  8
DETAIL
  6
CONTINUOUS
 62
     5
 10
351.86315377916247
 20
-7.9881374344877258
 30
0.0
 11
351.86428813194652
 21
-3.991834528180334
 31
0.0
  0
LINE
  8
DETAIL
  6
CONTINUOUS
 62
     5
 10
344.15855282636772
 20
-5.6750323053711327
 30
0.0
 11
344.14895499017439
 21
-8.1691286561508605
 31
0.0
  0
LINE
  8
DETAIL
  6
CONTINUOUS
 62
     5
 10
344.15855282636772
 20
-19.373903741470709
 30
0.0
 11
344.04982065033983
 21
-21.833996451543499
 31
0.0
  0
LINE
  8
DETAIL
  6
CONTINUOUS
 62
     5
 10
344.15855282636772
 20
-32.69602536386811
 30
0.0
 11
344.15855282636772
 21
-35.045324579408771
 31
0.0
  0
LINE
  8
DETAIL
  6
CONTINUOUS
 62
     5
 10
344.15855282636772
 20
-45.382097229015933
 30
0.0
 11
344.15855282636772
 21
-47.589529787834167
 31
0.0
  0
LINE
  8
DETAIL
  6
CONTINUOUS
 62
     5
 10
205.25490344576971
 20
87.853415261779446
 30
0.0
 11
196.8946992718484
 21
74.670396786215861
 31
0.0
  0
LINE
  8
DETAIL
  6
CONTINUOUS
 62
     5
 10
204.58036247724519
 20
5.6399740397464484
 30
0.0
 11
196.87462717166269
 21
3.9567762625556502
 31
0.0
  0
LINE
  8
DETAIL
  6
CONTINUOUS
 62
     5
 10
205.25490344576971
 20
93.687325620008778
 30
0.0
 11
196.8946992718484
 21
79.785832455610944
 31
0.0
  0
LINE
  8
DETAIL
  6
CONTINUOUS
 62
     5
 10
204.58036247724519
 20
19.338845475846028
 30
0.0
 11
196.87799621325391
 21
15.825844593960939
 31
0.0
  0
LINE
  8
DETAIL
  6
CONTINUOUS
 62
     5
 10
204.58036247724519
 20
32.660967098243418
 30
0.0
 11
196.88127815205729
 21
27.388051482816081
 31
0.0
  0
LINE
  8
DETAIL
  6
CONTINUOUS
 62
     5
 10
205.25490344576971
 20
97.697377567448711
 30
0.0
 11
196.8946992718484
 21
83.347986467364535
 31
0.0
  0
LINE
  8
DETAIL
  6
CONTINUOUS
 62
     5
 10
204.58036247724519
 20
45.347038963391242
 30
0.0
 11
196.88440905497549
 21
38.418161883892033
 31
0.0
  0
LINE
  8
DETAIL
  6
CONTINUOUS
 62
     5
 10
196.87576152444669
 20
7.9530791688594036
 30
0.0
 11
204.58036247724519
 21
8.1339559951629781
 31
0.0
  0
LINE
  8
DETAIL
  6
CONTINUOUS
 62
     5
 10
196.87910838056629
 20
19.743988506790629
 30
0.0
 11
204.58036247724519
 21
21.784284910518181
 31
0.0
  0
LINE
  8
DETAIL
  6
CONTINUOUS
 62
     5
 10
196.88234649609149
 20
31.15180684413281
 30
0.0
 11
204.58036247724519
 21
35.010266313780448
 31
0.0
  0
LINE
  8
DETAIL
  6
CONTINUOUS
 62
     5
 10
196.88541279631681
 20
41.954323194837343
 30
0.0
 11
204.58036247724519
 21
47.554471522205858
 31
0.0
  0
LINE
  8
DETAIL
  6
CONTINUOUS
 62
     5
 10
196.8946992718484
 20
76.549274563043582
 30
0.0
 11
205.25490344576971
 21
88.965238359531213
 31
0.0
  0
LINE
  8
DETAIL
  6
CONTINUOUS
 62
     5
 10
196.8946992718484
 20
81.154635376362421
 30
0.0
 11
205.25490344576971
 21
94.497312688690727
 31
0.0
  0
LINE
  8
DETAIL
  6
CONTINUOUS
 62
     5
 10
196.8946992718484
 20
84.180072340677725
 30
0.0
 11
205.25490344576971
 21
98.189763131424115
 31
0.0
  0
LINE
  8
DETAIL
  6
CONTINUOUS
 62
     5
 10
196.92598214792449
 20
85.620596876880882
 30
0.0
 11
205.25490344576971
 21
99.903083108561987
 31
0.0
  0
LINE
  8
DETAIL
  6
CONTINUOUS
 62
     5
 10
350.81275198239751
 20
4.1864679300924763
 30
0.0
 11
344.15855275648943
 21
5.6399740397464484
 31
0.0
  0
LINE
  8
DETAIL
  6
CONTINUOUS
 62
     5
 10
344.15855275648943
 20
8.1339559951629781
 30
0.0
 11
350.81275198239751
 21
7.9777388925576824
 31
0.0
  0
LINE
  8
DETAIL
  6
CONTINUOUS
 62
     5
 10
342.03200877629922
 20
-54.62893403075941
 30
0.0
 11
342.03200877629922
 21
-65.800503407324868
 31
0.0
  0
LINE
  8
DETAIL
  6
CONTINUOUS
 62
     5
 10
196.8946992718484
 20
84.180072340677725
 30
0.0
 11
196.8946992718484
 21
83.347986467364535
 31
0.0
  0
LINE
  8
DETAIL
  6
CONTINUOUS
 62
     5
 10
196.8946992718484
 20
81.154635376362421
 30
0.0
 11
196.8946992718484
 21
79.785832455610944
 31
0.0
  0
LINE
  8
DETAIL
  6
CONTINUOUS
 62
     5
 10
196.8946992718484
 20
76.549274563043582
 30
0.0
 11
196.8946992718484
 21
74.670396786215861
 31
0.0
  0
LINE
  8
DETAIL
  6
CONTINUOUS
 62
     5
 10
205.25490344576971
 20
98.189763131424115
 30
0.0
 11
205.25490344576971
 21
97.697377567448711
 31
0.0
  0
LINE
  8
DETAIL
  6
CONTINUOUS
 62
     5
 10
205.25490344576971
 20
94.497312688690727
 30
0.0
 11
205.25490344576971
 21
93.687325620008778
 31
0.0
  0
LINE
  8
DETAIL
  6
CONTINUOUS
 62
     5
 10
205.25490344576971
 20
88.965238359531213
 30
0.0
 11
205.25490344576971
 21
87.853415261779446
 31
0.0
  0
LINE
  8
DETAIL
  6
CONTINUOUS
 62
     5
 10
196.88541279631681
 20
41.954323194837343
 30
0.0
 11
196.88440905497549
 21
38.418161883892033
 31
0.0
  0
LINE
  8
DETAIL
  6
CONTINUOUS
 62
     5
 10
196.88234649609149
 20
31.15180684413281
 30
0.0
 11
196.88127815205729
 21
27.388051482816081
 31
0.0
  0
LINE
  8
DETAIL
  6
CONTINUOUS
 62
     5
 10
196.87910838056629
 20
19.743988506790629
 30
0.0
 11
196.87799621325391
 21
15.825844593960939
 31
0.0
  0
LINE
  8
DETAIL
  6
CONTINUOUS
 62
     5
 10
196.87576152444669
 20
7.9530791688594036
 30
0.0
 11
196.87462717166269
 21
3.9567762625556502
 31
0.0
  0
LINE
  8
DETAIL
  6
CONTINUOUS
 62
     5
 10
204.58036247724519
 20
5.6399740397464484
 30
0.0
 11
204.5899603134385
 21
8.1340703905225382
 31
0.0
  0
LINE
  8
DETAIL
  6
CONTINUOUS
 62
     5
 10
204.58036247724519
 20
19.338845475846028
 30
0.0
 11
204.68909465326939
 21
21.798938185918811
 31
0.0
  0
LINE
  8
DETAIL
  6
CONTINUOUS
 62
     5
 10
204.58036247724519
 20
32.660967098243418
 30
0.0
 11
204.58036247724519
 21
35.010266313780448
 31
0.0
  0
LINE
  8
DETAIL
  6
CONTINUOUS
 62
     5
 10
204.58036247724519
 20
45.347038963391242
 30
0.0
 11
204.58036247724519
 21
47.554471522205858
 31
0.0
  0
LINE
  8
DETAIL
  6
CONTINUOUS
 62
     5
 10
343.4840118578395
 20
87.853415261779446
 30
0.0
 11
351.84421603176088
 21
74.670396786215861
 31
0.0
  0
LINE
  8
DETAIL
  6
CONTINUOUS
 62
     5
 10
344.15855282636772
 20
5.6399740397464484
 30
0.0
 11
351.86428813194652
 21
3.9567762625556502
 31
0.0
  0
LINE
  8
DETAIL
  6
CONTINUOUS
 62
     5
 10
343.4840118578395
 20
93.687325620008778
 30
0.0
 11
351.84421603176088
 21
79.785832455610944
 31
0.0
  0
LINE
  8
DETAIL
  6
CONTINUOUS
 62
     5
 10
344.15855282636772
 20
19.338845475846028
 30
0.0
 11
351.8609190903552
 21
15.825844593960939
 31
0.0
  0
LINE
  8
DETAIL
  6
CONTINUOUS
 62
     5
 10
344.15855282636772
 20
32.660967098243418
 30
0.0
 11
351.85763715155548
 21
27.388051482816081
 31
0.0
  0
LINE
  8
DETAIL
  6
CONTINUOUS
 62
     5
 10
343.4840118578395
 20
97.697377567448711
 30
0.0
 11
351.84421603176088
 21
83.347986467364535
 31
0.0
  0
LINE
  8
DETAIL
  6
CONTINUOUS
 62
     5
 10
344.15855282636772
 20
45.347038963391242
 30
0.0
 11
351.85450624863358
 21
38.418161883892033
 31
0.0
  0
LINE
  8
DETAIL
  6
CONTINUOUS
 62
     5
 10
351.86315377916247
 20
7.9530791688594036
 30
0.0
 11
344.15855282636772
 21
8.1339559951629781
 31
0.0
  0
LINE
  8
DETAIL
  6
CONTINUOUS
 62
     5
 10
351.85980692304662
 20
19.743988506790629
 30
0.0
 11
344.15855282636772
 21
21.784284910518181
 31
0.0
  0
LINE
  8
DETAIL
  6
CONTINUOUS
 62
     5
 10
351.85656880751782
 20
31.15180684413281
 30
0.0
 11
344.15855282636772
 21
35.010266313780448
 31
0.0
  0
LINE
  8
DETAIL
  6
CONTINUOUS
 62
     5
 10
351.85350250729613
 20
41.954323194837343
 30
0.0
 11
344.15855282636772
 21
47.554471522205858
 31
0.0
  0
LINE
  8
DETAIL
  6
CONTINUOUS
 62
     5
 10
351.84421603176088
 20
76.549274563043582
 30
0.0
 11
343.4840118578395
 21
88.965238359531213
 31
0.0
  0
LINE
  8
DETAIL
  6
CONTINUOUS
 62
     5
 10
351.84421603176088
 20
81.154635376362421
 30
0.0
 11
343.4840118578395
 21
94.497312688690727
 31
0.0
  0
LINE
  8
DETAIL
  6
CONTINUOUS
 62
     5
 10
351.84421603176088
 20
84.180072340677725
 30
0.0
 11
343.4840118578395
 21
98.189763131424115
 31
0.0
  0
LINE
  8
DETAIL
  6
CONTINUOUS
 62
     5
 10
351.81293315568843
 20
85.620596876880882
 30
0.0
 11
343.4840118578395
 21
99.903083108561987
 31
0.0
  0
LINE
  8
DETAIL
  6
CONTINUOUS
 62
     5
 10
351.84421603176088
 20
84.180072340677725
 30
0.0
 11
351.84421603176088
 21
83.347986467364535
 31
0.0
  0
LINE
  8
DETAIL
  6
CONTINUOUS
 62
     5
 10
351.84421603176088
 20
81.154635376362421
 30
0.0
 11
351.84421603176088
 21
79.785832455610944
 31
0.0
  0
LINE
  8
DETAIL
  6
CONTINUOUS
 62
     5
 10
351.84421603176088
 20
76.549274563043582
 30
0.0
 11
351.84421603176088
 21
74.670396786215861
 31
0.0
  0
LINE
  8
DETAIL
  6
CONTINUOUS
 62
     5
 10
343.4840118578395
 20
98.189763131424115
 30
0.0
 11
343.4840118578395
 21
97.697377567448711
 31
0.0
  0
LINE
  8
DETAIL
  6
CONTINUOUS
 62
     5
 10
343.4840118578395
 20
94.497312688690727
 30
0.0
 11
343.4840118578395
 21
93.687325620008778
 31
0.0
  0
LINE
  8
DETAIL
  6
CONTINUOUS
 62
     5
 10
343.4840118578395
 20
88.965238359531213
 30
0.0
 11
343.4840118578395
 21
87.853415261779446
 31
0.0
  0
LINE
  8
DETAIL
  6
CONTINUOUS
 62
     5
 10
351.85350250729613
 20
41.954323194837343
 30
0.0
 11
351.85450624863358
 21
38.418161883892033
 31
0.0
  0
LINE
  8
DETAIL
  6
CONTINUOUS
 62
     5
 10
351.85656880751782
 20
31.15180684413281
 30
0.0
 11
351.85763715155548
 21
27.388051482816081
 31
0.0
  0
LINE
  8
DETAIL
  6
CONTINUOUS
 62
     5
 10
351.85980692304662
 20
19.743988506790629
 30
0.0
 11
351.8609190903552
 21
15.825844593960939
 31
0.0
  0
LINE
  8
DETAIL
  6
CONTINUOUS
 62
     5
 10
351.86315377916247
 20
7.9530791688594036
 30
0.0
 11
351.86428813194652
 21
3.9567762625556502
 31
0.0
  0
LINE
  8
DETAIL
  6
CONTINUOUS
 62
     5
 10
344.15855282636772
 20
5.6399740397464484
 30
0.0
 11
344.14895499017439
 21
8.1340703905225382
 31
0.0
  0
LINE
  8
DETAIL
  6
CONTINUOUS
 62
     5
 10
344.15855282636772
 20
19.338845475846028
 30
0.0
 11
344.04982065033983
 21
21.798938185918811
 31
0.0
  0
LINE
  8
DETAIL
  6
CONTINUOUS
 62
     5
 10
344.15855282636772
 20
32.660967098243418
 30
0.0
 11
344.15855282636772
 21
35.010266313780448
 31
0.0
  0
LINE
  8
DETAIL
  6
CONTINUOUS
 62
     5
 10
344.15855282636772
 20
45.347038963391242
 30
0.0
 11
344.15855282636772
 21
47.554471522205858
 31
0.0
  0
LINE
  8
DETAIL
  6
CONTINUOUS
 62
     5
 10
191.2353703793851
 20
-85.620596876880882
 30
0.0
 11
196.8946992718484
 21
-85.620596876880882
 31
0.0
  0
LINE
  8
DETAIL
  6
CONTINUOUS
 62
     5
 10
205.25490344576971
 20
-87.853415261779446
 30
0.0
 11
196.8946992718484
 21
-74.670396786215861
 31
0.0
  0
LINE
  8
DETAIL
  6
CONTINUOUS
 62
     5
 10
205.25490344576971
 20
-93.687325620008778
 30
0.0
 11
196.8946992718484
 21
-79.78583245561093
 31
0.0
  0
LINE
  8
DETAIL
  6
CONTINUOUS
 62
     5
 10
205.25490344576971
 20
-97.697377567448711
 30
0.0
 11
196.8946992718484
 21
-83.347986467364535
 31
0.0
  0
LINE
  8
DETAIL
  6
CONTINUOUS
 62
     5
 10
196.8946992718484
 20
-76.549274563043582
 30
0.0
 11
205.25490344576971
 21
-88.965238359531213
 31
0.0
  0
LINE
  8
DETAIL
  6
CONTINUOUS
 62
     5
 10
196.8946992718484
 20
-81.154635376362421
 30
0.0
 11
205.25490344576971
 21
-94.497312688690727
 31
0.0
  0
LINE
  8
DETAIL
  6
CONTINUOUS
 62
     5
 10
196.8946992718484
 20
-84.180072340677739
 30
0.0
 11
205.25490344576971
 21
-98.189763131424115
 31
0.0
  0
LINE
  8
DETAIL
  6
CONTINUOUS
 62
     5
 10
196.92598214792449
 20
-85.620596876880882
 30
0.0
 11
205.25490344576971
 21
-99.903083108561987
 31
0.0
  0
LINE
  8
DETAIL
  6
CONTINUOUS
 62
     5
 10
196.8946992718484
 20
-84.180072340677739
 30
0.0
 11
196.8946992718484
 21
-83.347986467364535
 31
0.0
  0
LINE
  8
DETAIL
  6
CONTINUOUS
 62
     5
 10
196.8946992718484
 20
-81.154635376362421
 30
0.0
 11
196.8946992718484
 21
-79.78583245561093
 31
0.0
  0
LINE
  8
DETAIL
  6
CONTINUOUS
 62
     5
 10
196.8946992718484
 20
-76.549274563043582
 30
0.0
 11
196.8946992718484
 21
-74.670396786215861
 31
0.0
  0
LINE
  8
DETAIL
  6
CONTINUOUS
 62
     5
 10
205.25490344576971
 20
-98.189763131424115
 30
0.0
 11
205.25490344576971
 21
-97.697377567448711
 31
0.0
  0
LINE
  8
DETAIL
  6
CONTINUOUS
 62
     5
 10
205.25490344576971
 20
-94.497312688690727
 30
0.0
 11
205.25490344576971
 21
-93.687325620008778
 31
0.0
  0
LINE
  8
DETAIL
  6
CONTINUOUS
 62
     5
 10
205.25490344576971
 20
-88.965238359531213
 30
0.0
 11
205.25490344576971
 21
-87.853415261779446
 31
0.0
  0
LINE
  8
DETAIL
  6
CONTINUOUS
 62
     5
 10
206.7377739592774
 20
-68.735195020112329
 30
0.0
 11
206.7377739592774
 21
-79.906764397452662
 31
0.0
  0
ARC
  8
DETAIL
  6
CONTINUOUS
 62
     5
 10
300.05152194010589
 20
-87.021077241929575
 30
0.0
 40
11.35911119041719
 50
265.04998099337519
 51
305.20875250167933
  0
ARC
  8
DETAIL
  6
CONTINUOUS
 62
     5
 10
299.91017171162088
 20
-90.789112550954556
 30
0.0
 40
16.938128085242472
 50
267.16103448536649
 51
341.00668241472431
  0
ARC
  8
DETAIL
  6
CONTINUOUS
 62
     5
 10
549.72009461026391
 20
-459.90116935200291
 30
0.0
 40
519.00054691448406
 50
163.72849988479771
 51
176.76126688347151
  0
ARC
  8
DETAIL
  6
CONTINUOUS
 62
     5
 10
520.20632878654567
 20
-455.77918295026529
 30
0.0
 40
492.29649847609392
 50
163.32043168263201
 51
177.08759141915701
  0
ARC
  8
DETAIL
  6
CONTINUOUS
 62
     5
 10
919.38885174170002
 20
-521.07761753602836
 30
0.0
 40
900.78268651879557
 50
166.7411729523686
 51
174.23202825720799
  0
ARC
  8
DETAIL
  6
CONTINUOUS
 62
     5
 10
656.5738725120608
 20
-489.92392207799912
 30
0.0
 40
632.81608031602252
 50
167.39067934512931
 51
174.63338542861359
  0
ARC
  8
DETAIL
  6
CONTINUOUS
 62
     5
 10
27.89081329455075
 20
-403.94495396836152
 30
0.0
 40
26.88885404763306
 50
271.38908694334089
 51
277.86889212991662
  0
ARC
  8
DETAIL
  6
CONTINUOUS
 62
     5
 10
25.700892013439439
 20
-418.65497560461199
 30
0.0
 40
12.16081366195723
 50
257.97240771114423
 51
273.89507579299402
  0
ARC
  8
DETAIL
  6
CONTINUOUS
 62
     5
 10
130.22384943129151
 20
28.405111402252711
 30
0.0
 40
8.3617199969537026
 50
268.65352069105643
 51
312.42846421879312
  0
ARC
  8
DETAIL
  6
CONTINUOUS
 62
     5
 10
130.80164480349779
 20
10.631948101157381
 30
0.0
 40
9.4493822282494015
 50
94.222793574683692
 51
118.4285493084728
  0
ARC
  8
DETAIL
  6
CONTINUOUS
 62
     5
 10
176.56834875611821
 20
-54.367586779449077
 30
0.0
 40
88.886798054161829
 50
124.43679729520009
 51
130.0256818143362
  0
ARC
  8
DETAIL
  6
CONTINUOUS
 62
     5
 10
130.66171253074569
 20
-33.422200563078597
 30
0.0
 40
5.5238132287607691
 50
18.781410519109411
 51
88.45962400344095
  0
ARC
  8
DETAIL
  6
CONTINUOUS
 62
     5
 10
143.05337392334329
 20
13.48114488846886
 30
0.0
 40
43.154677489670107
 50
245.84496715376659
 51
253.51857773454799
  0
ARC
  8
DETAIL
  6
CONTINUOUS
 62
     5
 10
110.6693095683513
 20
-33.012021629223447
 30
0.0
 40
15.66835958870556
 50
37.840941036646363
 51
55.725069084348817
  0
ARC
  8
DETAIL
  6
CONTINUOUS
 62
     5
 10
129.1743796373739
 20
-19.977123402132289
 30
0.0
 40
7.0221736844579397
 50
209.17168973015521
 51
237.43038594456419
  0
ARC
  8
OUTLINE
  6
CONTINUOUS
 62
     3
 10
8.52321306179158
 20
339.40977733135998
 30
0.0
 40
5.9980526283619184
 50
0.9437123790721025
 51
74.322877795363482
  0
ARC
  8
OUTLINE
  6
CONTINUOUS
 62
     3
 10
8.4348363527607262
 20
-338.61182309541391
 30
0.0
 40
6.1513305147470732
 50
286.13192282031582
 51
351.61753072546009
  0
ARC
  8
OUTLINE
  6
CONTINUOUS
 62
     3
 10
191.63116374960379
 20
201.85720426734039
 30
0.0
 40
101.351833577626
 50
12.940342007296641
 51
91.903197800007035
  0
ARC
  8
OUTLINE
  6
CONTINUOUS
 62
     3
 10
191.63116374960379
 20
-201.85720426734039
 30
0.0
 40
101.351833577626
 50
268.09680219999302
 51
347.05965799270388
  0
LINE
  8
OUTLINE
  6
CONTINUOUS
 62
     3
 10
357.50354485434588
 20
85.620596876880882
 30
0.0
 11
351.84421596266122
 21
85.620596876880882
 31
0.0
  0
LINE
  8
OUTLINE
  6
CONTINUOUS
 62
     3
 10
357.50354485434588
 20
-85.655655142505566
 30
0.0
 11
351.84421596266122
 21
-85.655655142505566
 31
0.0
  0
LINE
  8
OUTLINE
  6
CONTINUOUS
 62
     3
 10
351.81293315568848
 20
-85.655655142505566
 30
0.0
 11
343.48401185783962
 21
-99.938141374186685
 31
0.0
  0
LINE
  8
OUTLINE
  6
CONTINUOUS
 62
     3
 10
351.81293315568848
 20
85.620596876880882
 30
0.0
 11
343.48401185783962
 21
99.903083108561987
 31
0.0
  0
ARC
  8
OUTLINE
  6
CONTINUOUS
 62
     3
 10
299.91017171162088
 20
-90.789112550954556
 30
0.0
 40
16.938128085242472
 50
267.16103448536649
 51
341.00668241472368
  0
ENDSEC
  0
EOF
