  0
SECTION
  2
HEADER
  9
$ACADVER
  1
AC1009
  9
$DWGCODEPAGE
  3
dos932
  9
$INSBASE
 10
0.0
 20
0.0
 30
0.0
  9
$EXTMIN
 10
-679.77903623806742
 20
-503.40269832336708
 30
-64.792084470338182
  9
$EXTMAX
 10
962.11396412937029
 20
558.83789860973775
 30
29.579549703737431
  9
$LIMMIN
 10
-2970.0
 20
-2100.0
  9
$LIMMAX
 10
2970.0
 20
2100.0
  9
$ORTHOMODE
 70
     1
  9
$REGENMODE
 70
     1
  9
$FILLMODE
 70
     1
  9
$QTEXTMODE
 70
     0
  9
$MIRRTEXT
 70
     0
  9
$LTSCALE
 40
20.0
  9
$ATTMODE
 70
     1
  9
$TEXTSIZE
 40
64.0
  9
$TRACEWID
 40
0.05
  9
$TEXTSTYLE
  7
STANDARD
  9
$CLAYER
  8
SIZE
  9
$CELTYPE
  6
CONTINUOUS
  9
$CECOLOR
 62
     7
  9
$DIMSCALE
 40
1.0
  9
$DIMASZ
 40
12.0
  9
$DIMEXO
 40
20.0
  9
$DIMDLI
 40
200.0
  9
$DIMRND
 40
0.0
  9
$DIMDLE
 40
0.0
  9
$DIMEXE
 40
20.0
  9
$DIMTP
 40
0.0
  9
$DIMTM
 40
0.0
  9
$DIMTXT
 40
64.0
  9
$DIMCEN
 40
0.09
  9
$DIMTSZ
 40
0.0
  9
$DIMTOL
 70
     0
  9
$DIMLIM
 70
     0
  9
$DIMTIH
 70
     0
  9
$DIMTOH
 70
     0
  9
$DIMSE1
 70
     0
  9
$DIMSE2
 70
     0
  9
$DIMTAD
 70
     1
  9
$DIMZIN
 70
     8
  9
$DIMBLK
  1

  9
$DIMASO
 70
     1
  9
$DIMSHO
 70
     0
  9
$DIMPOST
  1

  9
$DIMAPOST
  1

  9
$DIMALT
 70
     0
  9
$DIMALTD
 70
     2
  9
$DIMALTF
 40
25.399999999999999
  9
$DIMLFAC
 40
1.0
  9
$DIMTOFL
 70
     1
  9
$DIMTVP
 40
0.0
  9
$DIMTIX
 70
     1
  9
$DIMSOXD
 70
     0
  9
$DIMSAH
 70
     0
  9
$DIMBLK1
  1

  9
$DIMBLK2
  1

  9
$DIMSTYLE
  2
STANDARD
  9
$DIMCLRD
 70
     7
  9
$DIMCLRE
 70
     7
  9
$DIMCLRT
 70
     7
  9
$DIMTFAC
 40
1.0
  9
$DIMGAP
 40
25.0
  9
$LUNITS
 70
     2
  9
$LUPREC
 70
     4
  9
$SKETCHINC
 40
0.1
  9
$FILLETRAD
 40
3.0
  9
$AUNITS
 70
     1
  9
$AUPREC
 70
     3
  9
$MENU
  1
ACAD
  9
$ELEVATION
 40
0.0
  9
$PELEVATION
 40
0.0
  9
$THICKNESS
 40
0.0
  9
$LIMCHECK
 70
     0
  9
$CHAMFERA
 40
0.0
  9
$CHAMFERB
 40
0.0
  9
$SKPOLY
 70
     0
  9
$TDCREATE
 40
2453019.62301037
  9
$TDUPDATE
 40
2458949.45704309
  9
$TDINDWG
 40
1.7143794097
  9
$TDUSRTIMER
 40
1.7143794097
  9
$USRTIMER
 70
     1
  9
$ANGBASE
 50
0.0
  9
$ANGDIR
 70
     0
  9
$PDMODE
 70
     3
  9
$PDSIZE
 40
-2.0
  9
$PLINEWID
 40
0.0
  9
$SPLFRAME
 70
     0
  9
$SPLINETYPE
 70
     6
  9
$SPLINESEGS
 70
     8
  9
$SURFTAB1
 70
     6
  9
$SURFTAB2
 70
     6
  9
$SURFTYPE
 70
     6
  9
$SURFU
 70
     6
  9
$SURFV
 70
     6
  9
$UCSNAME
  2

  9
$UCSORG
 10
0.0
 20
0.0
 30
0.0
  9
$UCSXDIR
 10
1.0
 20
0.0
 30
0.0
  9
$UCSYDIR
 10
0.0
 20
1.0
 30
0.0
  9
$PUCSNAME
  2

  9
$PUCSORG
 10
0.0
 20
0.0
 30
0.0
  9
$PUCSXDIR
 10
1.0
 20
0.0
 30
0.0
  9
$PUCSYDIR
 10
0.0
 20
1.0
 30
0.0
  9
$USERI1
 70
     0
  9
$USERI2
 70
     0
  9
$USERI3
 70
     0
  9
$USERI4
 70
     0
  9
$USERI5
 70
     0
  9
$USERR1
 40
20.0
  9
$USERR2
 40
0.0
  9
$USERR3
 40
0.0
  9
$USERR4
 40
0.0
  9
$USERR5
 40
0.0
  9
$WORLDVIEW
 70
     1
  9
$SHADEDGE
 70
     3
  9
$SHADEDIF
 70
    70
  9
$TILEMODE
 70
     1
  9
$MAXACTVP
 70
    48
  9
$PINSBASE
 10
0.0
 20
0.0
 30
0.0
  9
$PLIMCHECK
 70
     0
  9
$PEXTMIN
 10
-100000000000000000000.0
 20
-100000000000000000000.0
 30
-100000000000000000000.0
  9
$PEXTMAX
 10
100000000000000000000.0
 20
100000000000000000000.0
 30
100000000000000000000.0
  9
$PLIMMIN
 10
0.0
 20
0.0
  9
$PLIMMAX
 10
12.0
 20
9.0
  9
$UNITMODE
 70
     0
  9
$VISRETAIN
 70
     0
  9
$PLINEGEN
 70
     0
  9
$PSLTSCALE
 70
     0
  9
$TREEDEPTH
 70
  3020
  9
$ATTDIA
 70
     0
  9
$ATTREQ
 70
     1
  9
$BLIPMODE
 70
     1
  9
$COORDS
 70
     1
  9
$DRAGMODE
 70
     2
  9
$OSMODE
 70
     0
  9
$HANDLING
 70
     0
  9
$HANDSEED
  5
1029F
  0
ENDSEC
  0
SECTION
  2
TABLES
  0
TABLE
  2
LTYPE
 70
     2
  0
LTYPE
  2
CONTINUOUS
 70
     0
  3
実線
 72
    65
 73
     0
 40
0.0
  0
LTYPE
  2
DASHDOT
 70
     0
  3
____ _ ____ _ ____ _ ____ _ ____ _ ____ _ ____
 72
    65
 73
     4
 40
5.5
 49
4.0
 49
-0.6
 49
0.3
 49
-0.6
  0
ENDTAB
  0
TABLE
  2
LAYER
 70
    12
  0
LAYER
  2
0
 70
     0
 62
     7
  6
CONTINUOUS
  0
LAYER
  2
BASIS
 70
     0
 62
     6
  6
DASHDOT
  0
LAYER
  2
OUTLINE
 70
     0
 62
     3
  6
CONTINUOUS
  0
LAYER
  2
DETAIL
 70
     0
 62
     5
  6
CONTINUOUS
  0
LAYER
  2
SIZE
 70
     0
 62
    30
  6
CONTINUOUS
  0
LAYER
  2
ARRANGE
 70
     0
 62
     1
  6
CONTINUOUS
  0
LAYER
  2
DEFPOINTS
 70
     0
 62
     7
  6
CONTINUOUS
  0
LAYER
  2
ETC
 70
     0
 62
    61
  6
CONTINUOUS
  0
LAYER
  2
FIX
 70
     0
 62
    11
  6
CONTINUOUS
  0
LAYER
  2
NOTE
 70
     0
 62
     4
  6
CONTINUOUS
  0
LAYER
  2
SERVICESPACE
 70
    64
 62
     2
  6
DASHDOT
  0
LAYER
  2
SYMBOLLINE
 70
    64
 62
    15
  6
CONTINUOUS
  0
ENDTAB
  0
TABLE
  2
STYLE
 70
     1
  0
STYLE
  2
STANDARD
 70
     0
 40
64.0
 41
0.9
 50
0.0
 71
     0
 42
64.0
  3
SIMPLEX.shx
  4
BIGFONT.shx
  0
ENDTAB
  0
TABLE
  2
APPID
 70
    19
  0
APPID
  2
ACAD
 70
     0
  0
APPID
  2
AUTOCAD_POSTSCRIPT_FIGURE
 70
     0
  0
APPID
  2
ACAD_EXEMPT_FROM_CAD_STANDARDS
 70
     0
  0
APPID
  2
ACAD_PSEXT
 70
     0
  0
APPID
  2
ACAUTHENVIRON
 70
     0
  0
APPID
  2
GENIUS_GENOENT_13
 70
     0
  0
APPID
  2
GENIUS_GENCFG_13
 70
     0
  0
APPID
  2
GENIUS_GENCFG0_13
 70
     0
  0
APPID
  2
GENIUS_GENCFG1_13
 70
     0
  0
APPID
  2
GENIUS_GENCFG2_13
 70
     0
  0
APPID
  2
GENIUS_GENCFG3_13
 70
     0
  0
APPID
  2
GENIUS_GENCFG4_13
 70
     0
  0
APPID
  2
GENIUS_GEVCFG0_13
 70
     0
  0
APPID
  2
CONTENTBLOCKICON
 70
     0
  0
APPID
  2
CONTENTBLOCKDESCRIPTION
 70
     0
  0
APPID
  2
ACAD_NAV_VCDISPLAY
 70
     0
  0
APPID
  2
ACAD_MLEADERVER
 70
     0
  0
APPID
  2
ACDBDYNAMICBLOCKTRUENAME
 70
     0
  0
APPID
  2
ACDBDYNAMICBLOCKGUID
 70
     0
  0
ENDTAB
  0
TABLE
  2
DIMSTYLE
 70
     1
  0
DIMSTYLE
  2
STANDARD
 70
     0
  3

  4

  5
_ORIGIN
  6

  7

 40
1.0
 41
12.0
 42
20.0
 43
200.0
 44
20.0
 45
0.0
 46
0.0
 47
0.0
 48
0.0
140
64.0
141
0.09
142
0.0
143
25.399999999999999
144
1.0
145
0.0
146
1.0
147
25.0
 71
     0
 72
     0
 73
     0
 74
     0
 75
     0
 76
     0
 77
     1
 78
     8
170
     0
171
     2
172
     1
173
     0
174
     1
175
     0
176
     7
177
     7
178
     7
  0
ENDTAB
  0
TABLE
  2
VIEW
 70
     1
  0
VIEW
  2
ALL
 70
     0
 40
4282.6198079999986
 10
0.0
 20
41.309904000000003
 41
5940.0
 11
0.0
 21
0.0
 31
1.0
 12
0.0
 22
0.0
 32
0.0
 42
50.0
 43
0.0
 44
0.0
 50
0.0
 71
     0
  0
ENDTAB
  0
TABLE
  2
UCS
 70
     0
  0
ENDTAB
  0
TABLE
  2
VPORT
 70
     1
  0
VPORT
  2
*ACTIVE
 70
     0
 10
0.0
 20
0.0
 11
1.0
 21
1.0
 12
141.16746394565141
 22
27.71760014318528
 13
0.0
 23
0.0
 14
1.0
 24
1.0
 15
0.0
 25
0.0
 16
0.0
 26
0.0
 36
1.0
 17
0.0
 27
0.0
 37
0.0
 40
1069.2830760287941
 41
1.747787610619469
 42
50.0
 43
0.0
 44
0.0
 50
0.0
 51
0.0
 71
     0
 72
  1000
 73
     1
 74
     3
 75
     0
 76
     0
 77
     0
 78
     0
  0
ENDTAB
  0
ENDSEC
  0
SECTION
  2
BLOCKS
  0
BLOCK
  8
0
  2
_ORIGIN
 70
     0
 10
0.0
 20
0.0
 30
0.0
  3
_ORIGIN
  1
_ORIGIN
  0
CIRCLE
  8
0
  6
CONTINUOUS
 62
     7
 10
0.0
 20
0.0
 30
0.0
 40
0.5
  0
LINE
  8
0
  6
CONTINUOUS
 62
     7
 10
0.0
 20
0.0
 30
0.0
 11
-1.0
 21
0.0
 31
0.0
  0
ENDBLK
  8
0
  0
ENDSEC
  0
SECTION
  2
ENTITIES
  0
CIRCLE
  8
ARRANGE
  6
CONTINUOUS
 62
     1
 10
0.0
 20
0.0
 30
0.0
 40
40.0
  0
POINT
  8
ARRANGE
  6
CONTINUOUS
 62
     1
 10
0.0
 20
0.0
 30
0.0
  0
TEXT
  8
ETC
  6
CONTINUOUS
 62
    61
 10
344.87539504366401
 20
494.56101113953292
 30
0.0
 40
64.0
  1
EWG-60FTA2_6
 41
0.9
  0
TEXT
  8
ETC
  6
CONTINUOUS
 62
    61
 10
340.68940104366362
 20
376.60570112470168
 30
0.0
 40
64.0
  1
産業扇
 41
0.9
  0
LINE
  8
SIZE
  6
CONTINUOUS
 62
    30
 10
-354.99999996909611
 20
18.497576736672041
 30
0.0
 11
-354.99999996909611
 21
264.96668498765212
 31
0.0
  0
LINE
  8
SIZE
  6
CONTINUOUS
 62
    30
 10
354.99999999970419
 20
18.497884344146431
 30
0.0
 11
354.99999999970419
 21
264.96668498765212
 31
0.0
  0
LINE
  8
SIZE
  6
CONTINUOUS
 62
    30
 10
-342.99999996909611
 20
244.9666849876522
 30
0.0
 11
342.99999999970419
 21
244.9666849876522
 31
0.0
  0
CIRCLE
  8
SIZE
  6
CONTINUOUS
 62
    30
 10
-354.99999996909611
 20
244.9666849876522
 30
0.0
 40
6.0
  0
LINE
  8
SIZE
  6
CONTINUOUS
 62
    30
 10
-354.99999996909611
 20
244.9666849876522
 30
0.0
 11
-342.99999996909611
 21
244.9666849876522
 31
0.0
  0
CIRCLE
  8
SIZE
  6
CONTINUOUS
 62
    30
 10
354.99999999970419
 20
244.9666849876522
 30
0.0
 40
6.0
  0
LINE
  8
SIZE
  6
CONTINUOUS
 62
    30
 10
354.99999999970419
 20
244.9666849876522
 30
0.0
 11
342.99999999970419
 21
244.9666849876522
 31
0.0
  0
TEXT
  8
SIZE
  6
CONTINUOUS
 62
    30
 10
-69.348778645907615
 20
269.96668498765212
 30
0.0
 40
64.0
  1
710
 41
0.9
 72
     1
 11
-0.7773500744790454
 21
269.96668498765212
 31
0.0
  0
POINT
  8
DEFPOINTS
  6
CONTINUOUS
 62
    30
 10
-354.99999996909611
 20
-1.5024232633279551
 30
0.0
  0
POINT
  8
DEFPOINTS
  6
CONTINUOUS
 62
    30
 10
354.99999999970419
 20
-1.502115655853572
 30
0.0
  0
POINT
  8
DEFPOINTS
  6
CONTINUOUS
 62
    30
 10
354.99999999970419
 20
244.9666849876522
 30
0.0
  0
LINE
  8
SIZE
  6
CONTINUOUS
 62
    30
 10
-325.45839210095858
 20
36.335668001699673
 30
0.0
 11
-325.45839210095858
 21
151.39419561661629
 31
0.0
  0
LINE
  8
SIZE
  6
CONTINUOUS
 62
    30
 10
325.45839210095892
 20
36.335668001699453
 30
0.0
 11
325.45839210095892
 21
151.39419561661629
 31
0.0
  0
LINE
  8
SIZE
  6
CONTINUOUS
 62
    30
 10
-313.45839210095858
 20
131.39419561661629
 30
0.0
 11
313.45839210095892
 21
131.39419561661629
 31
0.0
  0
CIRCLE
  8
SIZE
  6
CONTINUOUS
 62
    30
 10
-325.45839210095858
 20
131.39419561661629
 30
0.0
 40
6.0
  0
LINE
  8
SIZE
  6
CONTINUOUS
 62
    30
 10
-325.45839210095858
 20
131.39419561661629
 30
0.0
 11
-313.45839210095858
 21
131.39419561661629
 31
0.0
  0
CIRCLE
  8
SIZE
  6
CONTINUOUS
 62
    30
 10
325.45839210095892
 20
131.39419561661629
 30
0.0
 40
6.0
  0
LINE
  8
SIZE
  6
CONTINUOUS
 62
    30
 10
325.45839210095892
 20
131.39419561661629
 30
0.0
 11
313.45839210095892
 21
131.39419561661629
 31
0.0
  0
TEXT
  8
SIZE
  6
CONTINUOUS
 62
    30
 10
-74.057142857142736
 20
156.39419561661629
 30
0.0
 40
64.0
  1
650
 41
0.9
 72
     1
 11
0.0000000000001137
 21
156.39419561661629
 31
0.0
  0
POINT
  8
DEFPOINTS
  6
CONTINUOUS
 62
    30
 10
-325.45839210095858
 20
16.33566800169967
 30
0.0
  0
POINT
  8
DEFPOINTS
  6
CONTINUOUS
 62
    30
 10
325.45839210095892
 20
16.33566800169945
 30
0.0
  0
POINT
  8
DEFPOINTS
  6
CONTINUOUS
 62
    30
 10
325.45839210095892
 20
131.39419561661629
 30
0.0
  0
CIRCLE
  8
FIX
  6
CONTINUOUS
 62
    11
 10
-325.41691326098493
 20
0.0000000000000568
 30
0.0
 40
7.0
  0
CIRCLE
  8
FIX
  6
CONTINUOUS
 62
    11
 10
325.45839210095892
 20
0.0
 30
0.0
 40
7.0
  0
LINE
  8
SIZE
  6
CONTINUOUS
 62
    30
 10
373.49788434385079
 20
-0.0000000000001137
 30
0.0
 11
514.65450365862307
 21
-0.0000000000001705
 31
0.0
  0
LINE
  8
SIZE
  6
CONTINUOUS
 62
    30
 10
368.39069111394929
 20
-10.014104372651669
 30
0.0
 11
514.65450365862307
 21
-10.01410437265173
 31
0.0
  0
LINE
  8
SIZE
  6
CONTINUOUS
 62
    30
 10
494.65450365862313
 20
-22.01410437265173
 30
0.0
 11
494.65450365862313
 21
-34.01410437265173
 31
0.0
  0
LINE
  8
SIZE
  6
CONTINUOUS
 62
    30
 10
494.65450365862313
 20
11.99999999999989
 30
0.0
 11
494.65450365862313
 21
157.2996127395696
 31
0.0
  0
LINE
  8
SIZE
  6
CONTINUOUS
 62
    30
 10
494.65450365862313
 20
-10.01410437265173
 30
0.0
 11
494.65450365862313
 21
-0.0000000000001705
 31
0.0
  0
CIRCLE
  8
SIZE
  6
CONTINUOUS
 62
    30
 10
494.65450365862313
 20
-10.01410437265173
 30
0.0
 40
6.0
  0
LINE
  8
SIZE
  6
CONTINUOUS
 62
    30
 10
494.65450365862313
 20
-10.01410437265173
 30
0.0
 11
494.65450365862313
 21
-22.01410437265173
 31
0.0
  0
CIRCLE
  8
SIZE
  6
CONTINUOUS
 62
    30
 10
494.65450365862313
 20
-0.0000000000001705
 30
0.0
 40
6.0
  0
LINE
  8
SIZE
  6
CONTINUOUS
 62
    30
 10
494.65450365862313
 20
-0.0000000000001705
 30
0.0
 11
494.65450365862313
 21
11.99999999999989
 31
0.0
  0
TEXT
  8
SIZE
  6
CONTINUOUS
 62
    30
 10
469.65450365862313
 20
50.013898453855383
 30
0.0
 40
64.0
  1
10
 50
90.0
 41
0.9
 72
     1
 11
469.65450365862313
 21
91.156755596712514
 31
0.0
  0
POINT
  8
DEFPOINTS
  6
CONTINUOUS
 62
    30
 10
353.49788434385079
 20
-0.0000000000001137
 30
0.0
  0
POINT
  8
DEFPOINTS
  6
CONTINUOUS
 62
    30
 10
348.39069111394929
 20
-10.014104372651669
 30
0.0
  0
POINT
  8
DEFPOINTS
  6
CONTINUOUS
 62
    30
 10
494.65450365862313
 20
-10.01410437265173
 30
0.0
  0
LINE
  8
SIZE
  6
CONTINUOUS
 62
    30
 10
368.39069111394929
 20
-10.014104372651669
 30
0.0
 11
514.65450365862307
 21
-10.01410437265173
 31
0.0
  0
LINE
  8
SIZE
  6
CONTINUOUS
 62
    30
 10
358.37658674129761
 20
-20.02820874530369
 30
0.0
 11
514.65450365862307
 21
-20.02820874530374
 31
0.0
  0
LINE
  8
SIZE
  6
CONTINUOUS
 62
    30
 10
494.65450365862313
 20
1.98589562734827
 30
0.0
 11
494.65450365862313
 21
13.985895627348331
 31
0.0
  0
LINE
  8
SIZE
  6
CONTINUOUS
 62
    30
 10
494.65450365862313
 20
-32.028208745303743
 30
0.0
 11
494.65450365862313
 21
-256.25304604125603
 31
0.0
  0
LINE
  8
SIZE
  6
CONTINUOUS
 62
    30
 10
494.65450365862313
 20
-10.01410437265173
 30
0.0
 11
494.65450365862313
 21
-20.02820874530374
 31
0.0
  0
CIRCLE
  8
SIZE
  6
CONTINUOUS
 62
    30
 10
494.65450365862313
 20
-10.01410437265173
 30
0.0
 40
6.0
  0
LINE
  8
SIZE
  6
CONTINUOUS
 62
    30
 10
494.65450365862313
 20
-10.01410437265173
 30
0.0
 11
494.65450365862313
 21
1.98589562734827
 31
0.0
  0
CIRCLE
  8
SIZE
  6
CONTINUOUS
 62
    30
 10
494.65450365862313
 20
-20.02820874530374
 30
0.0
 40
6.0
  0
LINE
  8
SIZE
  6
CONTINUOUS
 62
    30
 10
494.65450365862313
 20
-20.02820874530374
 30
0.0
 11
494.65450365862313
 21
-32.028208745303743
 31
0.0
  0
TEXT
  8
SIZE
  6
CONTINUOUS
 62
    30
 10
469.65450365862313
 20
-231.253046041256
 30
0.0
 40
64.0
  1
10
 50
90.0
 41
0.9
 72
     1
 11
469.65450365862313
 21
-190.11018889839889
 31
0.0
  0
POINT
  8
DEFPOINTS
  6
CONTINUOUS
 62
    30
 10
348.39069111394929
 20
-10.014104372651669
 30
0.0
  0
POINT
  8
DEFPOINTS
  6
CONTINUOUS
 62
    30
 10
338.37658674129761
 20
-20.02820874530369
 30
0.0
  0
POINT
  8
DEFPOINTS
  6
CONTINUOUS
 62
    30
 10
494.65450365862313
 20
-20.02820874530374
 30
0.0
  0
LINE
  8
SIZE
  6
CONTINUOUS
 62
    30
 10
373.49788434385079
 20
-0.0000000000001137
 30
0.0
 11
656.21331117497175
 21
-0.0000000000002274
 31
0.0
  0
LINE
  8
SIZE
  6
CONTINUOUS
 62
    30
 10
370.00897038022572
 20
-119.40255087195089
 30
0.0
 11
656.21331117497175
 21
-119.40255087195099
 31
0.0
  0
LINE
  8
SIZE
  6
CONTINUOUS
 62
    30
 10
636.21331117497175
 20
-12.000000000000171
 30
0.0
 11
636.21331117497175
 21
-107.40255087195099
 31
0.0
  0
LINE
  8
SIZE
  6
CONTINUOUS
 62
    30
 10
636.21331117497175
 20
-119.40255087195099
 30
0.0
 11
636.21331117497175
 21
-304.83112230052222
 31
0.0
  0
CIRCLE
  8
SIZE
  6
CONTINUOUS
 62
    30
 10
636.21331117497175
 20
-0.0000000000001705
 30
0.0
 40
6.0
  0
LINE
  8
SIZE
  6
CONTINUOUS
 62
    30
 10
636.21331117497175
 20
-0.0000000000001705
 30
0.0
 11
636.21331117497175
 21
-12.000000000000171
 31
0.0
  0
CIRCLE
  8
SIZE
  6
CONTINUOUS
 62
    30
 10
636.21331117497175
 20
-119.40255087195099
 30
0.0
 40
6.0
  0
LINE
  8
SIZE
  6
CONTINUOUS
 62
    30
 10
636.21331117497175
 20
-119.40255087195099
 30
0.0
 11
636.21331117497175
 21
-107.40255087195099
 31
0.0
  0
TEXT
  8
SIZE
  6
CONTINUOUS
 62
    30
 10
611.21331117497175
 20
-279.83112230052228
 30
0.0
 40
64.0
  1
119
 50
90.0
 41
0.9
 72
     1
 11
611.21331117497175
 21
-218.11683658623659
 31
0.0
  0
POINT
  8
DEFPOINTS
  6
CONTINUOUS
 62
    30
 10
353.49788434385079
 20
-0.0000000000001137
 30
0.0
  0
POINT
  8
DEFPOINTS
  6
CONTINUOUS
 62
    30
 10
350.00897038022572
 20
-119.40255087195089
 30
0.0
  0
POINT
  8
DEFPOINTS
  6
CONTINUOUS
 62
    30
 10
636.21331117497175
 20
-119.40255087195099
 30
0.0
  0
TEXT
  8
NOTE
  6
CONTINUOUS
 62
     4
 10
-672.20697365316414
 20
89.566182407517999
 30
0.0
 40
64.0
  1
4-φ14
 41
0.9
  0
LINE
  8
SIZE
  6
CONTINUOUS
 62
    30
 10
-373.49788434473908
 20
0.0
 30
0.0
 11
-463.59336539018022
 21
0.0000000000000568
 31
0.0
  0
LINE
  8
SIZE
  6
CONTINUOUS
 62
    30
 10
23.324229414804108
 20
-347.68970380847679
 30
0.0
 11
-463.59336539018028
 21
-347.68970380847662
 31
0.0
  0
LINE
  8
SIZE
  6
CONTINUOUS
 62
    30
 10
-443.59336539018022
 20
-12.0
 30
0.0
 11
-443.59336539018028
 21
-335.68970380847662
 31
0.0
  0
CIRCLE
  8
SIZE
  6
CONTINUOUS
 62
    30
 10
-443.59336539018022
 20
0.0
 30
0.0
 40
6.0
  0
LINE
  8
SIZE
  6
CONTINUOUS
 62
    30
 10
-443.59336539018022
 20
0.0
 30
0.0
 11
-443.59336539018022
 21
-12.0
 31
0.0
  0
CIRCLE
  8
SIZE
  6
CONTINUOUS
 62
    30
 10
-443.59336539018028
 20
-347.68970380847662
 30
0.0
 40
6.0
  0
LINE
  8
SIZE
  6
CONTINUOUS
 62
    30
 10
-443.59336539018028
 20
-347.68970380847662
 30
0.0
 11
-443.59336539018028
 21
-335.68970380847662
 31
0.0
  0
TEXT
  8
SIZE
  6
CONTINUOUS
 62
    30
 10
-468.59336539018022
 20
-247.90199476138119
 30
0.0
 40
64.0
  1
347
 50
90.0
 41
0.9
 72
     1
 11
-468.59336539018022
 21
-173.8448519042384
 31
0.0
  0
POINT
  8
DEFPOINTS
  6
CONTINUOUS
 62
    30
 10
-353.49788434473908
 20
0.0
 30
0.0
  0
POINT
  8
DEFPOINTS
  6
CONTINUOUS
 62
    30
 10
43.324229414804108
 20
-347.68970380847679
 30
0.0
  0
POINT
  8
DEFPOINTS
  6
CONTINUOUS
 62
    30
 10
-443.59336539018028
 20
-347.68970380847662
 30
0.0
  0
LINE
  8
DETAIL
  6
CONTINUOUS
 62
     4
 10
-328.12166777214651
 20
5.4966390564275676
 30
0.0
 11
-325.35826913251429
 21
-0.0664830210104697
 31
0.0
  0
LINE
  8
DETAIL
  6
CONTINUOUS
 62
     4
 10
-325.35826913251429
 20
-0.0664830210104697
 30
0.0
 11
-330.53300877195039
 21
3.3696149045512702
 31
0.0
  0
LINE
  8
DETAIL
  6
CONTINUOUS
 62
     4
 10
-325.35826913251429
 20
-0.0664830210104697
 30
0.0
 11
-333.29640741158249
 21
8.932736981989251
 31
0.0
  0
LINE
  8
NOTE
  6
CONTINUOUS
 62
     4
 10
-333.29640741158249
 20
8.932736981989251
 30
0.0
 11
-381.46186201201579
 21
63.536411956604979
 31
0.0
  0
LINE
  8
NOTE
  6
CONTINUOUS
 62
     4
 10
-381.46186201201579
 20
63.536411956604979
 30
0.0
 11
-679.33042425704969
 21
63.697866805785338
 31
0.0
  0
LINE
  8
SIZE
  6
CONTINUOUS
 62
    30
 10
-81.485071985424142
 20
-353.87668036037093
 30
0.0
 11
-81.485071985424142
 21
-503.09828310880403
 31
0.0
  0
LINE
  8
SIZE
  6
CONTINUOUS
 62
    30
 10
81.744829283376589
 20
-353.87668036037093
 30
0.0
 11
81.744829283376589
 21
-503.09828310880403
 31
0.0
  0
LINE
  8
SIZE
  6
CONTINUOUS
 62
    30
 10
-69.485071985424156
 20
-483.09828310880403
 30
0.0
 11
69.744829283376589
 21
-483.09828310880403
 31
0.0
  0
LINE
  8
SIZE
  6
CONTINUOUS
 62
    30
 10
81.744829283376589
 20
-483.09828310880403
 30
0.0
 11
341.23054356909091
 21
-483.09828310880403
 31
0.0
  0
CIRCLE
  8
SIZE
  6
CONTINUOUS
 62
    30
 10
-81.485071985424142
 20
-483.09828310880403
 30
0.0
 40
6.0
  0
LINE
  8
SIZE
  6
CONTINUOUS
 62
    30
 10
-81.485071985424142
 20
-483.09828310880403
 30
0.0
 11
-69.485071985424156
 21
-483.09828310880403
 31
0.0
  0
CIRCLE
  8
SIZE
  6
CONTINUOUS
 62
    30
 10
81.744829283376589
 20
-483.09828310880403
 30
0.0
 40
6.0
  0
LINE
  8
SIZE
  6
CONTINUOUS
 62
    30
 10
81.744829283376589
 20
-483.09828310880403
 30
0.0
 11
69.744829283376589
 21
-483.09828310880403
 31
0.0
  0
TEXT
  8
SIZE
  6
CONTINUOUS
 62
    30
 10
108.5962578548053
 20
-447.4316164421374
 30
0.0
 40
64.0
  1
φ163
 41
0.9
 72
     1
 11
217.48768642623381
 21
-447.4316164421374
 31
0.0
  0
POINT
  8
DEFPOINTS
  6
CONTINUOUS
 62
    30
 10
-81.485071985424142
 20
-333.87668036037093
 30
0.0
  0
POINT
  8
DEFPOINTS
  6
CONTINUOUS
 62
    30
 10
81.744829283376589
 20
-333.87668036037093
 30
0.0
  0
POINT
  8
DEFPOINTS
  6
CONTINUOUS
 62
    30
 10
81.744829283376589
 20
-483.09828310880403
 30
0.0
  0
LINE
  8
NOTE
  6
CONTINUOUS
 62
     4
 10
-325.45839210095858
 20
-39.208952782375832
 30
0.0
 11
-325.45839210095858
 21
16.33566800169967
 31
0.0
  0
LINE
  8
NOTE
  6
CONTINUOUS
 62
     4
 10
325.45839210095892
 20
-39.208952782376173
 30
0.0
 11
325.45839210095892
 21
16.33566800169945
 31
0.0
  0
LINE
  8
OUTLINE
  6
CONTINUOUS
 62
     3
 10
-351.86589003990969
 20
-6.4090267986036906
 30
0.0
 11
-351.86589003990969
 21
-3.0042313117066901
 31
0.0
  0
LINE
  8
OUTLINE
  6
CONTINUOUS
 62
     3
 10
-341.85178566725779
 20
-16.42313117125536
 30
0.0
 11
-341.85178566725779
 21
-13.887196766384699
 31
0.0
  0
LINE
  8
OUTLINE
  6
CONTINUOUS
 62
     3
 10
-306.20970245775368
 20
-201.28349788434409
 30
0.0
 11
-306.20970245775368
 21
-39.304102429421278
 31
0.0
  0
LINE
  8
OUTLINE
  6
CONTINUOUS
 62
     3
 10
38.61760036009116
 20
-345.68688293430188
 30
0.0
 11
48.030858470401427
 21
-345.68688293430188
 31
0.0
  0
LINE
  8
OUTLINE
  6
CONTINUOUS
 62
     3
 10
71.683349867264383
 20
-345.18617771509162
 30
0.0
 11
-71.423592570200753
 21
-345.18617771509162
 31
0.0
  0
LINE
  8
OUTLINE
  6
CONTINUOUS
 62
     3
 10
73.777475854094632
 20
-343.09205174337148
 30
0.0
 11
-73.517718556142299
 21
-343.09205174337148
 31
0.0
  0
LINE
  8
OUTLINE
  6
CONTINUOUS
 62
     3
 10
-120.039373819289
 20
-313.4414668550213
 30
0.0
 11
-81.485071985424028
 21
-313.4414668550213
 31
0.0
  0
LINE
  8
OUTLINE
  6
CONTINUOUS
 62
     3
 10
-71.423592570200753
 20
-345.18617771509162
 30
0.0
 11
-73.517718556142299
 21
-343.09205174337148
 31
0.0
  0
LINE
  8
OUTLINE
  6
CONTINUOUS
 62
     3
 10
-229.73445847817169
 20
-309.43582510578261
 30
0.0
 11
-120.039373819289
 21
-309.43582510578261
 31
0.0
  0
LINE
  8
OUTLINE
  6
CONTINUOUS
 62
     3
 10
120.2991311172414
 20
-309.43582510578261
 30
0.0
 11
229.99421577612421
 21
-309.43582510578261
 31
0.0
  0
LINE
  8
OUTLINE
  6
CONTINUOUS
 62
     3
 10
-120.039373819289
 20
-313.4414668550213
 30
0.0
 11
-120.039373819289
 21
-309.43582510578261
 31
0.0
  0
LINE
  8
OUTLINE
  6
CONTINUOUS
 62
     3
 10
-81.485071985424028
 20
-333.87668039414598
 30
0.0
 11
-81.485071985424028
 21
-313.4414668550213
 31
0.0
  0
LINE
  8
OUTLINE
  6
CONTINUOUS
 62
     3
 10
-349.87909173213808
 20
-119.4025508719506
 30
0.0
 11
-306.20970245775368
 21
-119.4025508719506
 31
0.0
  0
LINE
  8
OUTLINE
  6
CONTINUOUS
 62
     3
 10
306.46945975570623
 20
-119.4025508719506
 30
0.0
 11
350.1388490300908
 21
-119.4025508719506
 31
0.0
  0
LINE
  8
OUTLINE
  6
CONTINUOUS
 62
     3
 10
-349.87909173213808
 20
-115.39690912360081
 30
0.0
 11
-306.20970245775368
 21
-115.39690912360081
 31
0.0
  0
LINE
  8
OUTLINE
  6
CONTINUOUS
 62
     3
 10
306.46945975570623
 20
-115.39690912360081
 30
0.0
 11
350.1388490300908
 21
-115.39690912360081
 31
0.0
  0
LINE
  8
OUTLINE
  6
CONTINUOUS
 62
     3
 10
38.61760036009116
 20
-345.68688293430188
 30
0.0
 11
38.61760036009116
 21
-345.18617771509162
 31
0.0
  0
LINE
  8
OUTLINE
  6
CONTINUOUS
 62
     3
 10
48.030858470401427
 20
-345.68688293430188
 30
0.0
 11
48.030858470401427
 21
-345.18617771509162
 31
0.0
  0
LINE
  8
OUTLINE
  6
CONTINUOUS
 62
     3
 10
81.744829283376703
 20
-333.87668039414598
 30
0.0
 11
81.744829283376703
 21
-313.4414668550213
 31
0.0
  0
LINE
  8
OUTLINE
  6
CONTINUOUS
 62
     3
 10
120.2991311172414
 20
-309.43582510578261
 30
0.0
 11
120.2991311172414
 21
-313.4414668550213
 31
0.0
  0
LINE
  8
OUTLINE
  6
CONTINUOUS
 62
     3
 10
338.50646539116258
 20
-20.028208745303349
 30
0.0
 11
334.10025946673352
 21
-20.028208745302891
 31
0.0
  0
LINE
  8
OUTLINE
  6
CONTINUOUS
 62
     3
 10
-333.84050216878092
 20
-20.028208745303122
 30
0.0
 11
-338.24670809321009
 21
-20.028208745303349
 31
0.0
  0
LINE
  8
OUTLINE
  6
CONTINUOUS
 62
     3
 10
348.52056976292528
 20
-10.014104372651669
 30
0.0
 11
345.05815667735669
 21
-10.014104372651669
 31
0.0
  0
LINE
  8
OUTLINE
  6
CONTINUOUS
 62
     3
 10
-345.05105224990211
 20
-10.014104372651669
 30
0.0
 11
-348.26081246586159
 21
-10.014104372651669
 31
0.0
  0
LINE
  8
OUTLINE
  6
CONTINUOUS
 62
     3
 10
353.62776299282677
 20
-3.0042313117066901
 30
0.0
 11
352.12564733697332
 21
-3.0042313117066901
 31
0.0
  0
LINE
  8
OUTLINE
  6
CONTINUOUS
 62
     3
 10
71.683349867264383
 20
-345.18617771509162
 30
0.0
 11
73.777475854094632
 21
-343.09205174337148
 31
0.0
  0
LINE
  8
OUTLINE
  6
CONTINUOUS
 62
     3
 10
353.62776299282677
 20
0.0
 30
0.0
 11
-353.36800569487411
 21
0.0
 31
0.0
  0
LINE
  8
OUTLINE
  6
CONTINUOUS
 62
     3
 10
306.46745552789048
 20
-39.309551730933663
 30
0.0
 11
306.46945975570623
 21
-201.28349788434409
 31
0.0
  0
LINE
  8
OUTLINE
  6
CONTINUOUS
 62
     3
 10
342.11154296521028
 20
-13.704285765802179
 30
0.0
 11
342.11154296521028
 21
-16.42313117125536
 31
0.0
  0
LINE
  8
OUTLINE
  6
CONTINUOUS
 62
     3
 10
352.12564733697332
 20
-3.0042313117066901
 30
0.0
 11
352.12564733697332
 21
-6.4090267986036906
 31
0.0
  0
ARC
  8
OUTLINE
  6
CONTINUOUS
 62
     3
 10
-72.171954919133654
 20
-333.87668036037093
 30
0.0
 40
9.3131170662904879
 50
180.0
 51
261.69156033789898
  0
ARC
  8
OUTLINE
  6
CONTINUOUS
 62
     3
 10
-338.24670809321009
 20
-16.42313117125536
 30
0.0
 40
3.605077574047868
 50
180.0
 51
270.0
  0
ARC
  8
OUTLINE
  6
CONTINUOUS
 62
     3
 10
-348.26081246586159
 20
-6.4090267986036906
 30
0.0
 40
3.605077574047983
 50
180.0
 51
270.0
  0
ARC
  8
OUTLINE
  6
CONTINUOUS
 62
     3
 10
-349.87909173213808
 20
-117.39972999777611
 30
0.0
 40
2.002820874174859
 50
90.0
 51
270.0
  0
ARC
  8
OUTLINE
  6
CONTINUOUS
 62
     3
 10
-353.36800569487411
 20
-1.5021156558532309
 30
0.0
 40
1.502115655853459
 50
90.0
 51
270.0
  0
ARC
  8
OUTLINE
  6
CONTINUOUS
 62
     3
 10
72.431712217086101
 20
-333.87668036037093
 30
0.0
 40
9.3131170662905252
 50
278.30843966210102
 51
0.0
  0
ARC
  8
OUTLINE
  6
CONTINUOUS
 62
     3
 10
43.324229414801827
 20
-341.1580042319041
 30
0.0
 40
6.5316995765726658
 50
223.89739816710161
 51
316.10260183289842
  0
ARC
  8
OUTLINE
  6
CONTINUOUS
 62
     3
 10
348.52056976292528
 20
-6.4090267986036906
 30
0.0
 40
3.6050775740477552
 50
270.0
 51
0.0
  0
ARC
  8
OUTLINE
  6
CONTINUOUS
 62
     3
 10
338.50646539116258
 20
-16.42313117125536
 30
0.0
 40
3.6050775740477552
 50
270.0
 51
0.0
  0
ARC
  8
OUTLINE
  6
CONTINUOUS
 62
     3
 10
350.1388490300908
 20
-117.39972999777611
 30
0.0
 40
2.0028208741746312
 50
270.0
 51
90.0
  0
ARC
  8
OUTLINE
  6
CONTINUOUS
 62
     3
 10
353.62776299282677
 20
-1.5021156558532309
 30
0.0
 40
1.502115655853459
 50
270.0
 51
90.0
  0
ARC
  8
OUTLINE
  6
CONTINUOUS
 62
     3
 10
-353.86871091408437
 20
-69.497884344442582
 30
0.0
 40
49.469675599139833
 50
291.8865553767003
 51
344.46912346700122
  0
ARC
  8
OUTLINE
  6
CONTINUOUS
 62
     3
 10
-333.84050216878092
 20
-49.46967560002804
 30
0.0
 40
29.44146685472489
 50
20.187638288796879
 51
90.0
  0
ARC
  8
OUTLINE
  6
CONTINUOUS
 62
     3
 10
354.12846821114817
 20
-69.497884344442582
 30
0.0
 40
49.469675599139613
 50
195.5308765329988
 51
248.1134446232997
  0
ARC
  8
OUTLINE
  6
CONTINUOUS
 62
     3
 10
334.10025946673352
 20
-49.46967560002804
 30
0.0
 40
29.441466854725149
 50
90.0
 51
159.8123617112031
  0
LINE
  8
OUTLINE
  6
CONTINUOUS
 62
     3
 10
-351.86589003990969
 20
-3.0042313117066901
 30
0.0
 11
-353.36800569487411
 21
-3.0042313117066901
 31
0.0
  0
LINE
  8
OUTLINE
  6
CONTINUOUS
 62
     3
 10
81.744829283376703
 20
-313.4414668550213
 30
0.0
 11
120.2991311172414
 21
-313.4414668550213
 31
0.0
  0
LINE
  8
DETAIL
  6
CONTINUOUS
 62
     5
 10
-351.86589003990969
 20
-3.0042313117063491
 30
0.0
 11
-351.86589003990969
 21
-6.4090267986034632
 31
0.0
  0
LINE
  8
DETAIL
  6
CONTINUOUS
 62
     5
 10
-348.69594911278108
 20
-5.1071932299012133
 30
0.0
 11
-348.69594911278108
 21
-3.0042313117063491
 31
0.0
  0
LINE
  8
DETAIL
  6
CONTINUOUS
 62
     5
 10
-341.85178566725779
 20
-13.887196766384699
 30
0.0
 11
-341.85178566725779
 21
-16.42313117125525
 31
0.0
  0
LINE
  8
DETAIL
  6
CONTINUOUS
 62
     5
 10
-311.21675464363511
 20
-18.526093089450001
 30
0.0
 11
-311.21675464363511
 21
-14.520451340211251
 31
0.0
  0
LINE
  8
DETAIL
  6
CONTINUOUS
 62
     5
 10
-306.20970245775368
 20
-14.520451340211251
 30
0.0
 11
-306.20970245775368
 21
-201.283497884344
 31
0.0
  0
LINE
  8
DETAIL
  6
CONTINUOUS
 62
     5
 10
-301.96107779207341
 20
-201.283497884344
 30
0.0
 11
-301.96107779207341
 21
-14.520451340211251
 31
0.0
  0
LINE
  8
DETAIL
  6
CONTINUOUS
 62
     5
 10
-299.12866134887878
 20
-5.1071932299012133
 30
0.0
 11
-299.12866134887878
 21
-3.0042313117063491
 31
0.0
  0
LINE
  8
DETAIL
  6
CONTINUOUS
 62
     5
 10
-287.7989955743235
 20
-6.4090267986034632
 30
0.0
 11
-287.7989955743235
 21
-3.0042313117063491
 31
0.0
  0
LINE
  8
DETAIL
  6
CONTINUOUS
 62
     5
 10
-275.05312157728201
 20
-201.283497884344
 30
0.0
 11
-275.05312157728201
 21
-14.520451340211251
 31
0.0
  0
LINE
  8
DETAIL
  6
CONTINUOUS
 62
     5
 10
-258.05862291544918
 20
-14.520451340211251
 30
0.0
 11
-258.05862291544918
 21
-10.014104372651451
 31
0.0
  0
LINE
  8
DETAIL
  6
CONTINUOUS
 62
     5
 10
-246.02085303009491
 20
-16.42313117125525
 30
0.0
 11
-246.02085303009491
 21
-13.01833568435814
 31
0.0
  0
LINE
  8
DETAIL
  6
CONTINUOUS
 62
     5
 10
-229.6938166965808
 20
-20.028208745303349
 30
0.0
 11
-229.6938166965808
 21
-20.528913963624628
 31
0.0
  0
LINE
  8
DETAIL
  6
CONTINUOUS
 62
     5
 10
-353.36800569487411
 20
0.0
 30
0.0
 11
353.62776299282677
 21
0.0
 31
0.0
  0
LINE
  8
DETAIL
  6
CONTINUOUS
 62
     5
 10
-353.36800569487411
 20
-3.0042313117063491
 30
0.0
 11
353.62776299282677
 21
-3.0042313117063491
 31
0.0
  0
LINE
  8
DETAIL
  6
CONTINUOUS
 62
     5
 10
-71.423592570200753
 20
-345.18617771509167
 30
0.0
 11
-73.517718556142299
 21
-343.09205174337092
 31
0.0
  0
LINE
  8
DETAIL
  6
CONTINUOUS
 62
     5
 10
-348.69594911278108
 20
-5.1071932299012133
 30
0.0
 11
-298.72543798456468
 21
-5.1071932299012133
 31
0.0
  0
LINE
  8
DETAIL
  6
CONTINUOUS
 62
     5
 10
298.7254379836827
 20
-5.107193229902748
 30
0.0
 11
348.95570641073328
 21
-5.1071932299012133
 31
0.0
  0
LINE
  8
DETAIL
  6
CONTINUOUS
 62
     5
 10
348.52056976292528
 20
-10.014104372651451
 30
0.0
 11
345.05815667735669
 21
-10.014104372651451
 31
0.0
  0
LINE
  8
DETAIL
  6
CONTINUOUS
 62
     5
 10
-284.19391800027557
 20
-10.014104372651451
 30
0.0
 11
-289.81138188899712
 21
-10.014104372651451
 31
0.0
  0
LINE
  8
DETAIL
  6
CONTINUOUS
 62
     5
 10
-348.26081246586159
 20
-10.014104372651451
 30
0.0
 11
-345.05105224990211
 21
-10.014104372651451
 31
0.0
  0
LINE
  8
DETAIL
  6
CONTINUOUS
 62
     5
 10
-284.19391800027557
 20
-10.014104372651451
 30
0.0
 11
284.45367529733892
 21
-10.014104372651451
 31
0.0
  0
LINE
  8
DETAIL
  6
CONTINUOUS
 62
     5
 10
284.45367529733892
 20
-10.014104372651451
 30
0.0
 11
290.07113918694938
 21
-10.014104372651451
 31
0.0
  0
LINE
  8
DETAIL
  6
CONTINUOUS
 62
     5
 10
-339.37866965378788
 20
-14.520451340211251
 30
0.0
 11
-258.05862291544918
 21
-14.520451340211251
 31
0.0
  0
LINE
  8
DETAIL
  6
CONTINUOUS
 62
     5
 10
258.31838021340138
 20
-14.520451340211251
 30
0.0
 11
339.63842695085168
 21
-14.520451340211251
 31
0.0
  0
LINE
  8
DETAIL
  6
CONTINUOUS
 62
     5
 10
-311.21675464363511
 20
-18.526093089450001
 30
0.0
 11
-306.20970245775368
 21
-18.526093089450001
 31
0.0
  0
LINE
  8
DETAIL
  6
CONTINUOUS
 62
     5
 10
270.30582668846432
 20
-18.526093089450001
 30
0.0
 11
280.31993106111611
 21
-18.526093089450001
 31
0.0
  0
LINE
  8
DETAIL
  6
CONTINUOUS
 62
     5
 10
-338.24670809321009
 20
-20.028208745303349
 30
0.0
 11
-306.20970245775368
 21
-20.028208745303349
 31
0.0
  0
LINE
  8
DETAIL
  6
CONTINUOUS
 62
     5
 10
-275.05312157728201
 20
-20.028208745303349
 30
0.0
 11
275.31287887523467
 21
-20.028208745303349
 31
0.0
  0
LINE
  8
DETAIL
  6
CONTINUOUS
 62
     5
 10
306.46945975570623
 20
-20.028208745303349
 30
0.0
 11
338.50646539116258
 21
-20.028208745303349
 31
0.0
  0
LINE
  8
DETAIL
  6
CONTINUOUS
 62
     5
 10
-229.693639924233
 20
-20.528913963624628
 30
0.0
 11
-117.5360244991405
 21
-20.528913963624628
 31
0.0
  0
LINE
  8
DETAIL
  6
CONTINUOUS
 62
     5
 10
-120.039373819289
 20
-271.38222849112827
 30
0.0
 11
-120.039373819289
 21
-313.44146685502108
 31
0.0
  0
LINE
  8
DETAIL
  6
CONTINUOUS
 62
     5
 10
-117.53584772590401
 20
-20.028208745303349
 30
0.0
 11
-117.53584772590401
 21
-20.528913963624628
 31
0.0
  0
LINE
  8
DETAIL
  6
CONTINUOUS
 62
     5
 10
-102.7184853778014
 20
-267.77715091708012
 30
0.0
 11
-102.7184853778014
 21
-227.72073342736209
 31
0.0
  0
LINE
  8
DETAIL
  6
CONTINUOUS
 62
     5
 10
-87.960242679058993
 20
-267.77715091708012
 30
0.0
 11
-87.960242679058993
 21
-227.72073342736209
 31
0.0
  0
LINE
  8
DETAIL
  6
CONTINUOUS
 62
     5
 10
279.71928924560359
 20
-92.880818054188808
 30
0.0
 11
307.12622084232692
 21
-92.880818054188808
 31
0.0
  0
LINE
  8
DETAIL
  6
CONTINUOUS
 62
     5
 10
279.71758658950841
 20
-96.385754584217125
 30
0.0
 11
307.12622084232692
 21
-96.385754584217125
 31
0.0
  0
LINE
  8
DETAIL
  6
CONTINUOUS
 62
     5
 10
350.1388490300908
 20
-115.39690912360081
 30
0.0
 11
306.46945975570623
 21
-115.39690912360081
 31
0.0
  0
LINE
  8
DETAIL
  6
CONTINUOUS
 62
     5
 10
275.31287887523467
 20
-115.39690912360081
 30
0.0
 11
-275.05312157728201
 21
-115.39690912360081
 31
0.0
  0
LINE
  8
DETAIL
  6
CONTINUOUS
 62
     5
 10
-306.20970245775368
 20
-115.39690912360081
 30
0.0
 11
-349.87909173213808
 21
-115.39690912360081
 31
0.0
  0
LINE
  8
DETAIL
  6
CONTINUOUS
 62
     5
 10
-82.286200335805233
 20
-227.72073342736209
 30
0.0
 11
-82.286200335805233
 21
-221.0586590307914
 31
0.0
  0
LINE
  8
DETAIL
  6
CONTINUOUS
 62
     5
 10
-81.485071985424028
 20
-333.87668039325717
 30
0.0
 11
-81.485071985424028
 21
-313.44146685502108
 31
0.0
  0
LINE
  8
DETAIL
  6
CONTINUOUS
 62
     5
 10
-81.284789898273303
 20
-220.05724859325949
 30
0.0
 11
-81.284789898273303
 21
-189.2486674411202
 31
0.0
  0
LINE
  8
DETAIL
  6
CONTINUOUS
 62
     5
 10
-74.357283841868139
 20
-267.77715091708012
 30
0.0
 11
-74.357283841868139
 21
-261.26798307534528
 31
0.0
  0
LINE
  8
DETAIL
  6
CONTINUOUS
 62
     5
 10
-71.102699920556688
 20
-259.56558533145261
 30
0.0
 11
-71.102699920556688
 21
-261.26798307534528
 31
0.0
  0
LINE
  8
DETAIL
  6
CONTINUOUS
 62
     5
 10
-67.84811599924501
 20
-267.77715091708012
 30
0.0
 11
-67.84811599924501
 21
-261.84935849769607
 31
0.0
  0
LINE
  8
DETAIL
  6
CONTINUOUS
 62
     5
 10
-65.021261742778961
 20
-259.56558533145261
 30
0.0
 11
-65.021261742778961
 21
-227.72073342736209
 31
0.0
  0
LINE
  8
DETAIL
  6
CONTINUOUS
 62
     5
 10
-64.593532078821795
 20
-259.56558533145261
 30
0.0
 11
-64.593532078821795
 21
-261.26798307534528
 31
0.0
  0
LINE
  8
DETAIL
  6
CONTINUOUS
 62
     5
 10
-61.338948157510231
 20
-261.26798307534528
 30
0.0
 11
-61.338948157510231
 21
-267.77715091708012
 31
0.0
  0
LINE
  8
DETAIL
  6
CONTINUOUS
 62
     5
 10
-60.690565948456651
 20
-267.77715091708012
 30
0.0
 11
-60.690565948456651
 21
-227.72073342736209
 31
0.0
  0
LINE
  8
DETAIL
  6
CONTINUOUS
 62
     5
 10
350.1388490300908
 20
-119.4025508719503
 30
0.0
 11
306.46945975570623
 21
-119.4025508719503
 31
0.0
  0
LINE
  8
DETAIL
  6
CONTINUOUS
 62
     5
 10
275.31287887523467
 20
-119.4025508719503
 30
0.0
 11
-275.05312157728201
 21
-119.4025508719503
 31
0.0
  0
LINE
  8
DETAIL
  6
CONTINUOUS
 62
     5
 10
-306.20970245775368
 20
-119.4025508719503
 30
0.0
 11
-349.87909173213808
 21
-119.4025508719503
 31
0.0
  0
LINE
  8
DETAIL
  6
CONTINUOUS
 62
     5
 10
-55.254914644605513
 20
-133.78409498623321
 30
0.0
 11
-20.149865651050082
 21
-133.78862930143561
 31
0.0
  0
LINE
  8
DETAIL
  6
CONTINUOUS
 62
     5
 10
54.589694721784888
 20
-133.78843441496451
 30
0.0
 11
75.235653595087456
 21
-133.78843441496451
 31
0.0
  0
LINE
  8
DETAIL
  6
CONTINUOUS
 62
     5
 10
-7.7374828268318083
 20
-141.79971791255261
 30
0.0
 11
-22.902404724927351
 21
-141.79971791255261
 31
0.0
  0
LINE
  8
DETAIL
  6
CONTINUOUS
 62
     5
 10
-40.683419835104253
 20
-267.77715091708012
 30
0.0
 11
-40.683419835104253
 21
-227.72073342736209
 31
0.0
  0
LINE
  8
DETAIL
  6
CONTINUOUS
 62
     5
 10
-39.926538840741841
 20
-307.4330042316077
 30
0.0
 11
-39.926538840741841
 21
-286.65524581360518
 31
0.0
  0
LINE
  8
DETAIL
  6
CONTINUOUS
 62
     5
 10
14.681120133695121
 20
-163.4301833568403
 30
0.0
 11
20.797248446853931
 21
-163.96527524940529
 31
0.0
  0
LINE
  8
DETAIL
  6
CONTINUOUS
 62
     5
 10
-18.896919658795241
 20
-147.8081807546173
 30
0.0
 11
2.915103413197798
 21
-147.80817419437651
 31
0.0
  0
LINE
  8
DETAIL
  6
CONTINUOUS
 62
     5
 10
-17.895493552152971
 20
-148.80959097349779
 30
0.0
 11
4.8868544083255756
 21
-148.80959097349779
 31
0.0
  0
LINE
  8
DETAIL
  6
CONTINUOUS
 62
     5
 10
9.8240098197359771
 20
-151.31311706688291
 30
0.0
 11
-13.889867472024999
 21
-151.31311706688291
 31
0.0
  0
LINE
  8
DETAIL
  6
CONTINUOUS
 62
     5
 10
-12.888457035382199
 20
-160.9266572643439
 30
0.0
 11
13.14821433333452
 21
-160.9266572643439
 31
0.0
  0
LINE
  8
DETAIL
  6
CONTINUOUS
 62
     5
 10
-14.42110850089739
 20
-163.4301833568403
 30
0.0
 11
14.680865797961021
 21
-163.4301833568403
 31
0.0
  0
LINE
  8
DETAIL
  6
CONTINUOUS
 62
     5
 10
-14.42136283574257
 20
-163.4301833568403
 30
0.0
 11
-20.537491149790299
 21
-163.96527524940529
 31
0.0
  0
LINE
  8
DETAIL
  6
CONTINUOUS
 62
     5
 10
-71.423588862019301
 20
-177.9506346970521
 30
0.0
 11
-73.541817904211385
 21
-180.0688638361261
 31
0.0
  0
LINE
  8
DETAIL
  6
CONTINUOUS
 62
     5
 10
-81.284789898273303
 20
-220.05724859325949
 30
0.0
 11
-82.286200335805233
 21
-221.0586590307914
 31
0.0
  0
LINE
  8
DETAIL
  6
CONTINUOUS
 62
     5
 10
-25.914443169874289
 20
-177.9506346970521
 30
0.0
 11
-25.089096643409789
 21
-168.51688073769171
 31
0.0
  0
LINE
  8
DETAIL
  6
CONTINUOUS
 62
     5
 10
-25.061016267549231
 20
-267.77715091708012
 30
0.0
 11
-25.061016267549231
 21
-227.72073342736209
 31
0.0
  0
LINE
  8
DETAIL
  6
CONTINUOUS
 62
     5
 10
-22.902561407144962
 20
-141.79971791255261
 30
0.0
 11
-22.902561407144962
 21
-133.78843441496451
 31
0.0
  0
LINE
  8
DETAIL
  6
CONTINUOUS
 62
     5
 10
-18.896919658795241
 20
-147.80818071017569
 30
0.0
 11
-18.896919658795241
 21
-143.8025387876161
 31
0.0
  0
LINE
  8
DETAIL
  6
CONTINUOUS
 62
     5
 10
-13.889867472024999
 20
-151.31311706688291
 30
0.0
 11
-13.889867472024999
 21
-148.80959097349779
 31
0.0
  0
LINE
  8
DETAIL
  6
CONTINUOUS
 62
     5
 10
-12.888457035382199
 20
-160.9266572643439
 30
0.0
 11
-12.888457035382199
 21
-163.4301833568403
 31
0.0
  0
LINE
  8
DETAIL
  6
CONTINUOUS
 62
     5
 10
-10.132123207013249
 20
-267.77715091708012
 30
0.0
 11
-10.132123207013249
 21
-227.72073342736209
 31
0.0
  0
LINE
  8
DETAIL
  6
CONTINUOUS
 62
     5
 10
-9.8842257236756268
 20
-160.9266572643439
 30
0.0
 11
-9.8842257236756268
 21
-151.31311706688291
 31
0.0
  0
LINE
  8
DETAIL
  6
CONTINUOUS
 62
     5
 10
-2.3736474444089031
 20
-260.3667136818334
 30
0.0
 11
-2.3736474444089031
 21
-267.77715091708012
 31
0.0
  0
LINE
  8
DETAIL
  6
CONTINUOUS
 62
     5
 10
-17.89551311520961
 20
-148.80959470212201
 30
0.0
 11
-18.896923594516011
 21
-147.80818464589649
 31
0.0
  0
LINE
  8
DETAIL
  6
CONTINUOUS
 62
     5
 10
71.683346159971848
 20
-177.9506346970521
 30
0.0
 11
-71.423588862019301
 21
-177.9506346970521
 31
0.0
  0
LINE
  8
DETAIL
  6
CONTINUOUS
 62
     5
 10
73.801575201275085
 20
-180.0688638361261
 30
0.0
 11
-73.541817904211385
 21
-180.0688638361261
 31
0.0
  0
LINE
  8
DETAIL
  6
CONTINUOUS
 62
     5
 10
2.633404742361336
 20
-260.3667136818334
 30
0.0
 11
2.633404742361336
 21
-267.77715091708012
 31
0.0
  0
LINE
  8
DETAIL
  6
CONTINUOUS
 62
     5
 10
10.143983021627831
 20
-160.9266572643439
 30
0.0
 11
10.14398302162782
 21
-151.4683133107086
 31
0.0
  0
LINE
  8
DETAIL
  6
CONTINUOUS
 62
     5
 10
10.39188050407677
 20
-267.77715091708012
 30
0.0
 11
10.39188050407677
 21
-227.72073342736209
 31
0.0
  0
LINE
  8
DETAIL
  6
CONTINUOUS
 62
     5
 10
13.14821433333452
 20
-160.9266572643439
 30
0.0
 11
13.14821433333452
 21
-163.4301833568403
 31
0.0
  0
LINE
  8
DETAIL
  6
CONTINUOUS
 62
     5
 10
25.320773565501671
 20
-267.77715091708012
 30
0.0
 11
25.320773565501671
 21
-227.72073342736209
 31
0.0
  0
LINE
  8
DETAIL
  6
CONTINUOUS
 62
     5
 10
26.174200466937918
 20
-177.9506346970521
 30
0.0
 11
25.348853941362218
 21
-168.51688073769171
 31
0.0
  0
LINE
  8
DETAIL
  6
CONTINUOUS
 62
     5
 10
81.544547196225835
 20
-220.05724859325949
 30
0.0
 11
82.545957633757666
 21
-221.0586590307914
 31
0.0
  0
LINE
  8
DETAIL
  6
CONTINUOUS
 62
     5
 10
81.544547196225835
 20
-220.05724859325949
 30
0.0
 11
-81.284789898273303
 21
-220.05724859325949
 31
0.0
  0
LINE
  8
DETAIL
  6
CONTINUOUS
 62
     5
 10
82.545957633757666
 20
-221.0586590307914
 30
0.0
 11
-82.286200335805233
 21
-221.0586590307914
 31
0.0
  0
LINE
  8
DETAIL
  6
CONTINUOUS
 62
     5
 10
102.9781749303376
 20
-227.72073342736209
 30
0.0
 11
-102.7184052039336
 21
-227.72073342736209
 31
0.0
  0
LINE
  8
DETAIL
  6
CONTINUOUS
 62
     5
 10
38.61760036009116
 20
-345.68688293430188
 30
0.0
 11
38.61760036009116
 21
-345.18617771509167
 31
0.0
  0
LINE
  8
DETAIL
  6
CONTINUOUS
 62
     5
 10
40.186296138694047
 20
-286.65524581360518
 30
0.0
 11
40.186296138694047
 21
-307.4330042316077
 31
0.0
  0
LINE
  8
DETAIL
  6
CONTINUOUS
 62
     5
 10
40.943177133056679
 20
-267.77715091708012
 30
0.0
 11
40.943177133056679
 21
-227.72073342736209
 31
0.0
  0
LINE
  8
DETAIL
  6
CONTINUOUS
 62
     5
 10
48.030858470401427
 20
-345.68688293430188
 30
0.0
 11
48.030858470401427
 21
-345.18617771509167
 31
0.0
  0
LINE
  8
DETAIL
  6
CONTINUOUS
 62
     5
 10
71.683346159971848
 20
-177.9506346970521
 30
0.0
 11
73.801575201275085
 21
-180.0688638361261
 31
0.0
  0
LINE
  8
DETAIL
  6
CONTINUOUS
 62
     5
 10
-71.102699920556688
 20
-259.56558533145261
 30
0.0
 11
-64.593532078821795
 21
-259.56558533145261
 31
0.0
  0
LINE
  8
DETAIL
  6
CONTINUOUS
 62
     5
 10
64.853289375885538
 20
-259.56558533145261
 30
0.0
 11
71.362457218509121
 21
-259.56558533145261
 31
0.0
  0
LINE
  8
DETAIL
  6
CONTINUOUS
 62
     5
 10
-2.3736474444089031
 20
-260.3667136818334
 30
0.0
 11
2.633404742361336
 21
-260.3667136818334
 31
0.0
  0
LINE
  8
DETAIL
  6
CONTINUOUS
 62
     5
 10
60.950323245520281
 20
-267.77715091708012
 30
0.0
 11
60.950323245520281
 21
-227.72073342736209
 31
0.0
  0
LINE
  8
DETAIL
  6
CONTINUOUS
 62
     5
 10
61.59870545546255
 20
-267.77715091708012
 30
0.0
 11
61.59870545546255
 21
-261.26798307534528
 31
0.0
  0
LINE
  8
DETAIL
  6
CONTINUOUS
 62
     5
 10
64.853289375885538
 20
-259.56558533145261
 30
0.0
 11
64.853289375885538
 21
-261.26798307534528
 31
0.0
  0
LINE
  8
DETAIL
  6
CONTINUOUS
 62
     5
 10
65.281019040731508
 20
-259.56558533145261
 30
0.0
 11
65.281019040731508
 21
-227.72073342736209
 31
0.0
  0
LINE
  8
DETAIL
  6
CONTINUOUS
 62
     5
 10
68.10787329719733
 20
-267.77715091708012
 30
0.0
 11
68.10787329719733
 21
-261.84935849769607
 31
0.0
  0
LINE
  8
DETAIL
  6
CONTINUOUS
 62
     5
 10
71.362457218509121
 20
-259.56558533145261
 30
0.0
 11
71.362457218509121
 21
-261.26798307534528
 31
0.0
  0
LINE
  8
DETAIL
  6
CONTINUOUS
 62
     5
 10
74.617041138932223
 20
-261.26798307534528
 30
0.0
 11
74.617041138932223
 21
-267.77715091708012
 31
0.0
  0
LINE
  8
DETAIL
  6
CONTINUOUS
 62
     5
 10
80.242713627523472
 20
-306.43159379407609
 30
0.0
 11
80.242713627523472
 21
-310.43723554331439
 31
0.0
  0
LINE
  8
DETAIL
  6
CONTINUOUS
 62
     5
 10
81.544547196225835
 20
-220.05724859325949
 30
0.0
 11
81.544547196225835
 21
-189.2486674411202
 31
0.0
  0
LINE
  8
DETAIL
  6
CONTINUOUS
 62
     5
 10
81.744829283376703
 20
-333.87668039325717
 30
0.0
 11
81.744829283376703
 21
-311.98199479074208
 31
0.0
  0
LINE
  8
DETAIL
  6
CONTINUOUS
 62
     5
 10
82.545957633757666
 20
-227.72073342736209
 30
0.0
 11
82.545957633757666
 21
-221.0586590307914
 31
0.0
  0
LINE
  8
DETAIL
  6
CONTINUOUS
 62
     5
 10
74.617041138932223
 20
-261.26798307534528
 30
0.0
 11
61.59870545546255
 21
-261.26798307534528
 31
0.0
  0
LINE
  8
DETAIL
  6
CONTINUOUS
 62
     5
 10
-61.338948157510231
 20
-261.26798307534528
 30
0.0
 11
-74.357283841868139
 21
-261.26798307534528
 31
0.0
  0
LINE
  8
DETAIL
  6
CONTINUOUS
 62
     5
 10
105.77862924905899
 20
-267.77715091708012
 30
0.0
 11
-105.5188719511065
 21
-267.77715091708012
 31
0.0
  0
LINE
  8
DETAIL
  6
CONTINUOUS
 62
     5
 10
-225.48583381338011
 20
-271.38222849112827
 30
0.0
 11
-120.039373819289
 21
-271.38222849112827
 31
0.0
  0
LINE
  8
DETAIL
  6
CONTINUOUS
 62
     5
 10
120.2991311172414
 20
-271.38222849112827
 30
0.0
 11
225.7455911104438
 21
-271.38222849112827
 31
0.0
  0
LINE
  8
DETAIL
  6
CONTINUOUS
 62
     5
 10
114.29066849382821
 20
-272.38363892866022
 30
0.0
 11
-114.0309111958758
 21
-272.38363892866022
 31
0.0
  0
LINE
  8
DETAIL
  6
CONTINUOUS
 62
     5
 10
88.219999976122494
 20
-267.77715091708012
 30
0.0
 11
88.219999976122494
 21
-227.72073342736209
 31
0.0
  0
LINE
  8
DETAIL
  6
CONTINUOUS
 62
     5
 10
102.97824267575361
 20
-267.77715091708012
 30
0.0
 11
102.97824267575361
 21
-227.72073342736209
 31
0.0
  0
LINE
  8
DETAIL
  6
CONTINUOUS
 62
     5
 10
105.77867977702989
 20
-272.38363892866022
 30
0.0
 11
105.77867977702989
 21
-267.77715091708012
 31
0.0
  0
LINE
  8
DETAIL
  6
CONTINUOUS
 62
     5
 10
-229.73445847817169
 20
-309.43582510578278
 30
0.0
 11
-120.039373819289
 21
-309.43582510578278
 31
0.0
  0
LINE
  8
DETAIL
  6
CONTINUOUS
 62
     5
 10
120.2991311172414
 20
-309.43582510578278
 30
0.0
 11
169.32148262653439
 21
-309.43582510578278
 31
0.0
  0
LINE
  8
DETAIL
  6
CONTINUOUS
 62
     5
 10
35.179243951924043
 20
-312.44005641748919
 30
0.0
 11
-34.919486653971489
 21
-312.44005641748919
 31
0.0
  0
LINE
  8
DETAIL
  6
CONTINUOUS
 62
     5
 10
-120.039373819289
 20
-313.44146685502108
 30
0.0
 11
77.238482315816896
 21
-313.44146685502108
 31
0.0
  0
LINE
  8
DETAIL
  6
CONTINUOUS
 62
     5
 10
81.744829283376703
 20
-313.44146685502108
 30
0.0
 11
120.2991311172414
 21
-313.44146685502108
 31
0.0
  0
LINE
  8
DETAIL
  6
CONTINUOUS
 62
     5
 10
120.2991311172414
 20
-271.38222849112827
 30
0.0
 11
120.2991311172414
 21
-298.5196464987348
 31
0.0
  0
LINE
  8
DETAIL
  6
CONTINUOUS
 62
     5
 10
120.2991311172414
 20
-308.12933464517158
 30
0.0
 11
120.2991311172414
 21
-313.44146685502108
 31
0.0
  0
LINE
  8
DETAIL
  6
CONTINUOUS
 62
     5
 10
-73.517718556142299
 20
-343.09205174337092
 30
0.0
 11
73.777475854094632
 21
-343.09205174337092
 31
0.0
  0
LINE
  8
DETAIL
  6
CONTINUOUS
 62
     5
 10
-71.423592570200753
 20
-345.18617771509167
 30
0.0
 11
71.683349867264383
 21
-345.18617771509167
 31
0.0
  0
LINE
  8
DETAIL
  6
CONTINUOUS
 62
     5
 10
38.61760036009116
 20
-345.68688293430188
 30
0.0
 11
48.030858470401427
 21
-345.68688293430188
 31
0.0
  0
LINE
  8
DETAIL
  6
CONTINUOUS
 62
     5
 10
71.683349867264383
 20
-345.18617771509167
 30
0.0
 11
73.777475854094632
 21
-343.09205174337092
 31
0.0
  0
LINE
  8
DETAIL
  6
CONTINUOUS
 62
     5
 10
246.2806103271586
 20
-13.01833568435814
 30
0.0
 11
246.2806103271586
 21
-16.42313117125525
 31
0.0
  0
LINE
  8
DETAIL
  6
CONTINUOUS
 62
     5
 10
258.31838021251252
 20
-14.520451340211251
 30
0.0
 11
258.31838021251252
 21
-10.014104372651451
 31
0.0
  0
LINE
  8
DETAIL
  6
CONTINUOUS
 62
     5
 10
270.30582668846432
 20
-18.526093089450001
 30
0.0
 11
270.30582668846432
 21
-14.520451340211251
 31
0.0
  0
LINE
  8
DETAIL
  6
CONTINUOUS
 62
     5
 10
275.31287887523467
 20
-14.520451340211251
 30
0.0
 11
275.31287887523467
 21
-18.07888122630823
 31
0.0
  0
LINE
  8
DETAIL
  6
CONTINUOUS
 62
     5
 10
275.31287887523467
 20
-18.526093089450001
 30
0.0
 11
275.31287887523467
 21
-201.283497884344
 31
0.0
  0
LINE
  8
DETAIL
  6
CONTINUOUS
 62
     5
 10
279.71706169607972
 20
-92.880818054188808
 30
0.0
 11
279.71706169607972
 21
-96.385754584217125
 31
0.0
  0
LINE
  8
DETAIL
  6
CONTINUOUS
 62
     5
 10
280.31993106111611
 20
-14.520451340211251
 30
0.0
 11
280.31993106111611
 21
-18.526093089450001
 31
0.0
  0
LINE
  8
DETAIL
  6
CONTINUOUS
 62
     5
 10
288.05875287138718
 20
-3.0042313117063491
 30
0.0
 11
288.05875287138718
 21
-6.4090267986034632
 31
0.0
  0
LINE
  8
DETAIL
  6
CONTINUOUS
 62
     5
 10
299.38841864594258
 20
-5.1071932299012133
 30
0.0
 11
299.38841864594258
 21
-3.0042313117063491
 31
0.0
  0
LINE
  8
DETAIL
  6
CONTINUOUS
 62
     5
 10
302.22083509002567
 20
-14.520451340211251
 30
0.0
 11
302.22083509002567
 21
-92.880818054188808
 31
0.0
  0
LINE
  8
DETAIL
  6
CONTINUOUS
 62
     5
 10
302.22083509002567
 20
-96.385754584217125
 30
0.0
 11
302.22083509002567
 21
-201.283497884344
 31
0.0
  0
LINE
  8
DETAIL
  6
CONTINUOUS
 62
     5
 10
306.46945975570623
 20
-201.283497884344
 30
0.0
 11
306.46945975570623
 21
-96.385754584217125
 31
0.0
  0
LINE
  8
DETAIL
  6
CONTINUOUS
 62
     5
 10
306.46945975570623
 20
-92.880818054188808
 30
0.0
 11
306.46945975570623
 21
-14.520451340211251
 31
0.0
  0
LINE
  8
DETAIL
  6
CONTINUOUS
 62
     5
 10
307.12622890486642
 20
-92.880818054188808
 30
0.0
 11
307.12622890486642
 21
-96.385754584217125
 31
0.0
  0
LINE
  8
DETAIL
  6
CONTINUOUS
 62
     5
 10
342.11154296521028
 20
-16.42313117125525
 30
0.0
 11
342.11154296521028
 21
-13.704285765802179
 31
0.0
  0
LINE
  8
DETAIL
  6
CONTINUOUS
 62
     5
 10
348.95570641073328
 20
-3.0042313117063491
 30
0.0
 11
348.95570641073328
 21
-5.1071932299012133
 31
0.0
  0
LINE
  8
DETAIL
  6
CONTINUOUS
 62
     5
 10
352.12564733697332
 20
-6.4090267986034632
 30
0.0
 11
352.12564733697332
 21
-3.0042313117063491
 31
0.0
  0
ARC
  8
DETAIL
  6
CONTINUOUS
 62
     5
 10
-348.26081246586159
 20
-6.4090267986034632
 30
0.0
 40
3.605077574047983
 50
180.0
 51
270.0
  0
ARC
  8
DETAIL
  6
CONTINUOUS
 62
     5
 10
-242.41577545604699
 20
-16.42313117125525
 30
0.0
 40
3.605077574047983
 50
180.0
 51
270.0
  0
ARC
  8
DETAIL
  6
CONTINUOUS
 62
     5
 10
-338.24670809321009
 20
-16.42313117125525
 30
0.0
 40
3.605077574047868
 50
180.0
 51
270.0
  0
ARC
  8
DETAIL
  6
CONTINUOUS
 62
     5
 10
-284.19391800027557
 20
-6.4090267986034632
 30
0.0
 40
3.605077574047868
 50
180.0
 51
270.0
  0
ARC
  8
DETAIL
  6
CONTINUOUS
 62
     5
 10
-249.0250843418016
 20
-13.01833568435814
 30
0.0
 40
3.0042313117066901
 50
0.0
 51
90.0
  0
ARC
  8
DETAIL
  6
CONTINUOUS
 62
     5
 10
-353.36800569487411
 20
-1.502115655853117
 30
0.0
 40
1.5021156558531179
 50
90.0
 51
270.0
  0
ARC
  8
DETAIL
  6
CONTINUOUS
 62
     5
 10
-71.971672831982801
 20
-189.24866742601009
 30
0.0
 40
9.3131170662904612
 50
99.706140057199178
 51
180.0
  0
ARC
  8
DETAIL
  6
CONTINUOUS
 62
     5
 10
-114.0309111958758
 20
-278.39210155207309
 30
0.0
 40
6.0084626234131528
 50
90.0
 51
180.0
  0
ARC
  8
DETAIL
  6
CONTINUOUS
 62
     5
 10
-20.101097802693289
 20
-168.95327409101051
 30
0.0
 40
5.0070521858812969
 50
94.999999936398282
 51
174.99999998900219
  0
ARC
  8
DETAIL
  6
CONTINUOUS
 62
     5
 10
-34.919486653971489
 20
-286.65524581360518
 30
0.0
 40
5.0070521858814452
 50
100.6151078506975
 51
180.0
  0
ARC
  8
DETAIL
  6
CONTINUOUS
 62
     5
 10
-20.8997405329701
 20
-143.8025387876161
 30
0.0
 40
2.0028208741747449
 50
0.0
 51
90.0
  0
ARC
  8
DETAIL
  6
CONTINUOUS
 62
     5
 10
-349.87909173213808
 20
-117.39972999777569
 30
0.0
 40
2.0028208741747449
 50
90.0
 51
270.0
  0
ARC
  8
DETAIL
  6
CONTINUOUS
 62
     5
 10
284.45367529733892
 20
-6.4090267986034632
 30
0.0
 40
3.605077574047868
 50
270.0
 51
0.0
  0
ARC
  8
DETAIL
  6
CONTINUOUS
 62
     5
 10
242.67553275311079
 20
-16.42313117125525
 30
0.0
 40
3.605077574047868
 50
270.0
 51
0.0
  0
ARC
  8
DETAIL
  6
CONTINUOUS
 62
     5
 10
338.50646539116258
 20
-16.42313117125525
 30
0.0
 40
3.605077574047868
 50
270.0
 51
0.0
  0
ARC
  8
DETAIL
  6
CONTINUOUS
 62
     5
 10
348.52056976292528
 20
-6.4090267986034632
 30
0.0
 40
3.605077574047868
 50
270.0
 51
0.0
  0
ARC
  8
DETAIL
  6
CONTINUOUS
 62
     5
 10
249.28484163886549
 20
-13.01833568435814
 30
0.0
 40
3.0042313117068029
 50
90.0
 51
180.0
  0
ARC
  8
DETAIL
  6
CONTINUOUS
 62
     5
 10
353.62776299282677
 20
-1.502115655853117
 30
0.0
 40
1.5021156558532309
 50
270.0
 51
90.0
  0
ARC
  8
DETAIL
  6
CONTINUOUS
 62
     5
 10
72.231430129935234
 20
-189.24866742601009
 30
0.0
 40
9.3131170662905447
 50
0.0
 51
80.29385994280085
  0
ARC
  8
DETAIL
  6
CONTINUOUS
 62
     5
 10
114.29066849382821
 20
-278.39210155207309
 30
0.0
 40
6.0084626234132088
 50
0.0
 51
90.0
  0
ARC
  8
DETAIL
  6
CONTINUOUS
 62
     5
 10
20.360855100645718
 20
-168.95327409101051
 30
0.0
 40
5.0070521858813866
 50
5.0000000109978187
 51
85.000000063601718
  0
ARC
  8
DETAIL
  6
CONTINUOUS
 62
     5
 10
35.179243951924043
 20
-286.65524581360518
 30
0.0
 40
5.0070521858814354
 50
0.0
 51
79.38489214930253
  0
ARC
  8
DETAIL
  6
CONTINUOUS
 62
     5
 10
350.1388490300908
 20
-117.39972999777569
 30
0.0
 40
2.0028208741747449
 50
270.0
 51
90.0
  0
ARC
  8
DETAIL
  6
CONTINUOUS
 62
     5
 10
0.1298786489761596
 20
-473.6671368130045
 30
0.0
 40
195.27503526093079
 50
79.38489214930253
 51
100.6151078506975
  0
ARC
  8
DETAIL
  6
CONTINUOUS
 62
     5
 10
72.431712217086101
 20
-333.87668036037059
 30
0.0
 40
9.3131170662906371
 50
278.30843966210102
 51
0.0
  0
ARC
  8
DETAIL
  6
CONTINUOUS
 62
     5
 10
-72.171954919133654
 20
-333.87668036037059
 30
0.0
 40
9.3131170662904879
 50
180.0
 51
261.69156033789898
  0
ARC
  8
DETAIL
  6
CONTINUOUS
 62
     5
 10
88.253997126000286
 20
-306.43159379407598
 30
0.0
 40
8.0112834975879288
 50
34.501006548264073
 51
180.0
  0
ARC
  8
DETAIL
  6
CONTINUOUS
 62
     5
 10
43.324229414801827
 20
-341.15800423190387
 30
0.0
 40
6.5316995765724304
 50
223.8973981670878
 51
316.10260183290302
  0
ARC
  8
DETAIL
  6
CONTINUOUS
 62
     5
 10
-34.919486653971489
 20
-307.4330042316077
 30
0.0
 40
5.0070521858814354
 50
180.0
 51
270.0
  0
ARC
  8
DETAIL
  6
CONTINUOUS
 62
     5
 10
35.179243951924043
 20
-307.4330042316077
 30
0.0
 40
5.0070521858815482
 50
270.0
 51
0.0
  0
ARC
  8
DETAIL
  6
CONTINUOUS
 62
     5
 10
99.2695119352951
 20
-310.43723554331439
 30
0.0
 40
3.0042313117066008
 50
181.12556595300489
 51
270.0
  0
ARC
  8
DETAIL
  6
CONTINUOUS
 62
     5
 10
77.238482315816896
 20
-310.43723554331439
 30
0.0
 40
3.0042313117066901
 50
270.0
 51
0.0
  0
LINE
  8
DETAIL
  6
CONTINUOUS
 62
     5
 10
348.49899482975587
 20
-5.1081636928450962
 30
0.0
 11
348.55248304641918
 21
-5.1071932299012133
 31
0.0
  0
LINE
  8
DETAIL
  6
CONTINUOUS
 62
     5
 10
-105.5189224790773
 20
-272.38363892866022
 30
0.0
 11
-105.5189224790773
 21
-267.77715091708012
 31
0.0
  0
LINE
  8
DETAIL
  6
CONTINUOUS
 62
     5
 10
-78.09478096907479
 20
-272.38363892866022
 30
0.0
 11
-78.09478096907479
 21
-267.77715091708012
 31
0.0
  0
LINE
  8
DETAIL
  6
CONTINUOUS
 62
     5
 10
78.354538267027465
 20
-272.38363892866022
 30
0.0
 11
78.354538267027465
 21
-267.77715091708012
 31
0.0
  0
ARC
  8
DETAIL
  6
CONTINUOUS
 62
     5
 10
-353.86871091408437
 20
-69.497884344442809
 30
0.0
 40
49.469675599139613
 50
291.8865553767003
 51
344.46912346700122
  0
ARC
  8
DETAIL
  6
CONTINUOUS
 62
     5
 10
-333.84050216878092
 20
-49.46967560002804
 30
0.0
 40
29.441466854724929
 50
20.187638288803761
 51
90.0
  0
ARC
  8
DETAIL
  6
CONTINUOUS
 62
     5
 10
354.12846821114817
 20
-69.497884344442809
 30
0.0
 40
49.469675599139563
 50
195.5308765329988
 51
248.1134446232997
  0
ARC
  8
DETAIL
  6
CONTINUOUS
 62
     5
 10
334.10025946673352
 20
-49.46967560002804
 30
0.0
 40
29.441466854724919
 50
90.0
 51
159.81236171119619
  0
LINE
  8
BASIS
  6
DASHDOT
 62
     6
 10
0.0
 20
-353.83530489814018
 30
0.0
 11
0.0
 21
59.707233918627033
 31
0.0
  0
ARC
  8
DETAIL
  6
CONTINUOUS
 62
     5
 10
-195.60622793872571
 20
-204.18927644516501
 30
0.0
 40
110.64163829555839
 50
178.49506934864499
 51
252.03371001717809
  0
ARC
  8
DETAIL
  6
CONTINUOUS
 62
     5
 10
-186.94561952190651
 20
-202.66698629014431
 30
0.0
 40
115.0237787645016
 50
179.31083851612681
 51
248.16098817071079
  0
ARC
  8
DETAIL
  6
CONTINUOUS
 62
     5
 10
-205.50285720088141
 20
-204.678082265646
 30
0.0
 40
69.633055928675773
 50
177.20574552809509
 51
253.3230338367247
  0
ARC
  8
DETAIL
  6
CONTINUOUS
 62
     5
 10
-289.63270731013108
 20
-7.446195255013663
 30
0.0
 40
2.5741176821537999
 50
193.7530909930681
 51
266.01978658184993
  0
ARC
  8
DETAIL
  6
CONTINUOUS
 62
     5
 10
-307.13637704310901
 20
-11.20540249646365
 30
0.0
 40
15.32989741952237
 50
11.847110796216111
 51
32.352258999370541
  0
ARC
  8
DETAIL
  6
CONTINUOUS
 62
     5
 10
-289.36909752287107
 20
-8.1059036737096903
 30
0.0
 40
6.4297773854417102
 50
193.7171905451049
 51
266.05568703866271
  0
ARC
  8
DETAIL
  6
CONTINUOUS
 62
     5
 10
-301.71552388853161
 20
-10.4937395613058
 30
0.0
 40
6.1608031212456176
 50
8.0537890791921942
 51
60.965231042822943
  0
ARC
  8
DETAIL
  6
CONTINUOUS
 62
     5
 10
-338.97222882743881
 20
-8.1760123686110546
 30
0.0
 40
6.357444455886327
 50
196.3130023070818
 51
266.33449621903668
  0
ARC
  8
DETAIL
  6
CONTINUOUS
 62
     5
 10
-351.91024476176239
 20
-10.849754421873291
 30
0.0
 40
6.8939468978616842
 50
7.4010422264937734
 51
56.23757357262118
  0
ARC
  8
DETAIL
  6
CONTINUOUS
 62
     5
 10
-43.5689130587416
 20
-288.89407496545869
 30
0.0
 40
275.60464196023412
 50
142.04948511258411
 51
147.13277429072679
  0
ARC
  8
DETAIL
  6
CONTINUOUS
 62
     5
 10
-260.77961791341278
 20
-229.57931901040351
 30
0.0
 40
9.0100673836304157
 50
211.40043371207719
 51
329.67636986865978
  0
ARC
  8
DETAIL
  6
CONTINUOUS
 62
     5
 10
-162.10108185335409
 20
-272.3718845531032
 30
0.0
 40
98.618397628426266
 50
100.58789256655911
 51
157.1827536414192
  0
ARC
  8
DETAIL
  6
CONTINUOUS
 62
     5
 10
-118.4083900095502
 20
-341.51676552747318
 30
0.0
 40
177.2141068408221
 50
94.368002766447006
 51
110.41425080537999
  0
ARC
  8
DETAIL
  6
CONTINUOUS
 62
     5
 10
-172.47396886150821
 20
124.21585595228851
 30
0.0
 40
291.86644895537921
 50
277.98981130669659
 51
284.86354370770658
  0
ARC
  8
DETAIL
  6
CONTINUOUS
 62
     5
 10
-99.296616370062125
 20
-156.20510317438021
 30
0.0
 40
2.383737955212216
 50
315.20585706575167
 51
340.94925329974097
  0
ARC
  8
DETAIL
  6
CONTINUOUS
 62
     5
 10
106177.9361482283
 20
-592827.04563386121
 30
0.0
 40
602123.0557191812
 50
100.16553597678541
 51
100.1659858244778
  0
ARC
  8
DETAIL
  6
CONTINUOUS
 62
     5
 10
-7385.6510487957657
 20
7904.9711420484928
 30
0.0
 40
10870.754735162889
 50
312.13707355642998
 51
312.24349421387092
  0
ARC
  8
DETAIL
  6
CONTINUOUS
 62
     5
 10
-56.192064272527197
 20
-163.7660514634814
 30
0.0
 40
29.996599201054799
 50
88.209681812432393
 51
134.90476565306631
  0
ARC
  8
DETAIL
  6
CONTINUOUS
 62
     5
 10
108.8847446188658
 20
52.516211231447357
 30
0.0
 40
226.62617733503791
 50
229.34098781391631
 51
263.69580272712591
  0
ARC
  8
DETAIL
  6
CONTINUOUS
 62
     5
 10
74.081120200070586
 20
-173.55573576599079
 30
0.0
 40
9.9271609328988824
 50
296.80359925640261
 51
346.1637129723627
  0
ARC
  8
DETAIL
  6
CONTINUOUS
 62
     5
 10
-7.1724446043699572
 20
150.0491119324021
 30
0.0
 40
371.5000980511083
 50
295.06055939869549
 51
313.50550134252319
  0
ARC
  8
DETAIL
  6
CONTINUOUS
 62
     5
 10
-167.3791667219688
 20
462.70379983113759
 30
0.0
 40
722.71391698630009
 50
290.14695207566882
 51
295.60658458060823
  0
ARC
  8
DETAIL
  6
CONTINUOUS
 62
     5
 10
95.408932960010134
 20
-417.91624735371659
 30
0.0
 40
234.7961984942726
 50
49.979833701199148
 51
72.134884529498294
  0
ARC
  8
DETAIL
  6
CONTINUOUS
 62
     5
 10
-2564.7111495527352
 20
-6087.9355270532033
 30
0.0
 40
6495.9922533047729
 50
65.128149800498392
 51
65.295723549452887
  0
ARC
  8
DETAIL
  6
CONTINUOUS
 62
     5
 10
245.40703666489571
 20
-238.0929229761372
 30
0.0
 40
0.989355079283312
 50
283.09119257492881
 51
359.29733933404481
  0
ARC
  8
DETAIL
  6
CONTINUOUS
 62
     5
 10
-211.91505242461429
 20
-1010.870534611598
 30
0.0
 40
897.24317181074844
 50
59.339721590277357
 51
65.965105705852736
  0
ARC
  8
DETAIL
  6
CONTINUOUS
 62
     5
 10
-678.40337549240621
 20
-3148.9427501707228
 30
0.0
 40
3072.30269006043
 50
74.289100127128506
 51
75.631721811024647
  0
ARC
  8
DETAIL
  6
CONTINUOUS
 62
     5
 10
194.9998809549117
 20
-203.57684823429571
 30
0.0
 40
111.4931677451803
 50
288.29259627261268
 51
1.1786243613556719
  0
ARC
  8
DETAIL
  6
CONTINUOUS
 62
     5
 10
186.18236590192689
 20
-201.98379599713749
 30
0.0
 40
116.0405823363719
 50
292.1823945432144
 51
0.3457787699579934
  0
ARC
  8
DETAIL
  6
CONTINUOUS
 62
     5
 10
204.93833488037129
 20
-204.09522855770231
 30
0.0
 40
70.430691263573905
 50
287.18325325612159
 51
2.2879673780936081
  0
ARC
  8
DETAIL
  6
CONTINUOUS
 62
     5
 10
289.63270731013472
 20
-7.446195255013663
 30
0.0
 40
2.5741176821537999
 50
273.98021341815002
 51
346.24690900693179
  0
ARC
  8
DETAIL
  6
CONTINUOUS
 62
     5
 10
307.13637704311259
 20
-11.20540249646365
 30
0.0
 40
15.32989741952237
 50
147.64774100062951
 51
168.1528892037839
  0
ARC
  8
DETAIL
  6
CONTINUOUS
 62
     5
 10
289.36909752287482
 20
-8.1059036737096903
 30
0.0
 40
6.4297773854417102
 50
273.94431296133729
 51
346.28280945489507
  0
ARC
  8
DETAIL
  6
CONTINUOUS
 62
     5
 10
301.71552388853519
 20
-10.4937395613058
 30
0.0
 40
6.1608031212456176
 50
119.03476895717711
 51
171.9462109208078
  0
ARC
  8
DETAIL
  6
CONTINUOUS
 62
     5
 10
338.97222882744228
 20
-8.1760123686110546
 30
0.0
 40
6.357444455886327
 50
273.66550378096332
 51
343.68699769291823
  0
ARC
  8
DETAIL
  6
CONTINUOUS
 62
     5
 10
351.91024476176608
 20
-10.849754421873291
 30
0.0
 40
6.8939468978616842
 50
123.7624264273788
 51
172.59895777350621
  0
ARC
  8
DETAIL
  6
CONTINUOUS
 62
     5
 10
92.885237024349351
 20
-175.1206765893082
 30
0.0
 40
9.2006592339006659
 50
165.37822255371799
 51
185.04522296419319
  0
ARC
  8
DETAIL
  6
CONTINUOUS
 62
     5
 10
2441.09677809701
 20
-17895.9848832221
 30
0.0
 40
17749.841815518081
 50
97.170610462972064
 51
97.615565519864859
  0
ARC
  8
DETAIL
  6
CONTINUOUS
 62
     5
 10
-53.864518661372443
 20
1365.3082547951881
 30
29.577464053639169
 40
1682.5144482201019
 50
275.11969881994088
 51
279.80330346835251
  0
ARC
  8
DETAIL
  6
CONTINUOUS
 62
     5
 10
214.73598027469129
 20
-217.10219263221859
 30
0.0
 40
68.710847358749717
 50
279.00013552069362
 51
357.96280920908299
  0
ARC
  8
DETAIL
  6
CONTINUOUS
 62
     5
 10
-740.9834385171622
 20
-126.48449224246529
 30
0.0
 40
1028.5555171020451
 50
1.8723866187983931
 51
5.2961540202564326
  0
ARC
  8
DETAIL
  6
CONTINUOUS
 62
     5
 10
-894.78533002290271
 20
-141.33318548812889
 30
0.0
 40
1192.043839808395
 50
2.3541173790203791
 51
5.1139014385385932
  0
ARC
  8
DETAIL
  6
CONTINUOUS
 62
     5
 10
287.52752976845193
 20
-30.020242708435429
 30
0.0
 40
4.5445283341516536
 50
120.83366499465851
 51
83.287477145914821
  0
ARC
  8
DETAIL
  6
CONTINUOUS
 62
     5
 10
84.743253458545439
 20
-241.83749188043419
 30
0.0
 40
61.000934261892823
 50
266.62735569537671
 51
273.80103817815819
  0
ARC
  8
DETAIL
  6
CONTINUOUS
 62
     5
 10
85.280441959841369
 20
-278.67952017839292
 30
0.0
 40
33.66124895498141
 50
260.73205339274699
 51
289.06862477073389
  0
ARC
  8
DETAIL
  6
CONTINUOUS
 62
     5
 10
-2294.2819903411369
 20
-83.426062985709706
 30
0.0
 40
2581.2768671379949
 50
356.97721509319058
 51
359.71239285920149
  0
ARC
  8
DETAIL
  6
CONTINUOUS
 62
     5
 10
-2388.2169583293421
 20
-85.105011100363257
 30
0.0
 40
2684.410843099377
 50
357.16081555110611
 51
359.75922430226888
  0
CIRCLE
  8
DETAIL
  6
CONTINUOUS
 62
     5
 10
278.40945610258763
 20
-30.099028719324849
 30
0.0
 40
1.5019551727974541
  0
CIRCLE
  8
DETAIL
  6
CONTINUOUS
 62
     5
 10
286.54719552216818
 20
-25.074185823717411
 30
0.0
 40
1.5019551727974541
  0
ARC
  8
DETAIL
  6
CONTINUOUS
 62
     5
 10
39.734858526680569
 20
-320.3619390799409
 30
0.0
 40
7.8781822367667376
 50
118.5114651706813
 51
133.8510856767611
  0
ARC
  8
DETAIL
  6
CONTINUOUS
 62
     5
 10
39.552425745497317
 20
-320.17533195146598
 30
0.0
 40
7.6172252328764669
 50
133.83392675988441
 51
152.4823438079427
  0
ARC
  8
DETAIL
  6
CONTINUOUS
 62
     5
 10
39.328369905692973
 20
-320.06069047271319
 30
0.0
 40
7.3655505205836702
 50
152.46797779463671
 51
179.95674347069129
  0
ARC
  8
DETAIL
  6
CONTINUOUS
 62
     5
 10
39.328369905692973
 20
-320.04956895121859
 30
0.0
 40
7.3655505205836738
 50
180.04325652930871
 51
207.53202220536329
  0
ARC
  8
DETAIL
  6
CONTINUOUS
 62
     5
 10
39.552425745497317
 20
-319.9349274724658
 30
0.0
 40
7.6172252328764651
 50
207.5176561920573
 51
226.16607324011559
  0
ARC
  8
DETAIL
  6
CONTINUOUS
 62
     5
 10
39.748308718911687
 20
-319.73124286237447
 30
0.0
 40
7.8998159381923614
 50
226.16437394073091
 51
244.36345921538509
  0
ARC
  8
DETAIL
  6
CONTINUOUS
 62
     5
 10
39.858465938082702
 20
-319.49843479538532
 30
0.0
 40
8.1573664631127336
 50
244.37339045588851
 51
270.03737597142009
  0
ARC
  8
DETAIL
  6
CONTINUOUS
 62
     5
 10
39.869108588440383
 20
-319.49843479538532
 30
0.0
 40
8.1573664631127301
 50
269.96262402857991
 51
295.62660954411081
  0
ARC
  8
DETAIL
  6
CONTINUOUS
 62
     5
 10
39.979265807611277
 20
-319.73124286237442
 30
0.0
 40
7.8998159381925612
 50
295.63654078461479
 51
313.83562605926909
  0
ARC
  8
DETAIL
  6
CONTINUOUS
 62
     5
 10
40.175148781025769
 20
-319.9349274724658
 30
0.0
 40
7.6172252328764669
 50
313.83392675988432
 51
332.48234380794088
  0
ARC
  8
DETAIL
  6
CONTINUOUS
 62
     5
 10
40.399204620830119
 20
-320.04956895121859
 30
0.0
 40
7.3655505205836702
 50
332.46797779463662
 51
359.95674347069132
  0
ARC
  8
DETAIL
  6
CONTINUOUS
 62
     5
 10
42.828821708667817
 20
-319.66631538635659
 30
0.0
 40
4.9512215371825246
 50
355.495984131017
 51
22.984749807065889
  0
ARC
  8
DETAIL
  6
CONTINUOUS
 62
     5
 10
62.3400328775773
 20
-334.33385587456922
 30
0.0
 40
22.342449704950251
 50
110.74727510073279
 51
132.0105465964148
  0
ARC
  8
DETAIL
  6
CONTINUOUS
 62
     5
 10
35.228522108115499
 20
-308.12452496284772
 30
0.0
 40
15.496744789560619
 50
278.68616119275202
 51
321.68186075163669
  0
ARC
  8
DETAIL
  6
CONTINUOUS
 62
     5
 10
38.115316991705981
 20
-318.50323073457412
 30
0.0
 40
4.9704265794257951
 50
90.511454111347732
 51
263.68819151563451
  0
CIRCLE
  8
DETAIL
  6
CONTINUOUS
 62
     5
 10
294.8878925240341
 20
-29.887071585955201
 30
0.0
 40
1.5019551727974541
  0
ARC
  8
DETAIL
  6
CONTINUOUS
 62
     5
 10
791.58586182351701
 20
-95.354015927462044
 30
0.0
 40
502.69894865996321
 50
172.68676977856171
 51
173.11353112940009
  0
ARC
  8
DETAIL
  6
CONTINUOUS
 62
     5
 10
289.35573246326652
 20
-29.50444503215607
 30
0.0
 40
3.8853356985126708
 50
16.102844675926111
 51
97.105246196100722
  0
ARC
  8
DETAIL
  6
CONTINUOUS
 62
     5
 10
338.97891205453828
 20
-14.30385484056791
 30
0.0
 40
52.138013391823762
 50
192.40803199191311
 51
197.210788166573
  0
ARC
  8
DETAIL
  6
CONTINUOUS
 62
     5
 10
330.58759291976372
 20
-18.869768208262428
 30
0.0
 40
45.943279287910713
 50
187.76123142212751
 51
194.77170030267089
  0
ARC
  8
DETAIL
  6
CONTINUOUS
 62
     5
 10
287.6036318360774
 20
-29.926004640394641
 30
0.0
 40
1.5839347989193451
 50
204.53941263816239
 51
7.0768581793690588
  0
LINE
  8
DETAIL
  6
CONTINUOUS
 62
     5
 10
278.34696260181852
 20
-31.611578736487392
 30
0.0
 11
294.82539902326488
 21
-31.39962160311774
 31
0.0
  0
LINE
  8
DETAIL
  6
CONTINUOUS
 62
     5
 10
278.27445385787257
 20
-28.60315314461371
 30
0.0
 11
285.66872584182681
 21
-28.517581025761899
 31
0.0
  0
LINE
  8
DETAIL
  6
CONTINUOUS
 62
     5
 10
288.80548229958617
 20
-28.481280102966991
 30
0.0
 11
294.90066277032639
 21
-28.410742055570552
 31
0.0
  0
ARC
  8
DETAIL
  6
CONTINUOUS
 62
     5
 10
214.7478694554824
 20
-216.54087026248911
 30
-64.788732026819588
 40
78.165876725519368
 50
283.21046485425632
 51
358.87797109095681
  0
ARC
  8
DETAIL
  6
CONTINUOUS
 62
     5
 10
883.99504745958495
 20
1428.2460316110919
 30
0.0
 40
1773.6431212740649
 50
240.76005340967669
 51
245.56064973880669
  0
ARC
  8
DETAIL
  6
CONTINUOUS
 62
     5
 10
58.627146057472402
 20
-121.1713955547575
 30
0.0
 40
32.868349810217303
 50
299.00164087256428
 51
348.00072311514089
  0
ARC
  8
DETAIL
  6
CONTINUOUS
 62
     5
 10
62.692862611893467
 20
-76.311081363455102
 30
0.0
 40
58.829991644512504
 50
282.31019051651231
 51
298.51465312409471
  0
ARC
  8
DETAIL
  6
CONTINUOUS
 62
     5
 10
54.883167339030081
 20
-139.40441776362911
 30
0.0
 40
5.6236460725716144
 50
92.991366013906614
 51
154.49340100485981
  0
ARC
  8
OUTLINE
  6
CONTINUOUS
 62
     3
 10
-195.60622793872909
 20
-204.189276445166
 30
0.0
 40
110.64163829555839
 50
178.49506934864499
 51
252.03371001717809
  0
ARC
  8
OUTLINE
  6
CONTINUOUS
 62
     3
 10
-338.97222882744211
 20
-8.1760123686120778
 30
0.0
 40
6.357444455886327
 50
196.3130023070818
 51
266.33449621903668
  0
ARC
  8
OUTLINE
  6
CONTINUOUS
 62
     3
 10
194.99988095490829
 20
-203.57684823429679
 30
0.0
 40
111.4931677451803
 50
288.29259627261177
 51
1.1786243613573
  0
ARC
  8
OUTLINE
  6
CONTINUOUS
 62
     3
 10
338.97222882743921
 20
-8.1760123686120778
 30
0.0
 40
6.357444455886327
 50
273.66550378096332
 51
343.68699769291823
  0
TEXT
  8
ETC
  6
CONTINUOUS
 62
    61
 10
391.33563048381802
 20
268.08643062863348
 30
0.0
 40
40.0
  1
EWG-60FTA2
 41
0.9
  0
TEXT
  8
ETC
  6
CONTINUOUS
 62
    61
 10
391.33563048381802
 20
202.08643062863351
 30
0.0
 40
40.0
  1
EWG-60FTA2-PR
 41
0.9
  0
ENDSEC
  0
EOF
