  0
SECTION
  2
HEADER
  9
$ACADVER
  1
AC1009
  9
$DWGCODEPAGE
  3
dos932
  9
$INSBASE
 10
0.0
 20
0.0
 30
0.0
  9
$EXTMIN
 10
-679.50658755162476
 20
-503.40269832336708
 30
-0.0077143135687265
  9
$EXTMAX
 10
1263.875618287786
 20
558.83789860973775
 30
0.0142067940720381
  9
$LIMMIN
 10
-2970.0
 20
-2100.0
  9
$LIMMAX
 10
2970.0
 20
2100.0
  9
$ORTHOMODE
 70
     1
  9
$REGENMODE
 70
     1
  9
$FILLMODE
 70
     1
  9
$QTEXTMODE
 70
     0
  9
$MIRRTEXT
 70
     0
  9
$LTSCALE
 40
20.0
  9
$ATTMODE
 70
     1
  9
$TEXTSIZE
 40
64.0
  9
$TRACEWID
 40
0.05
  9
$TEXTSTYLE
  7
STANDARD
  9
$CLAYER
  8
SIZE
  9
$CELTYPE
  6
CONTINUOUS
  9
$CECOLOR
 62
     7
  9
$DIMSCALE
 40
1.0
  9
$DIMASZ
 40
12.0
  9
$DIMEXO
 40
20.0
  9
$DIMDLI
 40
200.0
  9
$DIMRND
 40
0.0
  9
$DIMDLE
 40
0.0
  9
$DIMEXE
 40
20.0
  9
$DIMTP
 40
0.0
  9
$DIMTM
 40
0.0
  9
$DIMTXT
 40
64.0
  9
$DIMCEN
 40
0.09
  9
$DIMTSZ
 40
0.0
  9
$DIMTOL
 70
     0
  9
$DIMLIM
 70
     0
  9
$DIMTIH
 70
     0
  9
$DIMTOH
 70
     0
  9
$DIMSE1
 70
     0
  9
$DIMSE2
 70
     0
  9
$DIMTAD
 70
     1
  9
$DIMZIN
 70
     8
  9
$DIMBLK
  1

  9
$DIMASO
 70
     1
  9
$DIMSHO
 70
     0
  9
$DIMPOST
  1

  9
$DIMAPOST
  1

  9
$DIMALT
 70
     0
  9
$DIMALTD
 70
     2
  9
$DIMALTF
 40
25.399999999999999
  9
$DIMLFAC
 40
1.0
  9
$DIMTOFL
 70
     1
  9
$DIMTVP
 40
0.0
  9
$DIMTIX
 70
     1
  9
$DIMSOXD
 70
     0
  9
$DIMSAH
 70
     0
  9
$DIMBLK1
  1

  9
$DIMBLK2
  1

  9
$DIMSTYLE
  2
STANDARD
  9
$DIMCLRD
 70
     7
  9
$DIMCLRE
 70
     7
  9
$DIMCLRT
 70
     7
  9
$DIMTFAC
 40
1.0
  9
$DIMGAP
 40
25.0
  9
$LUNITS
 70
     2
  9
$LUPREC
 70
     4
  9
$SKETCHINC
 40
0.1
  9
$FILLETRAD
 40
3.0
  9
$AUNITS
 70
     1
  9
$AUPREC
 70
     3
  9
$MENU
  1
ACAD
  9
$ELEVATION
 40
0.0
  9
$PELEVATION
 40
0.0
  9
$THICKNESS
 40
0.0
  9
$LIMCHECK
 70
     0
  9
$CHAMFERA
 40
0.0
  9
$CHAMFERB
 40
0.0
  9
$SKPOLY
 70
     0
  9
$TDCREATE
 40
2453019.62301037
  9
$TDUPDATE
 40
2458949.45786228
  9
$TDINDWG
 40
1.7147960764
  9
$TDUSRTIMER
 40
1.7147960764
  9
$USRTIMER
 70
     1
  9
$ANGBASE
 50
0.0
  9
$ANGDIR
 70
     0
  9
$PDMODE
 70
     3
  9
$PDSIZE
 40
-2.0
  9
$PLINEWID
 40
0.0
  9
$SPLFRAME
 70
     0
  9
$SPLINETYPE
 70
     6
  9
$SPLINESEGS
 70
     8
  9
$SURFTAB1
 70
     6
  9
$SURFTAB2
 70
     6
  9
$SURFTYPE
 70
     6
  9
$SURFU
 70
     6
  9
$SURFV
 70
     6
  9
$UCSNAME
  2

  9
$UCSORG
 10
0.0
 20
0.0
 30
0.0
  9
$UCSXDIR
 10
1.0
 20
0.0
 30
0.0
  9
$UCSYDIR
 10
0.0
 20
1.0
 30
0.0
  9
$PUCSNAME
  2

  9
$PUCSORG
 10
0.0
 20
0.0
 30
0.0
  9
$PUCSXDIR
 10
1.0
 20
0.0
 30
0.0
  9
$PUCSYDIR
 10
0.0
 20
1.0
 30
0.0
  9
$USERI1
 70
     0
  9
$USERI2
 70
     0
  9
$USERI3
 70
     0
  9
$USERI4
 70
     0
  9
$USERI5
 70
     0
  9
$USERR1
 40
20.0
  9
$USERR2
 40
0.0
  9
$USERR3
 40
0.0
  9
$USERR4
 40
0.0
  9
$USERR5
 40
0.0
  9
$WORLDVIEW
 70
     1
  9
$SHADEDGE
 70
     3
  9
$SHADEDIF
 70
    70
  9
$TILEMODE
 70
     1
  9
$MAXACTVP
 70
    48
  9
$PINSBASE
 10
0.0
 20
0.0
 30
0.0
  9
$PLIMCHECK
 70
     0
  9
$PEXTMIN
 10
-100000000000000000000.0
 20
-100000000000000000000.0
 30
-100000000000000000000.0
  9
$PEXTMAX
 10
100000000000000000000.0
 20
100000000000000000000.0
 30
100000000000000000000.0
  9
$PLIMMIN
 10
0.0
 20
0.0
  9
$PLIMMAX
 10
12.0
 20
9.0
  9
$UNITMODE
 70
     0
  9
$VISRETAIN
 70
     0
  9
$PLINEGEN
 70
     0
  9
$PSLTSCALE
 70
     0
  9
$TREEDEPTH
 70
  3020
  9
$ATTDIA
 70
     0
  9
$ATTREQ
 70
     1
  9
$BLIPMODE
 70
     1
  9
$COORDS
 70
     1
  9
$DRAGMODE
 70
     2
  9
$OSMODE
 70
     0
  9
$HANDLING
 70
     0
  9
$HANDSEED
  5
15DC9
  0
ENDSEC
  0
SECTION
  2
TABLES
  0
TABLE
  2
LTYPE
 70
     2
  0
LTYPE
  2
CONTINUOUS
 70
     0
  3
実線
 72
    65
 73
     0
 40
0.0
  0
LTYPE
  2
DASHDOT
 70
     0
  3
____ _ ____ _ ____ _ ____ _ ____ _ ____ _ ____
 72
    65
 73
     4
 40
5.5
 49
4.0
 49
-0.6
 49
0.3
 49
-0.6
  0
ENDTAB
  0
TABLE
  2
LAYER
 70
    12
  0
LAYER
  2
0
 70
     0
 62
     7
  6
CONTINUOUS
  0
LAYER
  2
BASIS
 70
     0
 62
     6
  6
DASHDOT
  0
LAYER
  2
OUTLINE
 70
     0
 62
     3
  6
CONTINUOUS
  0
LAYER
  2
DETAIL
 70
     0
 62
     5
  6
CONTINUOUS
  0
LAYER
  2
SIZE
 70
     0
 62
    30
  6
CONTINUOUS
  0
LAYER
  2
ARRANGE
 70
     0
 62
     1
  6
CONTINUOUS
  0
LAYER
  2
DEFPOINTS
 70
     0
 62
     7
  6
CONTINUOUS
  0
LAYER
  2
ETC
 70
     0
 62
    61
  6
CONTINUOUS
  0
LAYER
  2
FIX
 70
     0
 62
    11
  6
CONTINUOUS
  0
LAYER
  2
NOTE
 70
     0
 62
     4
  6
CONTINUOUS
  0
LAYER
  2
SERVICESPACE
 70
    64
 62
     2
  6
DASHDOT
  0
LAYER
  2
SYMBOLLINE
 70
    64
 62
    15
  6
CONTINUOUS
  0
ENDTAB
  0
TABLE
  2
STYLE
 70
     1
  0
STYLE
  2
STANDARD
 70
     0
 40
64.0
 41
0.9
 50
0.0
 71
     0
 42
64.0
  3
SIMPLEX.shx
  4
BIGFONT.shx
  0
ENDTAB
  0
TABLE
  2
APPID
 70
    19
  0
APPID
  2
ACAD
 70
     0
  0
APPID
  2
AUTOCAD_POSTSCRIPT_FIGURE
 70
     0
  0
APPID
  2
ACAD_EXEMPT_FROM_CAD_STANDARDS
 70
     0
  0
APPID
  2
ACAD_PSEXT
 70
     0
  0
APPID
  2
ACAUTHENVIRON
 70
     0
  0
APPID
  2
GENIUS_GENOENT_13
 70
     0
  0
APPID
  2
GENIUS_GENCFG_13
 70
     0
  0
APPID
  2
GENIUS_GENCFG0_13
 70
     0
  0
APPID
  2
GENIUS_GENCFG1_13
 70
     0
  0
APPID
  2
GENIUS_GENCFG2_13
 70
     0
  0
APPID
  2
GENIUS_GENCFG3_13
 70
     0
  0
APPID
  2
GENIUS_GENCFG4_13
 70
     0
  0
APPID
  2
GENIUS_GEVCFG0_13
 70
     0
  0
APPID
  2
CONTENTBLOCKICON
 70
     0
  0
APPID
  2
CONTENTBLOCKDESCRIPTION
 70
     0
  0
APPID
  2
ACAD_NAV_VCDISPLAY
 70
     0
  0
APPID
  2
ACAD_MLEADERVER
 70
     0
  0
APPID
  2
ACDBDYNAMICBLOCKTRUENAME
 70
     0
  0
APPID
  2
ACDBDYNAMICBLOCKGUID
 70
     0
  0
ENDTAB
  0
TABLE
  2
DIMSTYLE
 70
     1
  0
DIMSTYLE
  2
STANDARD
 70
     0
  3

  4

  5
_ORIGIN
  6

  7

 40
1.0
 41
12.0
 42
20.0
 43
200.0
 44
20.0
 45
0.0
 46
0.0
 47
0.0
 48
0.0
140
64.0
141
0.09
142
0.0
143
25.399999999999999
144
1.0
145
0.0
146
1.0
147
25.0
 71
     0
 72
     0
 73
     0
 74
     0
 75
     0
 76
     0
 77
     1
 78
     8
170
     0
171
     2
172
     1
173
     0
174
     1
175
     0
176
     7
177
     7
178
     7
  0
ENDTAB
  0
TABLE
  2
VIEW
 70
     1
  0
VIEW
  2
ALL
 70
     0
 40
4282.6198079999986
 10
0.0
 20
41.309904000000003
 41
5940.0
 11
0.0
 21
0.0
 31
1.0
 12
0.0
 22
0.0
 32
0.0
 42
50.0
 43
0.0
 44
0.0
 50
0.0
 71
     0
  0
ENDTAB
  0
TABLE
  2
UCS
 70
     0
  0
ENDTAB
  0
TABLE
  2
VPORT
 70
     1
  0
VPORT
  2
*ACTIVE
 70
     0
 10
0.0
 20
0.0
 11
1.0
 21
1.0
 12
292.18451536808061
 22
27.71760014318534
 13
0.0
 23
0.0
 14
1.0
 24
1.0
 15
0.0
 25
0.0
 16
0.0
 26
0.0
 36
1.0
 17
0.0
 27
0.0
 37
0.0
 40
1116.127595705851
 41
1.747787610619469
 42
50.0
 43
0.0
 44
0.0
 50
0.0
 51
0.0
 71
     0
 72
  1000
 73
     1
 74
     3
 75
     0
 76
     0
 77
     0
 78
     0
  0
ENDTAB
  0
ENDSEC
  0
SECTION
  2
BLOCKS
  0
BLOCK
  8
0
  2
_ORIGIN
 70
     0
 10
0.0
 20
0.0
 30
0.0
  3
_ORIGIN
  1
_ORIGIN
  0
CIRCLE
  8
0
  6
CONTINUOUS
 62
     7
 10
0.0
 20
0.0
 30
0.0
 40
0.5
  0
LINE
  8
0
  6
CONTINUOUS
 62
     7
 10
0.0
 20
0.0
 30
0.0
 11
-1.0
 21
0.0
 31
0.0
  0
ENDBLK
  8
0
  0
ENDSEC
  0
SECTION
  2
ENTITIES
  0
TEXT
  8
ETC
  6
CONTINUOUS
 62
    61
 10
344.87539504366401
 20
494.56101113953281
 30
0.0
 40
64.0
  1
EWG-60FTA40A2-Q_6
 41
0.9
  0
TEXT
  8
ETC
  6
CONTINUOUS
 62
    61
 10
340.68940104366362
 20
376.60570112470168
 30
0.0
 40
64.0
  1
産業扇
 41
0.9
  0
CIRCLE
  8
ARRANGE
  6
CONTINUOUS
 62
     1
 10
0.0
 20
0.0
 30
0.0
 40
40.0
  0
POINT
  8
ARRANGE
  6
CONTINUOUS
 62
     1
 10
0.0
 20
0.0
 30
0.0
  0
TEXT
  8
ETC
  6
CONTINUOUS
 62
    61
 10
425.77215890650109
 20
268.45692823847639
 30
0.0
 40
40.0
  1
EWG-60FTA40A2-Q
 41
0.9
  0
LINE
  8
SIZE
  6
CONTINUOUS
 62
    30
 10
-354.99999996909611
 20
18.497576736672041
 30
0.0
 11
-354.99999996909611
 21
264.96668498765212
 31
0.0
  0
LINE
  8
SIZE
  6
CONTINUOUS
 62
    30
 10
354.99999999970419
 20
18.497884344146431
 30
0.0
 11
354.99999999970419
 21
264.96668498765212
 31
0.0
  0
LINE
  8
SIZE
  6
CONTINUOUS
 62
    30
 10
-342.99999996909611
 20
244.9666849876522
 30
0.0
 11
342.99999999970419
 21
244.9666849876522
 31
0.0
  0
CIRCLE
  8
SIZE
  6
CONTINUOUS
 62
    30
 10
-354.99999996909611
 20
244.9666849876522
 30
0.0
 40
6.0
  0
LINE
  8
SIZE
  6
CONTINUOUS
 62
    30
 10
-354.99999996909611
 20
244.9666849876522
 30
0.0
 11
-342.99999996909611
 21
244.9666849876522
 31
0.0
  0
CIRCLE
  8
SIZE
  6
CONTINUOUS
 62
    30
 10
354.99999999970419
 20
244.9666849876522
 30
0.0
 40
6.0
  0
LINE
  8
SIZE
  6
CONTINUOUS
 62
    30
 10
354.99999999970419
 20
244.9666849876522
 30
0.0
 11
342.99999999970419
 21
244.9666849876522
 31
0.0
  0
TEXT
  8
SIZE
  6
CONTINUOUS
 62
    30
 10
-69.348778645907615
 20
269.96668498765212
 30
0.0
 40
64.0
  1
710
 41
0.9
 72
     1
 11
-0.7773500744790454
 21
269.96668498765212
 31
0.0
  0
POINT
  8
DEFPOINTS
  6
CONTINUOUS
 62
    30
 10
-354.99999996909611
 20
-1.5024232633279551
 30
0.0
  0
POINT
  8
DEFPOINTS
  6
CONTINUOUS
 62
    30
 10
354.99999999970419
 20
-1.502115655853572
 30
0.0
  0
POINT
  8
DEFPOINTS
  6
CONTINUOUS
 62
    30
 10
354.99999999970419
 20
244.9666849876522
 30
0.0
  0
LINE
  8
SIZE
  6
CONTINUOUS
 62
    30
 10
-325.45839210095858
 20
36.335668001699673
 30
0.0
 11
-325.45839210095858
 21
151.39419561661629
 31
0.0
  0
LINE
  8
SIZE
  6
CONTINUOUS
 62
    30
 10
325.45839210095892
 20
36.335668001699453
 30
0.0
 11
325.45839210095892
 21
151.39419561661629
 31
0.0
  0
LINE
  8
SIZE
  6
CONTINUOUS
 62
    30
 10
-313.45839210095858
 20
131.39419561661629
 30
0.0
 11
313.45839210095892
 21
131.39419561661629
 31
0.0
  0
CIRCLE
  8
SIZE
  6
CONTINUOUS
 62
    30
 10
-325.45839210095858
 20
131.39419561661629
 30
0.0
 40
6.0
  0
LINE
  8
SIZE
  6
CONTINUOUS
 62
    30
 10
-325.45839210095858
 20
131.39419561661629
 30
0.0
 11
-313.45839210095858
 21
131.39419561661629
 31
0.0
  0
CIRCLE
  8
SIZE
  6
CONTINUOUS
 62
    30
 10
325.45839210095892
 20
131.39419561661629
 30
0.0
 40
6.0
  0
LINE
  8
SIZE
  6
CONTINUOUS
 62
    30
 10
325.45839210095892
 20
131.39419561661629
 30
0.0
 11
313.45839210095892
 21
131.39419561661629
 31
0.0
  0
TEXT
  8
SIZE
  6
CONTINUOUS
 62
    30
 10
-74.057142857142736
 20
156.39419561661629
 30
0.0
 40
64.0
  1
650
 41
0.9
 72
     1
 11
0.0000000000001137
 21
156.39419561661629
 31
0.0
  0
POINT
  8
DEFPOINTS
  6
CONTINUOUS
 62
    30
 10
-325.45839210095858
 20
16.33566800169967
 30
0.0
  0
POINT
  8
DEFPOINTS
  6
CONTINUOUS
 62
    30
 10
325.45839210095892
 20
16.33566800169945
 30
0.0
  0
POINT
  8
DEFPOINTS
  6
CONTINUOUS
 62
    30
 10
325.45839210095892
 20
131.39419561661629
 30
0.0
  0
CIRCLE
  8
FIX
  6
CONTINUOUS
 62
    11
 10
-325.41691326098493
 20
0.0000000000000568
 30
0.0
 40
7.0
  0
CIRCLE
  8
FIX
  6
CONTINUOUS
 62
    11
 10
325.45839210095892
 20
0.0
 30
0.0
 40
7.0
  0
LINE
  8
SIZE
  6
CONTINUOUS
 62
    30
 10
373.49788434385079
 20
-0.0000000000001137
 30
0.0
 11
514.65450365862307
 21
-0.0000000000001705
 31
0.0
  0
LINE
  8
SIZE
  6
CONTINUOUS
 62
    30
 10
368.39069111394929
 20
-10.014104372651669
 30
0.0
 11
514.65450365862307
 21
-10.01410437265173
 31
0.0
  0
LINE
  8
SIZE
  6
CONTINUOUS
 62
    30
 10
494.65450365862313
 20
-22.014104372651669
 30
0.0
 11
494.65450365862313
 21
-34.01410437265173
 31
0.0
  0
LINE
  8
SIZE
  6
CONTINUOUS
 62
    30
 10
494.65450365862313
 20
11.99999999999989
 30
0.0
 11
494.65450365862313
 21
157.2996127395696
 31
0.0
  0
LINE
  8
SIZE
  6
CONTINUOUS
 62
    30
 10
494.65450365862313
 20
-10.01410437265173
 30
0.0
 11
494.65450365862313
 21
-0.0000000000001705
 31
0.0
  0
CIRCLE
  8
SIZE
  6
CONTINUOUS
 62
    30
 10
494.65450365862313
 20
-10.01410437265173
 30
0.0
 40
6.0
  0
LINE
  8
SIZE
  6
CONTINUOUS
 62
    30
 10
494.65450365862313
 20
-10.01410437265173
 30
0.0
 11
494.65450365862313
 21
-22.014104372651669
 31
0.0
  0
CIRCLE
  8
SIZE
  6
CONTINUOUS
 62
    30
 10
494.65450365862313
 20
-0.0000000000001705
 30
0.0
 40
6.0
  0
LINE
  8
SIZE
  6
CONTINUOUS
 62
    30
 10
494.65450365862313
 20
-0.0000000000001705
 30
0.0
 11
494.65450365862313
 21
11.99999999999989
 31
0.0
  0
TEXT
  8
SIZE
  6
CONTINUOUS
 62
    30
 10
469.65450365862313
 20
50.013898453855383
 30
0.0
 40
64.0
  1
10
 50
90.0
 41
0.9
 72
     1
 11
469.65450365862313
 21
91.156755596712514
 31
0.0
  0
POINT
  8
DEFPOINTS
  6
CONTINUOUS
 62
    30
 10
353.49788434385079
 20
-0.0000000000001137
 30
0.0
  0
POINT
  8
DEFPOINTS
  6
CONTINUOUS
 62
    30
 10
348.39069111394929
 20
-10.014104372651669
 30
0.0
  0
POINT
  8
DEFPOINTS
  6
CONTINUOUS
 62
    30
 10
494.65450365862313
 20
-10.01410437265173
 30
0.0
  0
LINE
  8
SIZE
  6
CONTINUOUS
 62
    30
 10
368.39069111394929
 20
-10.014104372651669
 30
0.0
 11
514.65450365862307
 21
-10.01410437265173
 31
0.0
  0
LINE
  8
SIZE
  6
CONTINUOUS
 62
    30
 10
358.37658674129761
 20
-20.02820874530369
 30
0.0
 11
514.65450365862307
 21
-20.02820874530374
 31
0.0
  0
LINE
  8
SIZE
  6
CONTINUOUS
 62
    30
 10
494.65450365862313
 20
1.98589562734827
 30
0.0
 11
494.65450365862313
 21
13.985895627348331
 31
0.0
  0
LINE
  8
SIZE
  6
CONTINUOUS
 62
    30
 10
494.65450365862313
 20
-32.028208745303743
 30
0.0
 11
494.65450365862313
 21
-176.31392303101799
 31
0.0
  0
LINE
  8
SIZE
  6
CONTINUOUS
 62
    30
 10
494.65450365862313
 20
-10.01410437265173
 30
0.0
 11
494.65450365862313
 21
-20.02820874530374
 31
0.0
  0
CIRCLE
  8
SIZE
  6
CONTINUOUS
 62
    30
 10
494.65450365862313
 20
-10.01410437265173
 30
0.0
 40
6.0
  0
LINE
  8
SIZE
  6
CONTINUOUS
 62
    30
 10
494.65450365862313
 20
-10.01410437265173
 30
0.0
 11
494.65450365862313
 21
1.98589562734827
 31
0.0
  0
CIRCLE
  8
SIZE
  6
CONTINUOUS
 62
    30
 10
494.65450365862313
 20
-20.02820874530374
 30
0.0
 40
6.0
  0
LINE
  8
SIZE
  6
CONTINUOUS
 62
    30
 10
494.65450365862313
 20
-20.02820874530374
 30
0.0
 11
494.65450365862313
 21
-32.028208745303743
 31
0.0
  0
TEXT
  8
SIZE
  6
CONTINUOUS
 62
    30
 10
469.65450365862313
 20
-151.31392303101791
 30
0.0
 40
64.0
  1
10
 50
90.0
 41
0.9
 72
     1
 11
469.65450365862313
 21
-110.1710658881608
 31
0.0
  0
POINT
  8
DEFPOINTS
  6
CONTINUOUS
 62
    30
 10
348.39069111394929
 20
-10.014104372651669
 30
0.0
  0
POINT
  8
DEFPOINTS
  6
CONTINUOUS
 62
    30
 10
338.37658674129761
 20
-20.02820874530369
 30
0.0
  0
POINT
  8
DEFPOINTS
  6
CONTINUOUS
 62
    30
 10
494.65450365862313
 20
-20.02820874530374
 30
0.0
  0
LINE
  8
SIZE
  6
CONTINUOUS
 62
    30
 10
373.49788434385079
 20
-0.0000000000001137
 30
0.0
 11
656.21331117497175
 21
-0.0000000000002274
 31
0.0
  0
LINE
  8
SIZE
  6
CONTINUOUS
 62
    30
 10
295.18300022625863
 20
-175.24682651651639
 30
0.0
 11
656.21331117497175
 21
-175.24682651651651
 31
0.0
  0
LINE
  8
SIZE
  6
CONTINUOUS
 62
    30
 10
636.21331117497175
 20
-12.000000000000171
 30
0.0
 11
636.21331117497175
 21
-163.24682651651651
 31
0.0
  0
LINE
  8
SIZE
  6
CONTINUOUS
 62
    30
 10
636.21331117497175
 20
-175.24682651651651
 30
0.0
 11
636.21331117497175
 21
-374.38968365937359
 31
0.0
  0
CIRCLE
  8
SIZE
  6
CONTINUOUS
 62
    30
 10
636.21331117497175
 20
-0.0000000000001705
 30
0.0
 40
6.0
  0
LINE
  8
SIZE
  6
CONTINUOUS
 62
    30
 10
636.21331117497175
 20
-0.0000000000001705
 30
0.0
 11
636.21331117497175
 21
-12.000000000000171
 31
0.0
  0
CIRCLE
  8
SIZE
  6
CONTINUOUS
 62
    30
 10
636.21331117497175
 20
-175.24682651651651
 30
0.0
 40
6.0
  0
LINE
  8
SIZE
  6
CONTINUOUS
 62
    30
 10
636.21331117497175
 20
-175.24682651651651
 30
0.0
 11
636.21331117497175
 21
-163.24682651651651
 31
0.0
  0
TEXT
  8
SIZE
  6
CONTINUOUS
 62
    30
 10
611.21331117497175
 20
-349.38968365937347
 30
0.0
 40
64.0
  1
175
 50
90.0
 41
0.9
 72
     1
 11
611.21331117497175
 21
-280.81825508794498
 31
0.0
  0
POINT
  8
DEFPOINTS
  6
CONTINUOUS
 62
    30
 10
353.49788434385079
 20
-0.0000000000001137
 30
0.0
  0
POINT
  8
DEFPOINTS
  6
CONTINUOUS
 62
    30
 10
275.18300022625863
 20
-175.24682651651639
 30
0.0
  0
POINT
  8
DEFPOINTS
  6
CONTINUOUS
 62
    30
 10
636.21331117497175
 20
-175.24682651651651
 30
0.0
  0
TEXT
  8
NOTE
  6
CONTINUOUS
 62
     4
 10
-672.20697365316414
 20
89.566182407517999
 30
0.0
 40
64.0
  1
4-φ14
 41
0.9
  0
LINE
  8
SIZE
  6
CONTINUOUS
 62
    30
 10
-373.49788434473908
 20
0.0
 30
0.0
 11
-384.59666777554719
 21
0.0
 31
0.0
  0
LINE
  8
SIZE
  6
CONTINUOUS
 62
    30
 10
23.194350765825561
 20
-347.71214895652122
 30
0.0
 11
-384.59666777554742
 21
-347.71214895652082
 31
0.0
  0
LINE
  8
SIZE
  6
CONTINUOUS
 62
    30
 10
-364.59666777554719
 20
-12.0
 30
0.0
 11
-364.59666777554742
 21
-335.7121489565211
 31
0.0
  0
CIRCLE
  8
SIZE
  6
CONTINUOUS
 62
    30
 10
-364.59666777554719
 20
0.0
 30
0.0
 40
6.0
  0
LINE
  8
SIZE
  6
CONTINUOUS
 62
    30
 10
-364.59666777554719
 20
0.0
 30
0.0
 11
-364.59666777554719
 21
-12.0
 31
0.0
  0
CIRCLE
  8
SIZE
  6
CONTINUOUS
 62
    30
 10
-364.59666777554742
 20
-347.71214895652122
 30
0.0
 40
6.0
  0
LINE
  8
SIZE
  6
CONTINUOUS
 62
    30
 10
-364.59666777554742
 20
-347.71214895652122
 30
0.0
 11
-364.59666777554742
 21
-335.7121489565211
 31
0.0
  0
TEXT
  8
SIZE
  6
CONTINUOUS
 62
    30
 10
-389.59666777554719
 20
-247.91321733540349
 30
0.0
 40
64.0
  1
347
 50
90.0
 41
0.9
 72
     1
 11
-389.59666777554719
 21
-173.85607447826061
 31
0.0
  0
POINT
  8
DEFPOINTS
  6
CONTINUOUS
 62
    30
 10
-353.49788434473908
 20
0.0
 30
0.0
  0
POINT
  8
DEFPOINTS
  6
CONTINUOUS
 62
    30
 10
43.194350765825561
 20
-347.71214895652122
 30
0.0
  0
POINT
  8
DEFPOINTS
  6
CONTINUOUS
 62
    30
 10
-364.59666777554742
 20
-347.71214895652122
 30
0.0
  0
LINE
  8
DETAIL
  6
CONTINUOUS
 62
     4
 10
-328.12166777214662
 20
5.4966390564275676
 30
0.0
 11
-325.35826913251441
 21
-0.0664830210104697
 31
0.0
  0
LINE
  8
DETAIL
  6
CONTINUOUS
 62
     4
 10
-325.35826913251441
 20
-0.0664830210104697
 30
0.0
 11
-330.53300877195028
 21
3.3696149045512702
 31
0.0
  0
LINE
  8
DETAIL
  6
CONTINUOUS
 62
     4
 10
-325.35826913251441
 20
-0.0664830210104697
 30
0.0
 11
-333.29640741158249
 21
8.932736981989251
 31
0.0
  0
LINE
  8
NOTE
  6
CONTINUOUS
 62
     4
 10
-333.29640741158249
 20
8.932736981989251
 30
0.0
 11
-381.46186201201579
 21
63.536411956604979
 31
0.0
  0
LINE
  8
NOTE
  6
CONTINUOUS
 62
     4
 10
-381.46186201201579
 20
63.536411956604979
 30
0.0
 11
-679.33042425704969
 21
63.697866805785338
 31
0.0
  0
LINE
  8
SIZE
  6
CONTINUOUS
 62
    30
 10
-81.614950635289347
 20
-353.87668039325717
 30
0.0
 11
-81.614950635289347
 21
-503.09828310880403
 31
0.0
  0
LINE
  8
SIZE
  6
CONTINUOUS
 62
    30
 10
81.614950634399975
 20
-353.87668039325717
 30
0.0
 11
81.614950634399975
 21
-503.09828310880403
 31
0.0
  0
LINE
  8
SIZE
  6
CONTINUOUS
 62
    30
 10
-69.614950635289361
 20
-483.09828310880403
 30
0.0
 11
69.614950634399975
 21
-483.09828310880403
 31
0.0
  0
LINE
  8
SIZE
  6
CONTINUOUS
 62
    30
 10
81.614950634399975
 20
-483.09828310880403
 30
0.0
 11
341.23054356909091
 21
-483.09828310880403
 31
0.0
  0
CIRCLE
  8
SIZE
  6
CONTINUOUS
 62
    30
 10
-81.614950635289347
 20
-483.09828310880403
 30
0.0
 40
6.0
  0
LINE
  8
SIZE
  6
CONTINUOUS
 62
    30
 10
-81.614950635289347
 20
-483.09828310880403
 30
0.0
 11
-69.614950635289361
 21
-483.09828310880403
 31
0.0
  0
CIRCLE
  8
SIZE
  6
CONTINUOUS
 62
    30
 10
81.614950634399975
 20
-483.09828310880403
 30
0.0
 40
6.0
  0
LINE
  8
SIZE
  6
CONTINUOUS
 62
    30
 10
81.614950634399975
 20
-483.09828310880403
 30
0.0
 11
69.614950634399975
 21
-483.09828310880403
 31
0.0
  0
TEXT
  8
SIZE
  6
CONTINUOUS
 62
    30
 10
108.5962578548053
 20
-447.4316164421374
 30
0.0
 40
64.0
  1
φ163
 41
0.9
 72
     1
 11
217.48768642623381
 21
-447.4316164421374
 31
0.0
  0
POINT
  8
DEFPOINTS
  6
CONTINUOUS
 62
    30
 10
-81.614950635289347
 20
-333.87668039325717
 30
0.0
  0
POINT
  8
DEFPOINTS
  6
CONTINUOUS
 62
    30
 10
81.614950634399975
 20
-333.87668039325717
 30
0.0
  0
POINT
  8
DEFPOINTS
  6
CONTINUOUS
 62
    30
 10
81.614950634399975
 20
-483.09828310880403
 30
0.0
  0
LINE
  8
NOTE
  6
CONTINUOUS
 62
     4
 10
-325.45839210095858
 20
-39.208952782375817
 30
0.0
 11
-325.45839210095858
 21
16.33566800169967
 31
0.0
  0
LINE
  8
NOTE
  6
CONTINUOUS
 62
     4
 10
325.45839210095892
 20
-39.208952782376173
 30
0.0
 11
325.45839210095892
 21
16.33566800169945
 31
0.0
  0
LINE
  8
OUTLINE
  6
CONTINUOUS
 62
     3
 10
-306.33958110672972
 20
-171.24118476727759
 30
0.0
 11
-306.33958110672972
 21
-59.024038072988333
 31
0.0
  0
LINE
  8
OUTLINE
  6
CONTINUOUS
 62
     3
 10
81.614950634400429
 20
-313.44146685502119
 30
0.0
 11
120.1692524682653
 21
-313.44146685502119
 31
0.0
  0
LINE
  8
OUTLINE
  6
CONTINUOUS
 62
     3
 10
306.33958110672847
 20
-175.24682651651639
 30
0.0
 11
306.33958110672847
 21
-201.28349788434409
 31
0.0
  0
LINE
  8
OUTLINE
  6
CONTINUOUS
 62
     3
 10
-351.99576868888693
 20
-3.0042313117066901
 30
0.0
 11
-353.4978843447393
 21
-3.0042313117066901
 31
0.0
  0
ARC
  8
OUTLINE
  6
CONTINUOUS
 62
     3
 10
353.49788434385027
 20
-1.5021156558532309
 30
0.0
 40
1.5021156558534581
 50
270.0
 51
90.0
  0
ARC
  8
OUTLINE
  6
CONTINUOUS
 62
     3
 10
338.3765867412958
 20
-16.42313117036656
 30
0.0
 40
3.6050775740477552
 50
270.0
 51
0.0
  0
ARC
  8
OUTLINE
  6
CONTINUOUS
 62
     3
 10
348.39069111394838
 20
-6.409026798603918
 30
0.0
 40
3.605077574047983
 50
270.0
 51
0.0
  0
ARC
  8
OUTLINE
  6
CONTINUOUS
 62
     3
 10
310.43723554242479
 20
-173.2440056414525
 30
0.0
 40
2.002820874174859
 50
270.0
 51
90.0
  0
ARC
  8
OUTLINE
  6
CONTINUOUS
 62
     3
 10
72.301833568109458
 20
-333.87668036037093
 30
0.0
 40
9.3131170662904559
 50
278.30843966210762
 51
0.0
  0
ARC
  8
OUTLINE
  6
CONTINUOUS
 62
     3
 10
-353.4978843447393
 20
-1.5021156558532309
 30
0.0
 40
1.50211565585323
 50
90.0
 51
270.0
  0
ARC
  8
OUTLINE
  6
CONTINUOUS
 62
     3
 10
-348.39069111483877
 20
-6.409026798603918
 30
0.0
 40
3.6050775740477552
 50
180.0
 51
270.0
  0
ARC
  8
OUTLINE
  6
CONTINUOUS
 62
     3
 10
-338.3765867421871
 20
-16.42313117036656
 30
0.0
 40
3.6050775740482091
 50
180.0
 51
270.0
  0
ARC
  8
OUTLINE
  6
CONTINUOUS
 62
     3
 10
-310.43723554331558
 20
-173.2440056414525
 30
0.0
 40
2.002820874174744
 50
90.0
 51
270.0
  0
ARC
  8
OUTLINE
  6
CONTINUOUS
 62
     3
 10
-72.301833568999868
 20
-333.87668036037093
 30
0.0
 40
9.3131170662904896
 50
180.0
 51
261.69156033789238
  0
LINE
  8
OUTLINE
  6
CONTINUOUS
 62
     3
 10
351.99576868799608
 20
-3.0042313117066901
 30
0.0
 11
351.99576868799608
 21
-6.409026798603918
 31
0.0
  0
LINE
  8
OUTLINE
  6
CONTINUOUS
 62
     3
 10
341.98166431534543
 20
-13.887196766384481
 30
0.0
 11
341.98166431534543
 21
-16.42313117036656
 31
0.0
  0
LINE
  8
OUTLINE
  6
CONTINUOUS
 62
     3
 10
306.33958110672847
 20
-59.024038073004697
 30
0.0
 11
306.33958110672847
 21
-171.24118476727759
 31
0.0
  0
LINE
  8
OUTLINE
  6
CONTINUOUS
 62
     3
 10
353.49788434385027
 20
0.0
 30
0.0
 11
-353.4978843447393
 21
0.0
 31
0.0
  0
LINE
  8
OUTLINE
  6
CONTINUOUS
 62
     3
 10
353.49788434385027
 20
-3.0042313117066901
 30
0.0
 11
351.99576868799608
 21
-3.0042313117066901
 31
0.0
  0
LINE
  8
OUTLINE
  6
CONTINUOUS
 62
     3
 10
-345.18093089976821
 20
-10.0141043726519
 30
0.0
 11
-348.39069111483877
 21
-10.0141043726519
 31
0.0
  0
LINE
  8
OUTLINE
  6
CONTINUOUS
 62
     3
 10
348.39069111394838
 20
-10.0141043726519
 30
0.0
 11
345.18093089887861
 21
-10.0141043726519
 31
0.0
  0
LINE
  8
OUTLINE
  6
CONTINUOUS
 62
     3
 10
-333.97038081881448
 20
-20.028208744414531
 30
0.0
 11
-338.3765867421871
 21
-20.028208744414531
 31
0.0
  0
LINE
  8
OUTLINE
  6
CONTINUOUS
 62
     3
 10
338.3765867412958
 20
-20.028208744414531
 30
0.0
 11
333.97038081807932
 21
-20.028208744414531
 31
0.0
  0
LINE
  8
OUTLINE
  6
CONTINUOUS
 62
     3
 10
71.5534712182871
 20
-345.18617771509179
 30
0.0
 11
73.647597205117563
 21
-343.09205174337131
 31
0.0
  0
LINE
  8
OUTLINE
  6
CONTINUOUS
 62
     3
 10
120.1692524682653
 20
-309.43582510578312
 30
0.0
 11
120.1692524682653
 21
-313.44146685502119
 31
0.0
  0
LINE
  8
OUTLINE
  6
CONTINUOUS
 62
     3
 10
81.614950634399975
 20
-333.87668039325717
 30
0.0
 11
81.614950634399975
 21
-313.44146685502119
 31
0.0
  0
LINE
  8
OUTLINE
  6
CONTINUOUS
 62
     3
 10
306.33958110672847
 20
-171.24118476727759
 30
0.0
 11
310.43723554242479
 21
-171.24118476727759
 31
0.0
  0
LINE
  8
OUTLINE
  6
CONTINUOUS
 62
     3
 10
-310.43723554331558
 20
-171.24118476727759
 30
0.0
 11
-306.33958110672972
 21
-171.24118476727759
 31
0.0
  0
LINE
  8
OUTLINE
  6
CONTINUOUS
 62
     3
 10
306.33958110672847
 20
-175.24682651651639
 30
0.0
 11
310.43723554242479
 21
-175.24682651651639
 31
0.0
  0
LINE
  8
OUTLINE
  6
CONTINUOUS
 62
     3
 10
-310.43723554331558
 20
-175.24682651651639
 30
0.0
 11
-306.33958110672972
 21
-175.24682651651639
 31
0.0
  0
LINE
  8
OUTLINE
  6
CONTINUOUS
 62
     3
 10
-81.614950635289901
 20
-333.87668039325717
 30
0.0
 11
-81.614950635289901
 21
-313.44146685502119
 31
0.0
  0
LINE
  8
OUTLINE
  6
CONTINUOUS
 62
     3
 10
120.1692524682653
 20
-309.43582510578312
 30
0.0
 11
229.86433712714779
 21
-309.43582510578312
 31
0.0
  0
LINE
  8
OUTLINE
  6
CONTINUOUS
 62
     3
 10
-229.8643371271487
 20
-309.43582510578312
 30
0.0
 11
-120.16925246826619
 21
-309.43582510578312
 31
0.0
  0
LINE
  8
OUTLINE
  6
CONTINUOUS
 62
     3
 10
-120.16925246826619
 20
-313.44146685502119
 30
0.0
 11
-81.614950635289901
 21
-313.44146685502119
 31
0.0
  0
LINE
  8
OUTLINE
  6
CONTINUOUS
 62
     3
 10
-120.16925246826619
 20
-313.44146685502119
 30
0.0
 11
-120.16925246826619
 21
-309.43582510578312
 31
0.0
  0
LINE
  8
OUTLINE
  6
CONTINUOUS
 62
     3
 10
-71.553471219176558
 20
-345.18617771509179
 30
0.0
 11
-73.647597205118899
 21
-343.09205174337131
 31
0.0
  0
LINE
  8
OUTLINE
  6
CONTINUOUS
 62
     3
 10
71.5534712182871
 20
-345.18617771509179
 30
0.0
 11
-71.553471219176558
 21
-345.18617771509179
 31
0.0
  0
LINE
  8
OUTLINE
  6
CONTINUOUS
 62
     3
 10
-306.33958110672972
 20
-201.28349788434409
 30
0.0
 11
-306.33958110672972
 21
-175.24682651651639
 31
0.0
  0
LINE
  8
OUTLINE
  6
CONTINUOUS
 62
     3
 10
-341.98166431623491
 20
-16.42313117036656
 30
0.0
 11
-341.98166431623491
 21
-13.887196766384481
 31
0.0
  0
LINE
  8
OUTLINE
  6
CONTINUOUS
 62
     3
 10
-351.99576868888602
 20
-6.409026798603918
 30
0.0
 11
-351.99576868888602
 21
-3.0042313117066901
 31
0.0
  0
LINE
  8
DETAIL
  6
CONTINUOUS
 62
     5
 10
-351.99576868888568
 20
-6.409026798603918
 30
0.0
 11
-351.99576868888568
 21
-3.0042313117066901
 31
0.0
  0
LINE
  8
DETAIL
  6
CONTINUOUS
 62
     5
 10
-348.8258277617573
 20
-3.0042313117066901
 30
0.0
 11
-348.8258277617573
 21
-5.1071932299012133
 31
0.0
  0
LINE
  8
DETAIL
  6
CONTINUOUS
 62
     5
 10
-341.98166431623417
 20
-16.42313117036656
 30
0.0
 11
-341.98166431623417
 21
-13.887196766384481
 31
0.0
  0
LINE
  8
DETAIL
  6
CONTINUOUS
 62
     5
 10
-306.33958110673018
 20
-201.28349788434409
 30
0.0
 11
-306.33958110673018
 21
-14.52045134021159
 31
0.0
  0
LINE
  8
DETAIL
  6
CONTINUOUS
 62
     5
 10
-302.09095644104968
 20
-14.52045134021159
 30
0.0
 11
-302.09095644104968
 21
-201.28349788434409
 31
0.0
  0
LINE
  8
DETAIL
  6
CONTINUOUS
 62
     5
 10
-299.25853999785522
 20
-5.1071932299012133
 30
0.0
 11
-299.25853999785522
 21
-3.0042313117066901
 31
0.0
  0
LINE
  8
DETAIL
  6
CONTINUOUS
 62
     5
 10
-287.92887422329972
 20
-3.0042313117066901
 30
0.0
 11
-287.92887422329972
 21
-6.409026798603918
 31
0.0
  0
LINE
  8
DETAIL
  6
CONTINUOUS
 62
     5
 10
-280.19005241214012
 20
-14.52045134021159
 30
0.0
 11
-280.19005241214012
 21
-18.526093088561311
 31
0.0
  0
LINE
  8
DETAIL
  6
CONTINUOUS
 62
     5
 10
-275.1830002262584
 20
-14.52045134021159
 30
0.0
 11
-275.1830002262584
 21
-18.07888122541976
 31
0.0
  0
LINE
  8
DETAIL
  6
CONTINUOUS
 62
     5
 10
-275.1830002262584
 20
-18.526093088561311
 30
0.0
 11
-275.1830002262584
 21
-201.28349788434409
 31
0.0
  0
LINE
  8
DETAIL
  6
CONTINUOUS
 62
     5
 10
-270.17594804037708
 20
-18.526093088561311
 30
0.0
 11
-270.17594804037708
 21
-14.52045134021159
 31
0.0
  0
LINE
  8
DETAIL
  6
CONTINUOUS
 62
     5
 10
-258.18850156442511
 20
-14.52045134021159
 30
0.0
 11
-258.18850156442511
 21
-10.0141043726519
 31
0.0
  0
LINE
  8
DETAIL
  6
CONTINUOUS
 62
     5
 10
-246.1507316790713
 20
-13.01833568435814
 30
0.0
 11
-246.1507316790713
 21
-16.42313117036656
 31
0.0
  0
LINE
  8
DETAIL
  6
CONTINUOUS
 62
     5
 10
38.487721711114773
 20
-345.68688293341319
 30
0.0
 11
47.90097982053635
 21
-345.68688293341319
 31
0.0
  0
LINE
  8
DETAIL
  6
CONTINUOUS
 62
     5
 10
71.553471218287996
 20
-345.18617771509179
 30
0.0
 11
-71.553471219177027
 21
-345.18617771509179
 31
0.0
  0
LINE
  8
DETAIL
  6
CONTINUOUS
 62
     5
 10
73.647597205118245
 20
-343.09205174337131
 30
0.0
 11
-73.647597205118586
 21
-343.09205174337131
 31
0.0
  0
LINE
  8
DETAIL
  6
CONTINUOUS
 62
     5
 10
-71.553471219177027
 20
-345.18617771509179
 30
0.0
 11
-73.647597205118586
 21
-343.09205174337131
 31
0.0
  0
LINE
  8
DETAIL
  6
CONTINUOUS
 62
     5
 10
-120.1692524682653
 20
-313.44146685502119
 30
0.0
 11
-120.1692524682653
 21
-271.38222849112822
 31
0.0
  0
LINE
  8
DETAIL
  6
CONTINUOUS
 62
     5
 10
-120.1692524682653
 20
-313.44146685502119
 30
0.0
 11
120.1692524682651
 21
-313.44146685502119
 31
0.0
  0
LINE
  8
DETAIL
  6
CONTINUOUS
 62
     5
 10
173.17804875271011
 20
-312.64033850464023
 30
0.0
 11
175.65641314050529
 21
-312.64033850464023
 31
0.0
  0
LINE
  8
DETAIL
  6
CONTINUOUS
 62
     5
 10
-229.8643371271481
 20
-309.43582510578312
 30
0.0
 11
-120.1692524682653
 21
-309.43582510578312
 31
0.0
  0
LINE
  8
DETAIL
  6
CONTINUOUS
 62
     5
 10
120.1692524682651
 20
-309.43582510578312
 30
0.0
 11
229.86433712714791
 21
-309.43582510578312
 31
0.0
  0
LINE
  8
DETAIL
  6
CONTINUOUS
 62
     5
 10
-102.8483640267775
 20
-267.77715091708041
 30
0.0
 11
-102.8483640267775
 21
-227.7207334273628
 31
0.0
  0
LINE
  8
DETAIL
  6
CONTINUOUS
 62
     5
 10
-88.090121328035167
 20
-267.77715091708041
 30
0.0
 11
-88.090121328035167
 21
-227.7207334273628
 31
0.0
  0
LINE
  8
DETAIL
  6
CONTINUOUS
 62
     5
 10
-1.4008431498820071
 20
-287.05699682281869
 30
0.0
 11
1.400887929816008
 21
-287.05699682281869
 31
0.0
  0
LINE
  8
DETAIL
  6
CONTINUOUS
 62
     5
 10
-82.416078984781507
 20
-227.7207334273628
 30
0.0
 11
-82.416078984781507
 21
-221.05865903079169
 31
0.0
  0
LINE
  8
DETAIL
  6
CONTINUOUS
 62
     5
 10
-81.614950635289347
 20
-333.87668039325717
 30
0.0
 11
-81.614950635289347
 21
-313.44146685502119
 31
0.0
  0
LINE
  8
DETAIL
  6
CONTINUOUS
 62
     5
 10
-81.414668547249789
 20
-220.0572485932596
 30
0.0
 11
-81.414668547249789
 21
-215.10824816361941
 31
0.0
  0
LINE
  8
DETAIL
  6
CONTINUOUS
 62
     5
 10
-81.414668547249789
 20
-201.40304732581839
 30
0.0
 11
-81.414668547249789
 21
-189.2486674411204
 31
0.0
  0
LINE
  8
DETAIL
  6
CONTINUOUS
 62
     5
 10
-74.487162490844867
 20
-267.77715091708041
 30
0.0
 11
-74.487162490844867
 21
-261.56840620562781
 31
0.0
  0
LINE
  8
DETAIL
  6
CONTINUOUS
 62
     5
 10
-71.232578569532961
 20
-259.56558533145278
 30
0.0
 11
-71.232578569532961
 21
-261.56840620562781
 31
0.0
  0
LINE
  8
DETAIL
  6
CONTINUOUS
 62
     5
 10
-67.97799464822117
 20
-267.77715091708041
 30
0.0
 11
-67.97799464822117
 21
-262.1497816279782
 31
0.0
  0
LINE
  8
DETAIL
  6
CONTINUOUS
 62
     5
 10
-65.151140391755234
 20
-259.56558533145278
 30
0.0
 11
-65.151140391755234
 21
-227.7207334273628
 31
0.0
  0
LINE
  8
DETAIL
  6
CONTINUOUS
 62
     5
 10
-64.723410727798182
 20
-259.56558533145278
 30
0.0
 11
-64.723410727798182
 21
-261.56840620562781
 31
0.0
  0
LINE
  8
DETAIL
  6
CONTINUOUS
 62
     5
 10
-61.468826806486497
 20
-267.77715091708041
 30
0.0
 11
-61.468826806486497
 21
-261.56840620562781
 31
0.0
  0
LINE
  8
DETAIL
  6
CONTINUOUS
 62
     5
 10
-60.820444597432918
 20
-267.77715091708041
 30
0.0
 11
-60.820444597432918
 21
-227.7207334273628
 31
0.0
  0
LINE
  8
DETAIL
  6
CONTINUOUS
 62
     5
 10
-114.160789844852
 20
-272.38363892777159
 30
0.0
 11
114.16078984485181
 21
-272.38363892777159
 31
0.0
  0
LINE
  8
DETAIL
  6
CONTINUOUS
 62
     5
 10
-225.61571246235641
 20
-271.38222849112822
 30
0.0
 11
-120.1692524682653
 21
-271.38222849112822
 31
0.0
  0
LINE
  8
DETAIL
  6
CONTINUOUS
 62
     5
 10
120.1692524682651
 20
-271.38222849112822
 30
0.0
 11
225.61571246146741
 21
-271.38222849112822
 31
0.0
  0
LINE
  8
DETAIL
  6
CONTINUOUS
 62
     5
 10
-105.64875060008259
 20
-267.77715091708041
 30
0.0
 11
105.64875060008249
 21
-267.77715091708041
 31
0.0
  0
LINE
  8
DETAIL
  6
CONTINUOUS
 62
     5
 10
-74.487162490844867
 20
-261.56840620562781
 30
0.0
 11
-61.468826806486497
 21
-261.56840620562781
 31
0.0
  0
LINE
  8
DETAIL
  6
CONTINUOUS
 62
     5
 10
61.468826806486277
 20
-261.56840620562781
 30
0.0
 11
74.487162489955608
 21
-261.56840620562781
 31
0.0
  0
LINE
  8
DETAIL
  6
CONTINUOUS
 62
     5
 10
71.232578569532848
 20
-259.56558533145278
 30
0.0
 11
64.723410726909279
 21
-259.56558533145278
 31
0.0
  0
LINE
  8
DETAIL
  6
CONTINUOUS
 62
     5
 10
-64.723410727798182
 20
-259.56558533145278
 30
0.0
 11
-71.232578569532961
 21
-259.56558533145278
 31
0.0
  0
LINE
  8
DETAIL
  6
CONTINUOUS
 62
     5
 10
-40.813298484080534
 20
-267.77715091708041
 30
0.0
 11
-40.813298484080534
 21
-227.7207334273628
 31
0.0
  0
LINE
  8
DETAIL
  6
CONTINUOUS
 62
     5
 10
-71.553467510995688
 20
-177.95063469705221
 30
0.0
 11
-73.671696553187729
 21
-180.06886383612601
 31
0.0
  0
LINE
  8
DETAIL
  6
CONTINUOUS
 62
     5
 10
-102.8482962858055
 20
-227.7207334273628
 30
0.0
 11
67.302025904716174
 21
-227.7207334273628
 31
0.0
  0
LINE
  8
DETAIL
  6
CONTINUOUS
 62
     5
 10
67.302025904716174
 20
-227.7207334273628
 30
0.0
 11
102.8482962858054
 21
-227.7207334273628
 31
0.0
  0
LINE
  8
DETAIL
  6
CONTINUOUS
 62
     5
 10
-25.190894916525512
 20
-267.77715091708041
 30
0.0
 11
-25.190894916525512
 21
-227.7207334273628
 31
0.0
  0
LINE
  8
DETAIL
  6
CONTINUOUS
 62
     5
 10
-13.31875881552889
 20
-176.23382680480901
 30
0.0
 11
-13.31875881552889
 21
-175.24682651651639
 31
0.0
  0
LINE
  8
DETAIL
  6
CONTINUOUS
 62
     5
 10
-10.262001855989411
 20
-267.77715091708041
 30
0.0
 11
-10.262001855989411
 21
-227.7207334273628
 31
0.0
  0
LINE
  8
DETAIL
  6
CONTINUOUS
 62
     5
 10
-81.414668547249789
 20
-220.0572485932596
 30
0.0
 11
-82.416078984781507
 21
-221.05865903079169
 31
0.0
  0
LINE
  8
DETAIL
  6
CONTINUOUS
 62
     5
 10
-82.416078984781507
 20
-221.05865903079169
 30
0.0
 11
82.416078984781507
 21
-221.05865903079169
 31
0.0
  0
LINE
  8
DETAIL
  6
CONTINUOUS
 62
     5
 10
-81.414668547249789
 20
-220.0572485932596
 30
0.0
 11
81.414668547249789
 21
-220.0572485932596
 31
0.0
  0
LINE
  8
DETAIL
  6
CONTINUOUS
 62
     5
 10
-12.34859332223925
 20
-177.95063469705221
 30
0.0
 11
-12.79081663173395
 21
-177.50840500134359
 31
0.0
  0
LINE
  8
DETAIL
  6
CONTINUOUS
 62
     5
 10
10.26200185510049
 20
-267.77715091708041
 30
0.0
 11
10.26200185510049
 21
-227.72073342736269
 31
0.0
  0
LINE
  8
DETAIL
  6
CONTINUOUS
 62
     5
 10
-73.671696553187729
 20
-180.06886383612601
 30
0.0
 11
73.671696553187729
 21
-180.06886383612601
 31
0.0
  0
LINE
  8
DETAIL
  6
CONTINUOUS
 62
     5
 10
-71.553467510995688
 20
-177.95063469705221
 30
0.0
 11
71.553467510995688
 21
-177.95063469705221
 31
0.0
  0
LINE
  8
DETAIL
  6
CONTINUOUS
 62
     5
 10
-310.43723554331473
 20
-175.24682651651639
 30
0.0
 11
-306.33958110673018
 21
-175.24682651651639
 31
0.0
  0
LINE
  8
DETAIL
  6
CONTINUOUS
 62
     5
 10
-275.1830002262584
 20
-175.24682651651639
 30
0.0
 11
275.18300022625817
 21
-175.24682651651639
 31
0.0
  0
LINE
  8
DETAIL
  6
CONTINUOUS
 62
     5
 10
306.33958110673012
 20
-175.24682651651639
 30
0.0
 11
310.4372355424257
 21
-175.24682651651639
 31
0.0
  0
LINE
  8
DETAIL
  6
CONTINUOUS
 62
     5
 10
-310.43723554331473
 20
-171.24118476727759
 30
0.0
 11
-306.33958110673018
 21
-171.24118476727759
 31
0.0
  0
LINE
  8
DETAIL
  6
CONTINUOUS
 62
     5
 10
-275.1830002262584
 20
-171.24118476727759
 30
0.0
 11
275.18300022625817
 21
-171.24118476727759
 31
0.0
  0
LINE
  8
DETAIL
  6
CONTINUOUS
 62
     5
 10
306.33958110673012
 20
-171.24118476727759
 30
0.0
 11
310.4372355424257
 21
-171.24118476727759
 31
0.0
  0
LINE
  8
DETAIL
  6
CONTINUOUS
 62
     5
 10
25.190894916525391
 20
-267.77715091708041
 30
0.0
 11
25.190894916525391
 21
-227.7207334273628
 31
0.0
  0
LINE
  8
DETAIL
  6
CONTINUOUS
 62
     5
 10
38.487721711114773
 20
-345.68688293341319
 30
0.0
 11
38.487721711114773
 21
-345.18617771509179
 31
0.0
  0
LINE
  8
DETAIL
  6
CONTINUOUS
 62
     5
 10
40.813298484080292
 20
-267.77715091708041
 30
0.0
 11
40.813298484080292
 21
-227.7207334273628
 31
0.0
  0
LINE
  8
DETAIL
  6
CONTINUOUS
 62
     5
 10
47.90097982053635
 20
-345.68688293341319
 30
0.0
 11
47.90097982053635
 21
-345.18617771509179
 31
0.0
  0
LINE
  8
DETAIL
  6
CONTINUOUS
 62
     5
 10
60.820444596543886
 20
-267.77715091708041
 30
0.0
 11
60.820444596543886
 21
-227.7207334273628
 31
0.0
  0
LINE
  8
DETAIL
  6
CONTINUOUS
 62
     5
 10
61.468826806486277
 20
-267.77715091708041
 30
0.0
 11
61.468826806486277
 21
-261.56840620562781
 31
0.0
  0
LINE
  8
DETAIL
  6
CONTINUOUS
 62
     5
 10
64.723410726909279
 20
-259.56558533145278
 30
0.0
 11
64.723410726909279
 21
-261.56840620562781
 31
0.0
  0
LINE
  8
DETAIL
  6
CONTINUOUS
 62
     5
 10
65.151140391755007
 20
-259.56558533145278
 30
0.0
 11
65.151140391755007
 21
-228.14391089249401
 31
0.0
  0
LINE
  8
DETAIL
  6
CONTINUOUS
 62
     5
 10
67.97799464822107
 20
-267.77715091708041
 30
0.0
 11
67.97799464822107
 21
-262.1497816279782
 31
0.0
  0
LINE
  8
DETAIL
  6
CONTINUOUS
 62
     5
 10
71.232578569532848
 20
-259.56558533145278
 30
0.0
 11
71.232578569532848
 21
-261.56840620562781
 31
0.0
  0
LINE
  8
DETAIL
  6
CONTINUOUS
 62
     5
 10
74.487162489955608
 20
-267.77715091708041
 30
0.0
 11
74.487162489955608
 21
-261.56840620562781
 31
0.0
  0
LINE
  8
DETAIL
  6
CONTINUOUS
 62
     5
 10
78.224659618050964
 20
-272.38363892777159
 30
0.0
 11
78.224659618050964
 21
-267.77715091708041
 31
0.0
  0
LINE
  8
DETAIL
  6
CONTINUOUS
 62
     5
 10
170.5116705140708
 20
-311.02426924779883
 30
0.0
 11
169.44195658627439
 21
-309.43582510578312
 31
0.0
  0
LINE
  8
DETAIL
  6
CONTINUOUS
 62
     5
 10
170.61538625648669
 20
-309.43582510578312
 30
0.0
 11
171.12698856927821
 21
-310.19551578259222
 31
0.0
  0
LINE
  8
DETAIL
  6
CONTINUOUS
 62
     5
 10
173.0937506442817
 20
-309.43582510578312
 30
0.0
 11
173.60535295796231
 21
-310.19551578259222
 31
0.0
  0
LINE
  8
DETAIL
  6
CONTINUOUS
 62
     5
 10
81.614950634400429
 20
-333.87668039325717
 30
0.0
 11
81.614950634400429
 21
-313.44146685502119
 31
0.0
  0
LINE
  8
DETAIL
  6
CONTINUOUS
 62
     5
 10
82.416078983892447
 20
-227.7207334273628
 30
0.0
 11
82.416078984781507
 21
-221.05865903079169
 31
0.0
  0
LINE
  8
DETAIL
  6
CONTINUOUS
 62
     5
 10
88.090121327146221
 20
-267.77715091708041
 30
0.0
 11
88.090121327146221
 21
-227.7207334273628
 31
0.0
  0
LINE
  8
DETAIL
  6
CONTINUOUS
 62
     5
 10
102.8483640267774
 20
-267.77715091708041
 30
0.0
 11
102.8483640267774
 21
-227.7207334273628
 31
0.0
  0
LINE
  8
DETAIL
  6
CONTINUOUS
 62
     5
 10
105.64880112805351
 20
-272.38363892777159
 30
0.0
 11
105.64880112805351
 21
-267.77715091708041
 31
0.0
  0
LINE
  8
DETAIL
  6
CONTINUOUS
 62
     5
 10
306.99634219335081
 20
-96.385754584217452
 30
0.0
 11
306.33958110673012
 21
-96.385754584217452
 31
0.0
  0
LINE
  8
DETAIL
  6
CONTINUOUS
 62
     5
 10
306.99634219335081
 20
-92.880818053300345
 30
0.0
 11
306.33958110673012
 21
-92.880818053300345
 31
0.0
  0
LINE
  8
DETAIL
  6
CONTINUOUS
 62
     5
 10
120.1692524682651
 20
-271.38222849112822
 30
0.0
 11
120.1692524682651
 21
-313.44146685502119
 31
0.0
  0
LINE
  8
DETAIL
  6
CONTINUOUS
 62
     5
 10
71.553471218287996
 20
-345.18617771509179
 30
0.0
 11
73.647597205118245
 21
-343.09205174337131
 31
0.0
  0
LINE
  8
DETAIL
  6
CONTINUOUS
 62
     5
 10
338.37658674129739
 20
-20.028208744414531
 30
0.0
 11
306.33958110673012
 21
-20.028208744414531
 31
0.0
  0
LINE
  8
DETAIL
  6
CONTINUOUS
 62
     5
 10
275.18300022625817
 20
-20.028208744414531
 30
0.0
 11
-275.1830002262584
 21
-20.028208744414531
 31
0.0
  0
LINE
  8
DETAIL
  6
CONTINUOUS
 62
     5
 10
-306.33958110673018
 20
-20.028208744414531
 30
0.0
 11
-338.37658674218642
 21
-20.028208744414531
 31
0.0
  0
LINE
  8
DETAIL
  6
CONTINUOUS
 62
     5
 10
311.34663329261139
 20
-18.526093088561311
 30
0.0
 11
306.33958110673012
 21
-18.526093088561311
 31
0.0
  0
LINE
  8
DETAIL
  6
CONTINUOUS
 62
     5
 10
-270.17594804037708
 20
-18.526093088561311
 30
0.0
 11
-280.19005241302852
 21
-18.526093088561311
 31
0.0
  0
LINE
  8
DETAIL
  6
CONTINUOUS
 62
     5
 10
339.50854830187518
 20
-14.52045134021159
 30
0.0
 11
258.18850156353642
 21
-14.52045134021159
 31
0.0
  0
LINE
  8
DETAIL
  6
CONTINUOUS
 62
     5
 10
-258.18850156442511
 20
-14.52045134021159
 30
0.0
 11
-339.50854830276421
 21
-14.52045134021159
 31
0.0
  0
LINE
  8
DETAIL
  6
CONTINUOUS
 62
     5
 10
348.39069111394878
 20
-10.0141043726519
 30
0.0
 11
345.18093089887827
 21
-10.0141043726519
 31
0.0
  0
LINE
  8
DETAIL
  6
CONTINUOUS
 62
     5
 10
284.32379664836287
 20
-10.0141043726519
 30
0.0
 11
-284.32379664925168
 21
-10.0141043726519
 31
0.0
  0
LINE
  8
DETAIL
  6
CONTINUOUS
 62
     5
 10
-284.32379664925168
 20
-10.0141043726519
 30
0.0
 11
-289.94126053797322
 21
-10.0141043726519
 31
0.0
  0
LINE
  8
DETAIL
  6
CONTINUOUS
 62
     5
 10
-345.18093089976708
 20
-10.0141043726519
 30
0.0
 11
-348.39069111483821
 21
-10.0141043726519
 31
0.0
  0
LINE
  8
DETAIL
  6
CONTINUOUS
 62
     5
 10
284.32379664836287
 20
-10.0141043726519
 30
0.0
 11
289.94126053797322
 21
-10.0141043726519
 31
0.0
  0
LINE
  8
DETAIL
  6
CONTINUOUS
 62
     5
 10
348.82582776175718
 20
-5.1071932299012133
 30
0.0
 11
298.85531663354078
 21
-5.1071932299012133
 31
0.0
  0
LINE
  8
DETAIL
  6
CONTINUOUS
 62
     5
 10
-348.8258277617573
 20
-5.1071932299012133
 30
0.0
 11
-298.85531663354118
 21
-5.1071932299012133
 31
0.0
  0
LINE
  8
DETAIL
  6
CONTINUOUS
 62
     5
 10
353.49788434385027
 20
-3.0042313117066901
 30
0.0
 11
-353.49788434473948
 21
-3.0042313117066901
 31
0.0
  0
LINE
  8
DETAIL
  6
CONTINUOUS
 62
     5
 10
353.49788434385027
 20
0.0
 30
0.0
 11
-353.49788434473948
 21
0.0
 31
0.0
  0
LINE
  8
DETAIL
  6
CONTINUOUS
 62
     5
 10
246.15073167818241
 20
-16.42313117036656
 30
0.0
 11
246.15073167818241
 21
-13.01833568435814
 31
0.0
  0
LINE
  8
DETAIL
  6
CONTINUOUS
 62
     5
 10
258.18850156353642
 20
-14.52045134021159
 30
0.0
 11
258.18850156353642
 21
-10.0141043726519
 31
0.0
  0
LINE
  8
DETAIL
  6
CONTINUOUS
 62
     5
 10
275.18300022625817
 20
-201.28349788434409
 30
0.0
 11
275.18300022625817
 21
-14.52045134021159
 31
0.0
  0
LINE
  8
DETAIL
  6
CONTINUOUS
 62
     5
 10
287.92887422241108
 20
-6.409026798603918
 30
0.0
 11
287.92887422241108
 21
-3.0042313117066901
 31
0.0
  0
LINE
  8
DETAIL
  6
CONTINUOUS
 62
     5
 10
299.25853999696631
 20
-5.1071932299012133
 30
0.0
 11
299.25853999696631
 21
-3.0042313117066901
 31
0.0
  0
LINE
  8
DETAIL
  6
CONTINUOUS
 62
     5
 10
302.09095644104951
 20
-201.28349788434409
 30
0.0
 11
302.09095644104951
 21
-14.52045134021159
 31
0.0
  0
LINE
  8
DETAIL
  6
CONTINUOUS
 62
     5
 10
306.33958110673012
 20
-14.52045134021159
 30
0.0
 11
306.33958110673012
 21
-201.28349788434409
 31
0.0
  0
LINE
  8
DETAIL
  6
CONTINUOUS
 62
     5
 10
306.99635025588998
 20
-92.880818053300345
 30
0.0
 11
306.99635025588998
 21
-96.385754584217452
 31
0.0
  0
LINE
  8
DETAIL
  6
CONTINUOUS
 62
     5
 10
311.34663329261139
 20
-18.526093088561311
 30
0.0
 11
311.34663329261139
 21
-14.52045134021159
 31
0.0
  0
LINE
  8
DETAIL
  6
CONTINUOUS
 62
     5
 10
341.98166431534531
 20
-13.887196766384481
 30
0.0
 11
341.98166431534531
 21
-16.42313117036656
 31
0.0
  0
LINE
  8
DETAIL
  6
CONTINUOUS
 62
     5
 10
348.82582776175718
 20
-5.1071932299012133
 30
0.0
 11
348.82582776175718
 21
-3.0042313117066901
 31
0.0
  0
LINE
  8
DETAIL
  6
CONTINUOUS
 62
     5
 10
351.99576868799687
 20
-3.0042313117066901
 30
0.0
 11
351.99576868799687
 21
-6.409026798603918
 31
0.0
  0
ARC
  8
DETAIL
  6
CONTINUOUS
 62
     5
 10
-72.301833568998987
 20
-333.87668036037093
 30
0.0
 40
9.3131170662905998
 50
180.0
 51
261.69156033789238
  0
ARC
  8
DETAIL
  6
CONTINUOUS
 62
     5
 10
-72.101551480959202
 20
-189.24866742512151
 30
0.0
 40
9.3131170662904648
 50
99.706140057205729
 51
180.0
  0
ARC
  8
DETAIL
  6
CONTINUOUS
 62
     5
 10
-114.160789844852
 20
-278.3921015511844
 30
0.0
 40
6.0084626234131528
 50
90.0
 51
180.0
  0
ARC
  8
DETAIL
  6
CONTINUOUS
 62
     5
 10
-310.43723554331473
 20
-173.2440056414525
 30
0.0
 40
2.002820874174744
 50
90.0
 51
270.0
  0
ARC
  8
DETAIL
  6
CONTINUOUS
 62
     5
 10
-11.51622002850524
 20
-176.23382680480901
 30
0.0
 40
1.802538787023934
 50
180.0
 51
224.99958628179161
  0
ARC
  8
DETAIL
  6
CONTINUOUS
 62
     5
 10
-284.32379664925168
 20
-6.409026798603918
 30
0.0
 40
3.6050775740480949
 50
180.0
 51
270.0
  0
ARC
  8
DETAIL
  6
CONTINUOUS
 62
     5
 10
-242.5456541050236
 20
-16.42313117036656
 30
0.0
 40
3.605077574047868
 50
180.0
 51
270.0
  0
ARC
  8
DETAIL
  6
CONTINUOUS
 62
     5
 10
-338.37658674218642
 20
-16.42313117036656
 30
0.0
 40
3.605077574047983
 50
180.0
 51
270.0
  0
ARC
  8
DETAIL
  6
CONTINUOUS
 62
     5
 10
-348.39069111483821
 20
-6.409026798603918
 30
0.0
 40
3.605077574047868
 50
180.0
 51
270.0
  0
ARC
  8
DETAIL
  6
CONTINUOUS
 62
     5
 10
-249.1549629907781
 20
-13.01833568435814
 30
0.0
 40
3.0042313117066901
 50
0.0
 51
90.0
  0
ARC
  8
DETAIL
  6
CONTINUOUS
 62
     5
 10
-353.49788434473948
 20
-1.5021156558532309
 30
0.0
 40
1.50211565585323
 50
90.0
 51
270.0
  0
ARC
  8
DETAIL
  6
CONTINUOUS
 62
     5
 10
72.301833568109942
 20
-333.87668036037093
 30
0.0
 40
9.3131170662905092
 50
278.30843966210762
 51
0.0
  0
ARC
  8
DETAIL
  6
CONTINUOUS
 62
     5
 10
43.194350765825561
 20
-341.1580042310153
 30
0.0
 40
6.5316995765725867
 50
223.8973981670901
 51
316.1026018329099
  0
ARC
  8
DETAIL
  6
CONTINUOUS
 62
     5
 10
114.16078984485181
 20
-278.3921015511844
 30
0.0
 40
6.0084626234132932
 50
0.0
 51
90.0
  0
ARC
  8
DETAIL
  6
CONTINUOUS
 62
     5
 10
310.4372355424257
 20
-173.2440056414525
 30
0.0
 40
2.002820874174859
 50
270.0
 51
90.0
  0
ARC
  8
DETAIL
  6
CONTINUOUS
 62
     5
 10
348.39069111394878
 20
-6.409026798603918
 30
0.0
 40
3.605077574047983
 50
270.0
 51
0.0
  0
ARC
  8
DETAIL
  6
CONTINUOUS
 62
     5
 10
242.5456541041344
 20
-16.42313117036656
 30
0.0
 40
3.6050775740477552
 50
270.0
 51
0.0
  0
ARC
  8
DETAIL
  6
CONTINUOUS
 62
     5
 10
338.37658674129739
 20
-16.42313117036656
 30
0.0
 40
3.6050775740477552
 50
270.0
 51
0.0
  0
ARC
  8
DETAIL
  6
CONTINUOUS
 62
     5
 10
284.32379664836287
 20
-6.409026798603918
 30
0.0
 40
3.605077574047983
 50
270.0
 51
0.0
  0
ARC
  8
DETAIL
  6
CONTINUOUS
 62
     5
 10
249.1549629898889
 20
-13.01833568435814
 30
0.0
 40
3.004231311706461
 50
90.0
 51
180.0
  0
ARC
  8
DETAIL
  6
CONTINUOUS
 62
     5
 10
353.49788434385027
 20
-1.5021156558532309
 30
0.0
 40
1.5021156558534581
 50
270.0
 51
90.0
  0
LINE
  8
DETAIL
  6
CONTINUOUS
 62
     5
 10
61.468826806486277
 20
-262.1497816279782
 30
0.0
 11
61.579685592202623
 21
-262.11347457077818
 31
0.0
  0
LINE
  8
DETAIL
  6
CONTINUOUS
 62
     5
 10
61.579685592202623
 20
-262.11347457077818
 30
0.0
 11
61.690717601293393
 21
-262.07773561579802
 31
0.0
  0
LINE
  8
DETAIL
  6
CONTINUOUS
 62
     5
 10
61.690717601293393
 20
-262.07773561579802
 30
0.0
 11
61.690717601293393
 21
-262.07773561579802
 31
0.0
  0
LINE
  8
DETAIL
  6
CONTINUOUS
 62
     5
 10
61.690717601293393
 20
-262.07773561579802
 30
0.0
 11
61.802071250431709
 21
-262.04301741113068
 31
0.0
  0
LINE
  8
DETAIL
  6
CONTINUOUS
 62
     5
 10
61.802071250431709
 20
-262.04301741113068
 30
0.0
 11
61.913795729483347
 21
-262.00931078837391
 31
0.0
  0
LINE
  8
DETAIL
  6
CONTINUOUS
 62
     5
 10
61.913795729483347
 20
-262.00931078837391
 30
0.0
 11
61.913795729483347
 21
-262.00931078837391
 31
0.0
  0
LINE
  8
DETAIL
  6
CONTINUOUS
 62
     5
 10
61.913795729483347
 20
-262.00931078837391
 30
0.0
 11
62.025864655610917
 21
-261.97653490454383
 31
0.0
  0
LINE
  8
DETAIL
  6
CONTINUOUS
 62
     5
 10
62.025864655610917
 20
-261.97653490454383
 30
0.0
 11
62.138048581970793
 21
-261.94478403482623
 31
0.0
  0
LINE
  8
DETAIL
  6
CONTINUOUS
 62
     5
 10
62.138048581970793
 20
-261.94478403482623
 30
0.0
 11
62.138048581970793
 21
-261.94478403482623
 31
0.0
  0
LINE
  8
DETAIL
  6
CONTINUOUS
 62
     5
 10
62.138048581970793
 20
-261.94478403482623
 30
0.0
 11
62.250295166425417
 21
-261.91413656990488
 31
0.0
  0
LINE
  8
DETAIL
  6
CONTINUOUS
 62
     5
 10
62.250295166425417
 20
-261.91413656990488
 30
0.0
 11
62.363463549670882
 21
-261.8844322442751
 31
0.0
  0
LINE
  8
DETAIL
  6
CONTINUOUS
 62
     5
 10
62.363463549670882
 20
-261.8844322442751
 30
0.0
 11
62.363463549670882
 21
-261.8844322442751
 31
0.0
  0
LINE
  8
DETAIL
  6
CONTINUOUS
 62
     5
 10
62.363463549670882
 20
-261.8844322442751
 30
0.0
 11
62.477780026279788
 21
-261.8556460050288
 31
0.0
  0
LINE
  8
DETAIL
  6
CONTINUOUS
 62
     5
 10
62.477780026279788
 20
-261.8556460050288
 30
0.0
 11
62.590028023498583
 21
-261.82853230584118
 31
0.0
  0
LINE
  8
DETAIL
  6
CONTINUOUS
 62
     5
 10
62.590028023498583
 20
-261.82853230584118
 30
0.0
 11
62.590028023498583
 21
-261.82853230584118
 31
0.0
  0
LINE
  8
DETAIL
  6
CONTINUOUS
 62
     5
 10
62.590028023498583
 20
-261.82853230584118
 30
0.0
 11
62.69748326068941
 21
-261.80371906614408
 31
0.0
  0
LINE
  8
DETAIL
  6
CONTINUOUS
 62
     5
 10
62.69748326068941
 20
-261.80371906614408
 30
0.0
 11
62.802833493001117
 21
-261.78054856182303
 31
0.0
  0
LINE
  8
DETAIL
  6
CONTINUOUS
 62
     5
 10
62.802833493001117
 20
-261.78054856182303
 30
0.0
 11
62.802833493001117
 21
-261.78054856182303
 31
0.0
  0
LINE
  8
DETAIL
  6
CONTINUOUS
 62
     5
 10
62.802833493001117
 20
-261.78054856182303
 30
0.0
 11
62.90926852548273
 21
-261.75825390275838
 31
0.0
  0
LINE
  8
DETAIL
  6
CONTINUOUS
 62
     5
 10
62.90926852548273
 20
-261.75825390275838
 30
0.0
 11
63.016574326995851
 21
-261.73691717835231
 31
0.0
  0
LINE
  8
DETAIL
  6
CONTINUOUS
 62
     5
 10
63.016574326995851
 20
-261.73691717835231
 30
0.0
 11
63.016574326995851
 21
-261.73691717835231
 31
0.0
  0
LINE
  8
DETAIL
  6
CONTINUOUS
 62
     5
 10
63.016574326995851
 20
-261.73691717835231
 30
0.0
 11
63.123892682856308
 21
-261.7167781875371
 31
0.0
  0
LINE
  8
DETAIL
  6
CONTINUOUS
 62
     5
 10
63.123892682856308
 20
-261.7167781875371
 30
0.0
 11
63.231192480385403
 21
-261.69785858783348
 31
0.0
  0
LINE
  8
DETAIL
  6
CONTINUOUS
 62
     5
 10
63.231192480385403
 20
-261.69785858783348
 30
0.0
 11
63.231192480385403
 21
-261.69785858783348
 31
0.0
  0
LINE
  8
DETAIL
  6
CONTINUOUS
 62
     5
 10
63.231192480385403
 20
-261.69785858783348
 30
0.0
 11
63.338673239447189
 21
-261.68013139793902
 31
0.0
  0
LINE
  8
DETAIL
  6
CONTINUOUS
 62
     5
 10
63.338673239447189
 20
-261.68013139793902
 30
0.0
 11
63.446629908073653
 21
-261.66359322266931
 31
0.0
  0
LINE
  8
DETAIL
  6
CONTINUOUS
 62
     5
 10
63.446629908073653
 20
-261.66359322266931
 30
0.0
 11
63.446629908073653
 21
-261.66359322266931
 31
0.0
  0
LINE
  8
DETAIL
  6
CONTINUOUS
 62
     5
 10
63.446629908073653
 20
-261.66359322266931
 30
0.0
 11
63.555079087669448
 21
-261.64827751260532
 31
0.0
  0
LINE
  8
DETAIL
  6
CONTINUOUS
 62
     5
 10
63.555079087669448
 20
-261.64827751260532
 30
0.0
 11
63.662828564963547
 21
-261.63434151526388
 31
0.0
  0
LINE
  8
DETAIL
  6
CONTINUOUS
 62
     5
 10
63.662828564963547
 20
-261.63434151526388
 30
0.0
 11
63.662828564963547
 21
-261.63434151526388
 31
0.0
  0
LINE
  8
DETAIL
  6
CONTINUOUS
 62
     5
 10
63.662828564963547
 20
-261.63434151526388
 30
0.0
 11
63.768879330925429
 21
-261.62190909041311
 31
0.0
  0
LINE
  8
DETAIL
  6
CONTINUOUS
 62
     5
 10
63.768879330925429
 20
-261.62190909041311
 30
0.0
 11
63.874214008159917
 21
-261.61084674989269
 31
0.0
  0
LINE
  8
DETAIL
  6
CONTINUOUS
 62
     5
 10
63.874214008159917
 20
-261.61084674989269
 30
0.0
 11
63.874214008159917
 21
-261.61084674989269
 31
0.0
  0
LINE
  8
DETAIL
  6
CONTINUOUS
 62
     5
 10
63.874214008159917
 20
-261.61084674989269
 30
0.0
 11
63.97999425131114
 21
-261.60100342920867
 31
0.0
  0
LINE
  8
DETAIL
  6
CONTINUOUS
 62
     5
 10
63.97999425131114
 20
-261.60100342920867
 30
0.0
 11
64.086116211540798
 21
-261.59241510645711
 31
0.0
  0
LINE
  8
DETAIL
  6
CONTINUOUS
 62
     5
 10
64.086116211540798
 20
-261.59241510645711
 30
0.0
 11
64.086116211540798
 21
-261.59241510645711
 31
0.0
  0
LINE
  8
DETAIL
  6
CONTINUOUS
 62
     5
 10
64.086116211540798
 20
-261.59241510645711
 30
0.0
 11
64.192244604779489
 21
-261.58513988350768
 31
0.0
  0
LINE
  8
DETAIL
  6
CONTINUOUS
 62
     5
 10
64.192244604779489
 20
-261.58513988350768
 30
0.0
 11
64.298383909517952
 21
-261.57913731474241
 31
0.0
  0
LINE
  8
DETAIL
  6
CONTINUOUS
 62
     5
 10
64.298383909517952
 20
-261.57913731474241
 30
0.0
 11
64.298383909517952
 21
-261.57913731474241
 31
0.0
  0
LINE
  8
DETAIL
  6
CONTINUOUS
 62
     5
 10
64.298383909517952
 20
-261.57913731474241
 30
0.0
 11
64.404600158197013
 21
-261.57439410451371
 31
0.0
  0
LINE
  8
DETAIL
  6
CONTINUOUS
 62
     5
 10
64.404600158197013
 20
-261.57439410451371
 30
0.0
 11
64.510865836503399
 21
-261.57110410453771
 31
0.0
  0
LINE
  8
DETAIL
  6
CONTINUOUS
 62
     5
 10
64.510865836503399
 20
-261.57110410453771
 30
0.0
 11
64.510865836503399
 21
-261.57110410453771
 31
0.0
  0
LINE
  8
DETAIL
  6
CONTINUOUS
 62
     5
 10
64.510865836503399
 20
-261.57110410453771
 30
0.0
 11
64.617138649550043
 21
-261.56933044287962
 31
0.0
  0
LINE
  8
DETAIL
  6
CONTINUOUS
 62
     5
 10
64.617138649550043
 20
-261.56933044287962
 30
0.0
 11
64.723410726909279
 21
-261.56840620562781
 31
0.0
  0
LINE
  8
DETAIL
  6
CONTINUOUS
 62
     5
 10
64.723410726909279
 20
-261.56840620562781
 30
0.0
 11
64.829711139961319
 21
-261.56933095267448
 31
0.0
  0
LINE
  8
DETAIL
  6
CONTINUOUS
 62
     5
 10
64.829711139961319
 20
-261.56933095267448
 30
0.0
 11
64.936012147896236
 21
-261.57110555887522
 31
0.0
  0
LINE
  8
DETAIL
  6
CONTINUOUS
 62
     5
 10
64.936012147896236
 20
-261.57110555887522
 30
0.0
 11
64.936012147896236
 21
-261.57110555887522
 31
0.0
  0
LINE
  8
DETAIL
  6
CONTINUOUS
 62
     5
 10
64.936012147896236
 20
-261.57110555887522
 30
0.0
 11
65.042305874810253
 21
-261.57439729310931
 31
0.0
  0
LINE
  8
DETAIL
  6
CONTINUOUS
 62
     5
 10
65.042305874810253
 20
-261.57439729310931
 30
0.0
 11
65.148550561649699
 21
-261.57914306315769
 31
0.0
  0
LINE
  8
DETAIL
  6
CONTINUOUS
 62
     5
 10
65.148550561649699
 20
-261.57914306315769
 30
0.0
 11
65.148550561649699
 21
-261.57914306315769
 31
0.0
  0
LINE
  8
DETAIL
  6
CONTINUOUS
 62
     5
 10
65.148550561649699
 20
-261.57914306315769
 30
0.0
 11
65.254718813541899
 21
-261.58514892459738
 31
0.0
  0
LINE
  8
DETAIL
  6
CONTINUOUS
 62
     5
 10
65.254718813541899
 20
-261.58514892459738
 30
0.0
 11
65.36087457549047
 21
-261.59242788528189
 31
0.0
  0
LINE
  8
DETAIL
  6
CONTINUOUS
 62
     5
 10
65.36087457549047
 20
-261.59242788528189
 30
0.0
 11
65.36087457549047
 21
-261.59242788528189
 31
0.0
  0
LINE
  8
DETAIL
  6
CONTINUOUS
 62
     5
 10
65.36087457549047
 20
-261.59242788528189
 30
0.0
 11
65.467021758379133
 21
-261.60102032913198
 31
0.0
  0
LINE
  8
DETAIL
  6
CONTINUOUS
 62
     5
 10
65.467021758379133
 20
-261.60102032913198
 30
0.0
 11
65.572832796740158
 21
-261.61086919205701
 31
0.0
  0
LINE
  8
DETAIL
  6
CONTINUOUS
 62
     5
 10
65.572832796740158
 20
-261.61086919205701
 30
0.0
 11
65.572832796740158
 21
-261.61086919205701
 31
0.0
  0
LINE
  8
DETAIL
  6
CONTINUOUS
 62
     5
 10
65.572832796740158
 20
-261.61086919205701
 30
0.0
 11
65.678205897401099
 21
-261.62193875790518
 31
0.0
  0
LINE
  8
DETAIL
  6
CONTINUOUS
 62
     5
 10
65.678205897401099
 20
-261.62193875790518
 30
0.0
 11
65.784273832719691
 21
-261.63437615029011
 31
0.0
  0
LINE
  8
DETAIL
  6
CONTINUOUS
 62
     5
 10
65.784273832719691
 20
-261.63437615029011
 30
0.0
 11
65.784273832719691
 21
-261.63437615029011
 31
0.0
  0
LINE
  8
DETAIL
  6
CONTINUOUS
 62
     5
 10
65.784273832719691
 20
-261.63437615029011
 30
0.0
 11
65.891994852587914
 21
-261.64831136770982
 31
0.0
  0
LINE
  8
DETAIL
  6
CONTINUOUS
 62
     5
 10
65.891994852587914
 20
-261.64831136770982
 30
0.0
 11
66.000394551503632
 21
-261.66362306843212
 31
0.0
  0
LINE
  8
DETAIL
  6
CONTINUOUS
 62
     5
 10
66.000394551503632
 20
-261.66362306843212
 30
0.0
 11
66.000394551503632
 21
-261.66362306843212
 31
0.0
  0
LINE
  8
DETAIL
  6
CONTINUOUS
 62
     5
 10
66.000394551503632
 20
-261.66362306843212
 30
0.0
 11
66.108309700930931
 21
-261.68015716189802
 31
0.0
  0
LINE
  8
DETAIL
  6
CONTINUOUS
 62
     5
 10
66.108309700930931
 20
-261.68015716189802
 30
0.0
 11
66.215754435595954
 21
-261.69787990246101
 31
0.0
  0
LINE
  8
DETAIL
  6
CONTINUOUS
 62
     5
 10
66.215754435595954
 20
-261.69787990246101
 30
0.0
 11
66.215754435595954
 21
-261.69787990246101
 31
0.0
  0
LINE
  8
DETAIL
  6
CONTINUOUS
 62
     5
 10
66.215754435595954
 20
-261.69787990246101
 30
0.0
 11
66.32301585312905
 21
-261.71679385024322
 31
0.0
  0
LINE
  8
DETAIL
  6
CONTINUOUS
 62
     5
 10
66.32301585312905
 20
-261.71679385024322
 30
0.0
 11
66.430295539514873
 21
-261.73692644351632
 31
0.0
  0
LINE
  8
DETAIL
  6
CONTINUOUS
 62
     5
 10
66.430295539514873
 20
-261.73692644351632
 30
0.0
 11
66.430295539514873
 21
-261.73692644351632
 31
0.0
  0
LINE
  8
DETAIL
  6
CONTINUOUS
 62
     5
 10
66.430295539514873
 20
-261.73692644351632
 30
0.0
 11
66.537564873657402
 21
-261.75825637570978
 31
0.0
  0
LINE
  8
DETAIL
  6
CONTINUOUS
 62
     5
 10
66.537564873657402
 20
-261.75825637570978
 30
0.0
 11
66.643959917777579
 21
-261.78054248273679
 31
0.0
  0
LINE
  8
DETAIL
  6
CONTINUOUS
 62
     5
 10
66.643959917777579
 20
-261.78054248273679
 30
0.0
 11
66.643959917777579
 21
-261.78054248273679
 31
0.0
  0
LINE
  8
DETAIL
  6
CONTINUOUS
 62
     5
 10
66.643959917777579
 20
-261.78054248273679
 30
0.0
 11
66.749264599519393
 21
-261.80370227411072
 31
0.0
  0
LINE
  8
DETAIL
  6
CONTINUOUS
 62
     5
 10
66.749264599519393
 20
-261.80370227411072
 30
0.0
 11
66.856689624901932
 21
-261.82850781126291
 31
0.0
  0
LINE
  8
DETAIL
  6
CONTINUOUS
 62
     5
 10
66.856689624901932
 20
-261.82850781126291
 30
0.0
 11
66.856689624901932
 21
-261.82850781126291
 31
0.0
  0
LINE
  8
DETAIL
  6
CONTINUOUS
 62
     5
 10
66.856689624901932
 20
-261.82850781126291
 30
0.0
 11
66.968940507395132
 21
-261.85562130125732
 31
0.0
  0
LINE
  8
DETAIL
  6
CONTINUOUS
 62
     5
 10
66.968940507395132
 20
-261.85562130125732
 30
0.0
 11
67.083275211894488
 21
-261.88441098176122
 31
0.0
  0
LINE
  8
DETAIL
  6
CONTINUOUS
 62
     5
 10
67.083275211894488
 20
-261.88441098176122
 30
0.0
 11
67.083275211894488
 21
-261.88441098176122
 31
0.0
  0
LINE
  8
DETAIL
  6
CONTINUOUS
 62
     5
 10
67.083275211894488
 20
-261.88441098176122
 30
0.0
 11
67.196456160038451
 21
-261.91411772503278
 31
0.0
  0
LINE
  8
DETAIL
  6
CONTINUOUS
 62
     5
 10
67.196456160038451
 20
-261.91411772503278
 30
0.0
 11
67.308711149012652
 21
-261.94476691108929
 31
0.0
  0
LINE
  8
DETAIL
  6
CONTINUOUS
 62
     5
 10
67.308711149012652
 20
-261.94476691108929
 30
0.0
 11
67.308711149012652
 21
-261.94476691108929
 31
0.0
  0
LINE
  8
DETAIL
  6
CONTINUOUS
 62
     5
 10
67.308711149012652
 20
-261.94476691108929
 30
0.0
 11
67.420904942542393
 21
-261.97652004656788
 31
0.0
  0
LINE
  8
DETAIL
  6
CONTINUOUS
 62
     5
 10
67.420904942542393
 20
-261.97652004656788
 30
0.0
 11
67.532984794966183
 21
-262.00929863684019
 31
0.0
  0
LINE
  8
DETAIL
  6
CONTINUOUS
 62
     5
 10
67.532984794966183
 20
-262.00929863684019
 30
0.0
 11
67.532984794966183
 21
-262.00929863684019
 31
0.0
  0
LINE
  8
DETAIL
  6
CONTINUOUS
 62
     5
 10
67.532984794966183
 20
-262.00929863684019
 30
0.0
 11
67.64471974877587
 21
-262.04300806128799
 31
0.0
  0
LINE
  8
DETAIL
  6
CONTINUOUS
 62
     5
 10
67.64471974877587
 20
-262.04300806128799
 30
0.0
 11
67.756083508465608
 21
-262.07772919660567
 31
0.0
  0
LINE
  8
DETAIL
  6
CONTINUOUS
 62
     5
 10
67.756083508465608
 20
-262.07772919660567
 30
0.0
 11
67.756083508465608
 21
-262.07772919660567
 31
0.0
  0
LINE
  8
DETAIL
  6
CONTINUOUS
 62
     5
 10
67.756083508465608
 20
-262.07772919660567
 30
0.0
 11
67.867125659374778
 21
-262.1134712968194
 31
0.0
  0
LINE
  8
DETAIL
  6
CONTINUOUS
 62
     5
 10
67.867125659374778
 20
-262.1134712968194
 30
0.0
 11
67.97799464822107
 21
-262.1497816279782
 31
0.0
  0
LINE
  8
DETAIL
  6
CONTINUOUS
 62
     5
 10
67.97799464822107
 20
-262.1497816279782
 30
0.0
 11
68.088853435544706
 21
-262.11347457027949
 31
0.0
  0
LINE
  8
DETAIL
  6
CONTINUOUS
 62
     5
 10
68.088853435544706
 20
-262.11347457027949
 30
0.0
 11
68.199885446249141
 21
-262.07773561482622
 31
0.0
  0
LINE
  8
DETAIL
  6
CONTINUOUS
 62
     5
 10
68.199885446249141
 20
-262.07773561482622
 30
0.0
 11
68.199885446249141
 21
-262.07773561482622
 31
0.0
  0
LINE
  8
DETAIL
  6
CONTINUOUS
 62
     5
 10
68.199885446249141
 20
-262.07773561482622
 30
0.0
 11
68.311239097012049
 21
-262.0430174097321
 31
0.0
  0
LINE
  8
DETAIL
  6
CONTINUOUS
 62
     5
 10
68.311239097012049
 20
-262.0430174097321
 30
0.0
 11
68.422963577698511
 21
-262.00931078658709
 31
0.0
  0
LINE
  8
DETAIL
  6
CONTINUOUS
 62
     5
 10
68.422963577698511
 20
-262.00931078658709
 30
0.0
 11
68.422963577698511
 21
-262.00931078658709
 31
0.0
  0
LINE
  8
DETAIL
  6
CONTINUOUS
 62
     5
 10
68.422963577698511
 20
-262.00931078658709
 30
0.0
 11
68.535032505469758
 21
-261.9765349023935
 31
0.0
  0
LINE
  8
DETAIL
  6
CONTINUOUS
 62
     5
 10
68.535032505469758
 20
-261.9765349023935
 30
0.0
 11
68.647216433477396
 21
-261.94478403233262
 31
0.0
  0
LINE
  8
DETAIL
  6
CONTINUOUS
 62
     5
 10
68.647216433477396
 20
-261.94478403233262
 30
0.0
 11
68.647216433477396
 21
-261.94478403233262
 31
0.0
  0
LINE
  8
DETAIL
  6
CONTINUOUS
 62
     5
 10
68.647216433477396
 20
-261.94478403233262
 30
0.0
 11
68.759463019582782
 21
-261.9141365670846
 31
0.0
  0
LINE
  8
DETAIL
  6
CONTINUOUS
 62
     5
 10
68.759463019582782
 20
-261.9141365670846
 30
0.0
 11
68.872631404494996
 21
-261.88443224113428
 31
0.0
  0
LINE
  8
DETAIL
  6
CONTINUOUS
 62
     5
 10
68.872631404494996
 20
-261.88443224113428
 30
0.0
 11
68.872631404494996
 21
-261.88443224113428
 31
0.0
  0
LINE
  8
DETAIL
  6
CONTINUOUS
 62
     5
 10
68.872631404494996
 20
-261.88443224113428
 30
0.0
 11
68.986947882789423
 21
-261.8556460015684
 31
0.0
  0
LINE
  8
DETAIL
  6
CONTINUOUS
 62
     5
 10
68.986947882789423
 20
-261.8556460015684
 30
0.0
 11
69.099195881659611
 21
-261.8285323020641
 31
0.0
  0
LINE
  8
DETAIL
  6
CONTINUOUS
 62
     5
 10
69.099195881659611
 20
-261.8285323020641
 30
0.0
 11
69.099195881659611
 21
-261.8285323020641
 31
0.0
  0
LINE
  8
DETAIL
  6
CONTINUOUS
 62
     5
 10
69.099195881659611
 20
-261.8285323020641
 30
0.0
 11
69.206651120424453
 21
-261.80371906206068
 31
0.0
  0
LINE
  8
DETAIL
  6
CONTINUOUS
 62
     5
 10
69.206651120424453
 20
-261.80371906206068
 30
0.0
 11
69.312001354286394
 21
-261.78054855745057
 31
0.0
  0
LINE
  8
DETAIL
  6
CONTINUOUS
 62
     5
 10
69.312001354286394
 20
-261.78054855745057
 30
0.0
 11
69.312001354286394
 21
-261.78054855745057
 31
0.0
  0
LINE
  8
DETAIL
  6
CONTINUOUS
 62
     5
 10
69.312001354286394
 20
-261.78054855745057
 30
0.0
 11
69.418436388345398
 21
-261.75825389812297
 31
0.0
  0
LINE
  8
DETAIL
  6
CONTINUOUS
 62
     5
 10
69.418436388345398
 20
-261.75825389812297
 30
0.0
 11
69.525742191410032
 21
-261.73691717350448
 31
0.0
  0
LINE
  8
DETAIL
  6
CONTINUOUS
 62
     5
 10
69.525742191410032
 20
-261.73691717350448
 30
0.0
 11
69.525742191410032
 21
-261.73691717350448
 31
0.0
  0
LINE
  8
DETAIL
  6
CONTINUOUS
 62
     5
 10
69.525742191410032
 20
-261.73691717350448
 30
0.0
 11
69.633060548769322
 21
-261.71677818255131
 31
0.0
  0
LINE
  8
DETAIL
  6
CONTINUOUS
 62
     5
 10
69.633060548769322
 20
-261.71677818255131
 30
0.0
 11
69.740360347927535
 21
-261.69785858278118
 31
0.0
  0
LINE
  8
DETAIL
  6
CONTINUOUS
 62
     5
 10
69.740360347927535
 20
-261.69785858278118
 30
0.0
 11
69.740360347927535
 21
-261.69785858278118
 31
0.0
  0
LINE
  8
DETAIL
  6
CONTINUOUS
 62
     5
 10
69.740360347927535
 20
-261.69785858278118
 30
0.0
 11
69.84784110880048
 21
-261.68013139290542
 31
0.0
  0
LINE
  8
DETAIL
  6
CONTINUOUS
 62
     5
 10
69.84784110880048
 20
-261.68013139290542
 30
0.0
 11
69.955797778735814
 21
-261.66359321783648
 31
0.0
  0
LINE
  8
DETAIL
  6
CONTINUOUS
 62
     5
 10
69.955797778735814
 20
-261.66359321783648
 30
0.0
 11
69.955797778735814
 21
-261.66359321783648
 31
0.0
  0
LINE
  8
DETAIL
  6
CONTINUOUS
 62
     5
 10
69.955797778735814
 20
-261.66359321783648
 30
0.0
 11
70.064246958953291
 21
-261.64827750819518
 31
0.0
  0
LINE
  8
DETAIL
  6
CONTINUOUS
 62
     5
 10
70.064246958953291
 20
-261.64827750819518
 30
0.0
 11
70.171996438731398
 21
-261.63434151122692
 31
0.0
  0
LINE
  8
DETAIL
  6
CONTINUOUS
 62
     5
 10
70.171996438731398
 20
-261.63434151122692
 30
0.0
 11
70.171996438731398
 21
-261.63434151122692
 31
0.0
  0
LINE
  8
DETAIL
  6
CONTINUOUS
 62
     5
 10
70.171996438731398
 20
-261.63434151122692
 30
0.0
 11
70.278047211196181
 21
-261.62190908647591
 31
0.0
  0
LINE
  8
DETAIL
  6
CONTINUOUS
 62
     5
 10
70.278047211196181
 20
-261.62190908647591
 30
0.0
 11
70.383381896805531
 21
-261.61084674605058
 31
0.0
  0
LINE
  8
DETAIL
  6
CONTINUOUS
 62
     5
 10
70.383381896805531
 20
-261.61084674605058
 30
0.0
 11
70.383381896805531
 21
-261.61084674605058
 31
0.0
  0
LINE
  8
DETAIL
  6
CONTINUOUS
 62
     5
 10
70.383381896805531
 20
-261.61084674605058
 30
0.0
 11
70.489162147660508
 21
-261.60100342575168
 31
0.0
  0
LINE
  8
DETAIL
  6
CONTINUOUS
 62
     5
 10
70.489162147660508
 20
-261.60100342575168
 30
0.0
 11
70.595284115103382
 21
-261.59241510358811
 31
0.0
  0
LINE
  8
DETAIL
  6
CONTINUOUS
 62
     5
 10
70.595284115103382
 20
-261.59241510358811
 30
0.0
 11
70.595284115103382
 21
-261.59241510358811
 31
0.0
  0
LINE
  8
DETAIL
  6
CONTINUOUS
 62
     5
 10
70.595284115103382
 20
-261.59241510358811
 30
0.0
 11
70.701412515743641
 21
-261.5851398812751
 31
0.0
  0
LINE
  8
DETAIL
  6
CONTINUOUS
 62
     5
 10
70.701412515743641
 20
-261.5851398812751
 30
0.0
 11
70.807551828021474
 21
-261.57913731315313
 31
0.0
  0
LINE
  8
DETAIL
  6
CONTINUOUS
 62
     5
 10
70.807551828021474
 20
-261.57913731315313
 30
0.0
 11
70.807551828021474
 21
-261.57913731315313
 31
0.0
  0
LINE
  8
DETAIL
  6
CONTINUOUS
 62
     5
 10
70.807551828021474
 20
-261.57913731315313
 30
0.0
 11
70.91376808419362
 21
-261.57439410354141
 31
0.0
  0
LINE
  8
DETAIL
  6
CONTINUOUS
 62
     5
 10
70.91376808419362
 20
-261.57439410354141
 30
0.0
 11
71.020033769955944
 21
-261.57110410406131
 31
0.0
  0
LINE
  8
DETAIL
  6
CONTINUOUS
 62
     5
 10
71.020033769955944
 20
-261.57110410406131
 30
0.0
 11
71.020033769955944
 21
-261.57110410406131
 31
0.0
  0
LINE
  8
DETAIL
  6
CONTINUOUS
 62
     5
 10
71.020033769955944
 20
-261.57110410406131
 30
0.0
 11
71.126306590468062
 21
-261.56933044270022
 31
0.0
  0
LINE
  8
DETAIL
  6
CONTINUOUS
 62
     5
 10
71.126306590468062
 20
-261.56933044270022
 30
0.0
 11
71.232578675303103
 21
-261.56840620562781
 31
0.0
  0
LINE
  8
DETAIL
  6
CONTINUOUS
 62
     5
 10
71.232578675303103
 20
-261.56840620562781
 30
0.0
 11
71.338879081673539
 21
-261.56933095287638
 31
0.0
  0
LINE
  8
DETAIL
  6
CONTINUOUS
 62
     5
 10
71.338879081673539
 20
-261.56933095287638
 30
0.0
 11
71.44518008293106
 21
-261.57110555941591
 31
0.0
  0
LINE
  8
DETAIL
  6
CONTINUOUS
 62
     5
 10
71.44518008293106
 20
-261.57110555941591
 30
0.0
 11
71.44518008293106
 21
-261.57110555941591
 31
0.0
  0
LINE
  8
DETAIL
  6
CONTINUOUS
 62
     5
 10
71.44518008293106
 20
-261.57110555941591
 30
0.0
 11
71.55147380316771
 21
-261.57439729421941
 31
0.0
  0
LINE
  8
DETAIL
  6
CONTINUOUS
 62
     5
 10
71.55147380316771
 20
-261.57439729421941
 30
0.0
 11
71.657718483296094
 21
-261.57914306499038
 31
0.0
  0
LINE
  8
DETAIL
  6
CONTINUOUS
 62
     5
 10
71.657718483296094
 20
-261.57914306499038
 30
0.0
 11
71.657718483296094
 21
-261.57914306499038
 31
0.0
  0
LINE
  8
DETAIL
  6
CONTINUOUS
 62
     5
 10
71.657718483296094
 20
-261.57914306499038
 30
0.0
 11
71.763886728441094
 21
-261.58514892720018
 31
0.0
  0
LINE
  8
DETAIL
  6
CONTINUOUS
 62
     5
 10
71.763886728441094
 20
-261.58514892720018
 30
0.0
 11
71.87004248375446
 21
-261.59242788866351
 31
0.0
  0
LINE
  8
DETAIL
  6
CONTINUOUS
 62
     5
 10
71.87004248375446
 20
-261.59242788866351
 30
0.0
 11
71.87004248375446
 21
-261.59242788866351
 31
0.0
  0
LINE
  8
DETAIL
  6
CONTINUOUS
 62
     5
 10
71.87004248375446
 20
-261.59242788866351
 30
0.0
 11
71.976189660162731
 21
-261.60102033325529
 31
0.0
  0
LINE
  8
DETAIL
  6
CONTINUOUS
 62
     5
 10
71.976189660162731
 20
-261.60102033325529
 30
0.0
 11
72.082000691662643
 21
-261.61086919674722
 31
0.0
  0
LINE
  8
DETAIL
  6
CONTINUOUS
 62
     5
 10
72.082000691662643
 20
-261.61086919674722
 30
0.0
 11
72.082000691662643
 21
-261.61086919674722
 31
0.0
  0
LINE
  8
DETAIL
  6
CONTINUOUS
 62
     5
 10
72.082000691662643
 20
-261.61086919674722
 30
0.0
 11
72.187373784941983
 21
-261.62193876290212
 31
0.0
  0
LINE
  8
DETAIL
  6
CONTINUOUS
 62
     5
 10
72.187373784941983
 20
-261.62193876290212
 30
0.0
 11
72.293441714377551
 21
-261.63437615555557
 31
0.0
  0
LINE
  8
DETAIL
  6
CONTINUOUS
 62
     5
 10
72.293441714377551
 20
-261.63437615555557
 30
0.0
 11
72.293441714377551
 21
-261.63437615555557
 31
0.0
  0
LINE
  8
DETAIL
  6
CONTINUOUS
 62
     5
 10
72.293441714377551
 20
-261.63437615555557
 30
0.0
 11
72.401162731565805
 21
-261.64831137340741
 31
0.0
  0
LINE
  8
DETAIL
  6
CONTINUOUS
 62
     5
 10
72.401162731565805
 20
-261.64831137340741
 30
0.0
 11
72.509562429293169
 21
-261.66362307454762
 31
0.0
  0
LINE
  8
DETAIL
  6
CONTINUOUS
 62
     5
 10
72.509562429293169
 20
-261.66362307454762
 30
0.0
 11
72.509562429293169
 21
-261.66362307454762
 31
0.0
  0
LINE
  8
DETAIL
  6
CONTINUOUS
 62
     5
 10
72.509562429293169
 20
-261.66362307454762
 30
0.0
 11
72.617477577000258
 21
-261.68015716820668
 31
0.0
  0
LINE
  8
DETAIL
  6
CONTINUOUS
 62
     5
 10
72.617477577000258
 20
-261.68015716820668
 30
0.0
 11
72.724922309557655
 21
-261.69787990877808
 31
0.0
  0
LINE
  8
DETAIL
  6
CONTINUOUS
 62
     5
 10
72.724922309557655
 20
-261.69787990877808
 30
0.0
 11
72.724922309557655
 21
-261.69787990877808
 31
0.0
  0
LINE
  8
DETAIL
  6
CONTINUOUS
 62
     5
 10
72.724922309557655
 20
-261.69787990877808
 30
0.0
 11
72.832183725135451
 21
-261.71679385646712
 31
0.0
  0
LINE
  8
DETAIL
  6
CONTINUOUS
 62
     5
 10
72.832183725135451
 20
-261.71679385646712
 30
0.0
 11
72.939463409673863
 21
-261.73692644956287
 31
0.0
  0
LINE
  8
DETAIL
  6
CONTINUOUS
 62
     5
 10
72.939463409673863
 20
-261.73692644956287
 30
0.0
 11
72.939463409673863
 21
-261.73692644956287
 31
0.0
  0
LINE
  8
DETAIL
  6
CONTINUOUS
 62
     5
 10
72.939463409673863
 20
-261.73692644956287
 30
0.0
 11
73.046732741928295
 21
-261.75825638150133
 31
0.0
  0
LINE
  8
DETAIL
  6
CONTINUOUS
 62
     5
 10
73.046732741928295
 20
-261.75825638150133
 30
0.0
 11
73.153127784144544
 21
-261.78054248822082
 31
0.0
  0
LINE
  8
DETAIL
  6
CONTINUOUS
 62
     5
 10
73.153127784144544
 20
-261.78054248822082
 30
0.0
 11
73.153127784144544
 21
-261.78054248822082
 31
0.0
  0
LINE
  8
DETAIL
  6
CONTINUOUS
 62
     5
 10
73.153127784144544
 20
-261.78054248822082
 30
0.0
 11
73.258432464008479
 21
-261.80370227926261
 31
0.0
  0
LINE
  8
DETAIL
  6
CONTINUOUS
 62
     5
 10
73.258432464008479
 20
-261.80370227926261
 30
0.0
 11
73.365857487472567
 21
-261.82850781606862
 31
0.0
  0
LINE
  8
DETAIL
  6
CONTINUOUS
 62
     5
 10
73.365857487472567
 20
-261.82850781606862
 30
0.0
 11
73.365857487472567
 21
-261.82850781606862
 31
0.0
  0
LINE
  8
DETAIL
  6
CONTINUOUS
 62
     5
 10
73.365857487472567
 20
-261.82850781606862
 30
0.0
 11
73.478108367941445
 21
-261.85562130570912
 31
0.0
  0
LINE
  8
DETAIL
  6
CONTINUOUS
 62
     5
 10
73.478108367941445
 20
-261.85562130570912
 30
0.0
 11
73.592443070362947
 21
-261.88441098585622
 31
0.0
  0
LINE
  8
DETAIL
  6
CONTINUOUS
 62
     5
 10
73.592443070362947
 20
-261.88441098585622
 30
0.0
 11
73.592443070362947
 21
-261.88441098585622
 31
0.0
  0
LINE
  8
DETAIL
  6
CONTINUOUS
 62
     5
 10
73.592443070362947
 20
-261.88441098585622
 30
0.0
 11
73.705624016439629
 21
-261.91411772876808
 31
0.0
  0
LINE
  8
DETAIL
  6
CONTINUOUS
 62
     5
 10
73.705624016439629
 20
-261.91411772876808
 30
0.0
 11
73.81787900335155
 21
-261.94476691444652
 31
0.0
  0
LINE
  8
DETAIL
  6
CONTINUOUS
 62
     5
 10
73.81787900335155
 20
-261.94476691444652
 30
0.0
 11
73.81787900335155
 21
-261.94476691444652
 31
0.0
  0
LINE
  8
DETAIL
  6
CONTINUOUS
 62
     5
 10
73.81787900335155
 20
-261.94476691444652
 30
0.0
 11
73.930072794806506
 21
-261.97652004951402
 31
0.0
  0
LINE
  8
DETAIL
  6
CONTINUOUS
 62
     5
 10
73.930072794806506
 20
-261.97652004951402
 30
0.0
 11
74.042152645143574
 21
-262.00929863933328
 31
0.0
  0
LINE
  8
DETAIL
  6
CONTINUOUS
 62
     5
 10
74.042152645143574
 20
-262.00929863933328
 30
0.0
 11
74.042152645143574
 21
-262.00929863933328
 31
0.0
  0
LINE
  8
DETAIL
  6
CONTINUOUS
 62
     5
 10
74.042152645143574
 20
-262.00929863933328
 30
0.0
 11
74.153887596858681
 21
-262.04300806327763
 31
0.0
  0
LINE
  8
DETAIL
  6
CONTINUOUS
 62
     5
 10
74.153887596858681
 20
-262.04300806327763
 30
0.0
 11
74.265251354443308
 21
-262.07772919801278
 31
0.0
  0
LINE
  8
DETAIL
  6
CONTINUOUS
 62
     5
 10
74.265251354443308
 20
-262.07772919801278
 30
0.0
 11
74.265251354443308
 21
-262.07772919801278
 31
0.0
  0
LINE
  8
DETAIL
  6
CONTINUOUS
 62
     5
 10
74.265251354443308
 20
-262.07772919801278
 30
0.0
 11
74.376293503234592
 21
-262.11347129754972
 31
0.0
  0
LINE
  8
DETAIL
  6
CONTINUOUS
 62
     5
 10
74.376293503234592
 20
-262.11347129754972
 30
0.0
 11
74.487162489955608
 21
-262.1497816279782
 31
0.0
  0
LINE
  8
DETAIL
  6
CONTINUOUS
 62
     5
 10
-74.487162490844867
 20
-262.1497816279782
 30
0.0
 11
-74.376303705110203
 21
-262.11347457077818
 31
0.0
  0
LINE
  8
DETAIL
  6
CONTINUOUS
 62
     5
 10
-74.376303705110203
 20
-262.11347457077818
 30
0.0
 11
-74.265271695988062
 21
-262.07773561579802
 31
0.0
  0
LINE
  8
DETAIL
  6
CONTINUOUS
 62
     5
 10
-74.265271695988062
 20
-262.07773561579802
 30
0.0
 11
-74.265271695988062
 21
-262.07773561579802
 31
0.0
  0
LINE
  8
DETAIL
  6
CONTINUOUS
 62
     5
 10
-74.265271695988062
 20
-262.07773561579802
 30
0.0
 11
-74.153918046795411
 21
-262.04301741113068
 31
0.0
  0
LINE
  8
DETAIL
  6
CONTINUOUS
 62
     5
 10
-74.153918046795411
 20
-262.04301741113068
 30
0.0
 11
-74.042193567671916
 21
-262.00931078837391
 31
0.0
  0
LINE
  8
DETAIL
  6
CONTINUOUS
 62
     5
 10
-74.042193567671916
 20
-262.00931078837391
 30
0.0
 11
-74.042193567671916
 21
-262.00931078837391
 31
0.0
  0
LINE
  8
DETAIL
  6
CONTINUOUS
 62
     5
 10
-74.042193567671916
 20
-262.00931078837391
 30
0.0
 11
-73.930124641462271
 21
-261.97653490454383
 31
0.0
  0
LINE
  8
DETAIL
  6
CONTINUOUS
 62
     5
 10
-73.930124641462271
 20
-261.97653490454383
 30
0.0
 11
-73.817940715014515
 21
-261.94478403482623
 31
0.0
  0
LINE
  8
DETAIL
  6
CONTINUOUS
 62
     5
 10
-73.817940715014515
 20
-261.94478403482623
 30
0.0
 11
-73.817940715014515
 21
-261.94478403482623
 31
0.0
  0
LINE
  8
DETAIL
  6
CONTINUOUS
 62
     5
 10
-73.817940715014515
 20
-261.94478403482623
 30
0.0
 11
-73.705694130469283
 21
-261.91413656990488
 31
0.0
  0
LINE
  8
DETAIL
  6
CONTINUOUS
 62
     5
 10
-73.705694130469283
 20
-261.91413656990488
 30
0.0
 11
-73.592525747134687
 21
-261.8844322442751
 31
0.0
  0
LINE
  8
DETAIL
  6
CONTINUOUS
 62
     5
 10
-73.592525747134687
 20
-261.8844322442751
 30
0.0
 11
-73.592525747134687
 21
-261.8844322442751
 31
0.0
  0
LINE
  8
DETAIL
  6
CONTINUOUS
 62
     5
 10
-73.592525747134687
 20
-261.8844322442751
 30
0.0
 11
-73.478209270442349
 21
-261.8556460050288
 31
0.0
  0
LINE
  8
DETAIL
  6
CONTINUOUS
 62
     5
 10
-73.478209270442349
 20
-261.8556460050288
 30
0.0
 11
-73.365961273151242
 21
-261.82853230584118
 31
0.0
  0
LINE
  8
DETAIL
  6
CONTINUOUS
 62
     5
 10
-73.365961273151242
 20
-261.82853230584118
 30
0.0
 11
-73.365961273151242
 21
-261.82853230584118
 31
0.0
  0
LINE
  8
DETAIL
  6
CONTINUOUS
 62
     5
 10
-73.365961273151242
 20
-261.82853230584118
 30
0.0
 11
-73.258506035903324
 21
-261.80371906614408
 31
0.0
  0
LINE
  8
DETAIL
  6
CONTINUOUS
 62
     5
 10
-73.258506035903324
 20
-261.80371906614408
 30
0.0
 11
-73.153155803547193
 21
-261.78054856182303
 31
0.0
  0
LINE
  8
DETAIL
  6
CONTINUOUS
 62
     5
 10
-73.153155803547193
 20
-261.78054856182303
 30
0.0
 11
-73.153155803547193
 21
-261.78054856182303
 31
0.0
  0
LINE
  8
DETAIL
  6
CONTINUOUS
 62
     5
 10
-73.153155803547193
 20
-261.78054856182303
 30
0.0
 11
-73.046720771030778
 21
-261.75825390275838
 31
0.0
  0
LINE
  8
DETAIL
  6
CONTINUOUS
 62
     5
 10
-73.046720771030778
 20
-261.75825390275838
 30
0.0
 11
-72.939414969491182
 21
-261.73691717835231
 31
0.0
  0
LINE
  8
DETAIL
  6
CONTINUOUS
 62
     5
 10
-72.939414969491182
 20
-261.73691717835231
 30
0.0
 11
-72.939414969491182
 21
-261.73691717835231
 31
0.0
  0
LINE
  8
DETAIL
  6
CONTINUOUS
 62
     5
 10
-72.939414969491182
 20
-261.73691717835231
 30
0.0
 11
-72.832096613611839
 21
-261.7167781875371
 31
0.0
  0
LINE
  8
DETAIL
  6
CONTINUOUS
 62
     5
 10
-72.832096613611839
 20
-261.7167781875371
 30
0.0
 11
-72.724796816070111
 21
-261.69785858783348
 31
0.0
  0
LINE
  8
DETAIL
  6
CONTINUOUS
 62
     5
 10
-72.724796816070111
 20
-261.69785858783348
 30
0.0
 11
-72.724796816070111
 21
-261.69785858783348
 31
0.0
  0
LINE
  8
DETAIL
  6
CONTINUOUS
 62
     5
 10
-72.724796816070111
 20
-261.69785858783348
 30
0.0
 11
-72.617316057000608
 21
-261.68013139793902
 31
0.0
  0
LINE
  8
DETAIL
  6
CONTINUOUS
 62
     5
 10
-72.617316057000608
 20
-261.68013139793902
 30
0.0
 11
-72.509359388370271
 21
-261.66359322266931
 31
0.0
  0
LINE
  8
DETAIL
  6
CONTINUOUS
 62
     5
 10
-72.509359388370271
 20
-261.66359322266931
 30
0.0
 11
-72.509359388370271
 21
-261.66359322266931
 31
0.0
  0
LINE
  8
DETAIL
  6
CONTINUOUS
 62
     5
 10
-72.509359388370271
 20
-261.66359322266931
 30
0.0
 11
-72.400910208772984
 21
-261.64827751260532
 31
0.0
  0
LINE
  8
DETAIL
  6
CONTINUOUS
 62
     5
 10
-72.400910208772984
 20
-261.64827751260532
 30
0.0
 11
-72.293160731478451
 21
-261.63434151526388
 31
0.0
  0
LINE
  8
DETAIL
  6
CONTINUOUS
 62
     5
 10
-72.293160731478451
 20
-261.63434151526388
 30
0.0
 11
-72.293160731478451
 21
-261.63434151526388
 31
0.0
  0
LINE
  8
DETAIL
  6
CONTINUOUS
 62
     5
 10
-72.293160731478451
 20
-261.63434151526388
 30
0.0
 11
-72.187109965516811
 21
-261.62190909041311
 31
0.0
  0
LINE
  8
DETAIL
  6
CONTINUOUS
 62
     5
 10
-72.187109965516811
 20
-261.62190909041311
 30
0.0
 11
-72.081775288282188
 21
-261.61084674989269
 31
0.0
  0
LINE
  8
DETAIL
  6
CONTINUOUS
 62
     5
 10
-72.081775288282188
 20
-261.61084674989269
 30
0.0
 11
-72.081775288282188
 21
-261.61084674989269
 31
0.0
  0
LINE
  8
DETAIL
  6
CONTINUOUS
 62
     5
 10
-72.081775288282188
 20
-261.61084674989269
 30
0.0
 11
-71.975995045131057
 21
-261.60100342920867
 31
0.0
  0
LINE
  8
DETAIL
  6
CONTINUOUS
 62
     5
 10
-71.975995045131057
 20
-261.60100342920867
 30
0.0
 11
-71.869873084901442
 21
-261.59241510645711
 31
0.0
  0
LINE
  8
DETAIL
  6
CONTINUOUS
 62
     5
 10
-71.869873084901442
 20
-261.59241510645711
 30
0.0
 11
-71.869873084901442
 21
-261.59241510645711
 31
0.0
  0
LINE
  8
DETAIL
  6
CONTINUOUS
 62
     5
 10
-71.869873084901442
 20
-261.59241510645711
 30
0.0
 11
-71.763744691662623
 21
-261.58513988350768
 31
0.0
  0
LINE
  8
DETAIL
  6
CONTINUOUS
 62
     5
 10
-71.763744691662623
 20
-261.58513988350768
 30
0.0
 11
-71.657605386924146
 21
-261.57913731474241
 31
0.0
  0
LINE
  8
DETAIL
  6
CONTINUOUS
 62
     5
 10
-71.657605386924146
 20
-261.57913731474241
 30
0.0
 11
-71.657605386924146
 21
-261.57913731474241
 31
0.0
  0
LINE
  8
DETAIL
  6
CONTINUOUS
 62
     5
 10
-71.657605386924146
 20
-261.57913731474241
 30
0.0
 11
-71.551389138245199
 21
-261.57439410451371
 31
0.0
  0
LINE
  8
DETAIL
  6
CONTINUOUS
 62
     5
 10
-71.551389138245199
 20
-261.57439410451371
 30
0.0
 11
-71.445123459938813
 21
-261.57110410453771
 31
0.0
  0
LINE
  8
DETAIL
  6
CONTINUOUS
 62
     5
 10
-71.445123459938813
 20
-261.57110410453771
 30
0.0
 11
-71.445123459938813
 21
-261.57110410453771
 31
0.0
  0
LINE
  8
DETAIL
  6
CONTINUOUS
 62
     5
 10
-71.445123459938813
 20
-261.57110410453771
 30
0.0
 11
-71.338850646892055
 21
-261.56933044287962
 31
0.0
  0
LINE
  8
DETAIL
  6
CONTINUOUS
 62
     5
 10
-71.338850646892055
 20
-261.56933044287962
 30
0.0
 11
-71.232578569532961
 21
-261.56840620562781
 31
0.0
  0
LINE
  8
DETAIL
  6
CONTINUOUS
 62
     5
 10
-71.232578569532961
 20
-261.56840620562781
 30
0.0
 11
-71.126278156480907
 21
-261.56933095267448
 31
0.0
  0
LINE
  8
DETAIL
  6
CONTINUOUS
 62
     5
 10
-71.126278156480907
 20
-261.56933095267448
 30
0.0
 11
-71.019977148545976
 21
-261.57110555887522
 31
0.0
  0
LINE
  8
DETAIL
  6
CONTINUOUS
 62
     5
 10
-71.019977148545976
 20
-261.57110555887522
 30
0.0
 11
-71.019977148545976
 21
-261.57110555887522
 31
0.0
  0
LINE
  8
DETAIL
  6
CONTINUOUS
 62
     5
 10
-71.019977148545976
 20
-261.57110555887522
 30
0.0
 11
-70.913683421631731
 21
-261.57439729310931
 31
0.0
  0
LINE
  8
DETAIL
  6
CONTINUOUS
 62
     5
 10
-70.913683421631731
 20
-261.57439729310931
 30
0.0
 11
-70.807438734792527
 21
-261.57914306315769
 31
0.0
  0
LINE
  8
DETAIL
  6
CONTINUOUS
 62
     5
 10
-70.807438734792527
 20
-261.57914306315769
 30
0.0
 11
-70.807438734792527
 21
-261.57914306315769
 31
0.0
  0
LINE
  8
DETAIL
  6
CONTINUOUS
 62
     5
 10
-70.807438734792527
 20
-261.57914306315769
 30
0.0
 11
-70.7012704829001
 21
-261.58514892459738
 31
0.0
  0
LINE
  8
DETAIL
  6
CONTINUOUS
 62
     5
 10
-70.7012704829001
 20
-261.58514892459738
 30
0.0
 11
-70.595114720951642
 21
-261.59242788528189
 31
0.0
  0
LINE
  8
DETAIL
  6
CONTINUOUS
 62
     5
 10
-70.595114720951642
 20
-261.59242788528189
 30
0.0
 11
-70.595114720951642
 21
-261.59242788528189
 31
0.0
  0
LINE
  8
DETAIL
  6
CONTINUOUS
 62
     5
 10
-70.595114720951642
 20
-261.59242788528189
 30
0.0
 11
-70.488967538063207
 21
-261.60102032913198
 31
0.0
  0
LINE
  8
DETAIL
  6
CONTINUOUS
 62
     5
 10
-70.488967538063207
 20
-261.60102032913198
 30
0.0
 11
-70.383156499701954
 21
-261.61086919205701
 31
0.0
  0
LINE
  8
DETAIL
  6
CONTINUOUS
 62
     5
 10
-70.383156499701954
 20
-261.61086919205701
 30
0.0
 11
-70.383156499701954
 21
-261.61086919205701
 31
0.0
  0
LINE
  8
DETAIL
  6
CONTINUOUS
 62
     5
 10
-70.383156499701954
 20
-261.61086919205701
 30
0.0
 11
-70.277783399041027
 21
-261.62193875790518
 31
0.0
  0
LINE
  8
DETAIL
  6
CONTINUOUS
 62
     5
 10
-70.277783399041027
 20
-261.62193875790518
 30
0.0
 11
-70.171715463722549
 21
-261.63437615029011
 31
0.0
  0
LINE
  8
DETAIL
  6
CONTINUOUS
 62
     5
 10
-70.171715463722549
 20
-261.63437615029011
 30
0.0
 11
-70.171715463722549
 21
-261.63437615029011
 31
0.0
  0
LINE
  8
DETAIL
  6
CONTINUOUS
 62
     5
 10
-70.171715463722549
 20
-261.63437615029011
 30
0.0
 11
-70.063994443854313
 21
-261.64831136770982
 31
0.0
  0
LINE
  8
DETAIL
  6
CONTINUOUS
 62
     5
 10
-70.063994443854313
 20
-261.64831136770982
 30
0.0
 11
-69.955594744938594
 21
-261.66362306843212
 31
0.0
  0
LINE
  8
DETAIL
  6
CONTINUOUS
 62
     5
 10
-69.955594744938594
 20
-261.66362306843212
 30
0.0
 11
-69.955594744938594
 21
-261.66362306843212
 31
0.0
  0
LINE
  8
DETAIL
  6
CONTINUOUS
 62
     5
 10
-69.955594744938594
 20
-261.66362306843212
 30
0.0
 11
-69.847679595511295
 21
-261.68015716189802
 31
0.0
  0
LINE
  8
DETAIL
  6
CONTINUOUS
 62
     5
 10
-69.847679595511295
 20
-261.68015716189802
 30
0.0
 11
-69.740234860846272
 21
-261.69787990246101
 31
0.0
  0
LINE
  8
DETAIL
  6
CONTINUOUS
 62
     5
 10
-69.740234860846272
 20
-261.69787990246101
 30
0.0
 11
-69.740234860846272
 21
-261.69787990246101
 31
0.0
  0
LINE
  8
DETAIL
  6
CONTINUOUS
 62
     5
 10
-69.740234860846272
 20
-261.69787990246101
 30
0.0
 11
-69.632973443313404
 21
-261.71679385024322
 31
0.0
  0
LINE
  8
DETAIL
  6
CONTINUOUS
 62
     5
 10
-69.632973443313404
 20
-261.71679385024322
 30
0.0
 11
-69.52569375692724
 21
-261.73692644351632
 31
0.0
  0
LINE
  8
DETAIL
  6
CONTINUOUS
 62
     5
 10
-69.52569375692724
 20
-261.73692644351632
 30
0.0
 11
-69.52569375692724
 21
-261.73692644351632
 31
0.0
  0
LINE
  8
DETAIL
  6
CONTINUOUS
 62
     5
 10
-69.52569375692724
 20
-261.73692644351632
 30
0.0
 11
-69.41842442278471
 21
-261.75825637570978
 31
0.0
  0
LINE
  8
DETAIL
  6
CONTINUOUS
 62
     5
 10
-69.41842442278471
 20
-261.75825637570978
 30
0.0
 11
-69.31202937866442
 21
-261.78054248273679
 31
0.0
  0
LINE
  8
DETAIL
  6
CONTINUOUS
 62
     5
 10
-69.31202937866442
 20
-261.78054248273679
 30
0.0
 11
-69.31202937866442
 21
-261.78054248273679
 31
0.0
  0
LINE
  8
DETAIL
  6
CONTINUOUS
 62
     5
 10
-69.31202937866442
 20
-261.78054248273679
 30
0.0
 11
-69.20672469692272
 21
-261.80370227411072
 31
0.0
  0
LINE
  8
DETAIL
  6
CONTINUOUS
 62
     5
 10
-69.20672469692272
 20
-261.80370227411072
 30
0.0
 11
-69.09929967154018
 21
-261.82850781126291
 31
0.0
  0
LINE
  8
DETAIL
  6
CONTINUOUS
 62
     5
 10
-69.09929967154018
 20
-261.82850781126291
 30
0.0
 11
-69.09929967154018
 21
-261.82850781126291
 31
0.0
  0
LINE
  8
DETAIL
  6
CONTINUOUS
 62
     5
 10
-69.09929967154018
 20
-261.82850781126291
 30
0.0
 11
-68.98704878904698
 21
-261.85562130125732
 31
0.0
  0
LINE
  8
DETAIL
  6
CONTINUOUS
 62
     5
 10
-68.98704878904698
 20
-261.85562130125732
 30
0.0
 11
-68.87271408454761
 21
-261.88441098176122
 31
0.0
  0
LINE
  8
DETAIL
  6
CONTINUOUS
 62
     5
 10
-68.87271408454761
 20
-261.88441098176122
 30
0.0
 11
-68.87271408454761
 21
-261.88441098176122
 31
0.0
  0
LINE
  8
DETAIL
  6
CONTINUOUS
 62
     5
 10
-68.87271408454761
 20
-261.88441098176122
 30
0.0
 11
-68.759533136403888
 21
-261.91411772503278
 31
0.0
  0
LINE
  8
DETAIL
  6
CONTINUOUS
 62
     5
 10
-68.759533136403888
 20
-261.91411772503278
 30
0.0
 11
-68.647278147429688
 21
-261.94476691108929
 31
0.0
  0
LINE
  8
DETAIL
  6
CONTINUOUS
 62
     5
 10
-68.647278147429688
 20
-261.94476691108929
 30
0.0
 11
-68.647278147429688
 21
-261.94476691108929
 31
0.0
  0
LINE
  8
DETAIL
  6
CONTINUOUS
 62
     5
 10
-68.647278147429688
 20
-261.94476691108929
 30
0.0
 11
-68.535084353899833
 21
-261.97652004656788
 31
0.0
  0
LINE
  8
DETAIL
  6
CONTINUOUS
 62
     5
 10
-68.535084353899833
 20
-261.97652004656788
 30
0.0
 11
-68.423004501476044
 21
-262.00929863684019
 31
0.0
  0
LINE
  8
DETAIL
  6
CONTINUOUS
 62
     5
 10
-68.423004501476044
 20
-262.00929863684019
 30
0.0
 11
-68.423004501476044
 21
-262.00929863684019
 31
0.0
  0
LINE
  8
DETAIL
  6
CONTINUOUS
 62
     5
 10
-68.423004501476044
 20
-262.00929863684019
 30
0.0
 11
-68.311269547666257
 21
-262.04300806128799
 31
0.0
  0
LINE
  8
DETAIL
  6
CONTINUOUS
 62
     5
 10
-68.311269547666257
 20
-262.04300806128799
 30
0.0
 11
-68.199905787976491
 21
-262.07772919660567
 31
0.0
  0
LINE
  8
DETAIL
  6
CONTINUOUS
 62
     5
 10
-68.199905787976491
 20
-262.07772919660567
 30
0.0
 11
-68.199905787976491
 21
-262.07772919660567
 31
0.0
  0
LINE
  8
DETAIL
  6
CONTINUOUS
 62
     5
 10
-68.199905787976491
 20
-262.07772919660567
 30
0.0
 11
-68.088863637067448
 21
-262.1134712968194
 31
0.0
  0
LINE
  8
DETAIL
  6
CONTINUOUS
 62
     5
 10
-68.088863637067448
 20
-262.1134712968194
 30
0.0
 11
-67.97799464822117
 21
-262.1497816279782
 31
0.0
  0
LINE
  8
DETAIL
  6
CONTINUOUS
 62
     5
 10
-67.97799464822117
 20
-262.1497816279782
 30
0.0
 11
-67.867135860897292
 21
-262.11347457027949
 31
0.0
  0
LINE
  8
DETAIL
  6
CONTINUOUS
 62
     5
 10
-67.867135860897292
 20
-262.11347457027949
 30
0.0
 11
-67.756103850192858
 21
-262.07773561482622
 31
0.0
  0
LINE
  8
DETAIL
  6
CONTINUOUS
 62
     5
 10
-67.756103850192858
 20
-262.07773561482622
 30
0.0
 11
-67.756103850192858
 21
-262.07773561482622
 31
0.0
  0
LINE
  8
DETAIL
  6
CONTINUOUS
 62
     5
 10
-67.756103850192858
 20
-262.07773561482622
 30
0.0
 11
-67.644750199430405
 21
-262.0430174097321
 31
0.0
  0
LINE
  8
DETAIL
  6
CONTINUOUS
 62
     5
 10
-67.644750199430405
 20
-262.0430174097321
 30
0.0
 11
-67.533025718743829
 21
-262.00931078658709
 31
0.0
  0
LINE
  8
DETAIL
  6
CONTINUOUS
 62
     5
 10
-67.533025718743829
 20
-262.00931078658709
 30
0.0
 11
-67.533025718743829
 21
-262.00931078658709
 31
0.0
  0
LINE
  8
DETAIL
  6
CONTINUOUS
 62
     5
 10
-67.533025718743829
 20
-262.00931078658709
 30
0.0
 11
-67.420956790972468
 21
-261.9765349023935
 31
0.0
  0
LINE
  8
DETAIL
  6
CONTINUOUS
 62
     5
 10
-67.420956790972468
 20
-261.9765349023935
 30
0.0
 11
-67.308772862964815
 21
-261.94478403233262
 31
0.0
  0
LINE
  8
DETAIL
  6
CONTINUOUS
 62
     5
 10
-67.308772862964815
 20
-261.94478403233262
 30
0.0
 11
-67.308772862964815
 21
-261.94478403233262
 31
0.0
  0
LINE
  8
DETAIL
  6
CONTINUOUS
 62
     5
 10
-67.308772862964815
 20
-261.94478403233262
 30
0.0
 11
-67.196526276859231
 21
-261.9141365670846
 31
0.0
  0
LINE
  8
DETAIL
  6
CONTINUOUS
 62
     5
 10
-67.196526276859231
 20
-261.9141365670846
 30
0.0
 11
-67.083357891947117
 21
-261.88443224113428
 31
0.0
  0
LINE
  8
DETAIL
  6
CONTINUOUS
 62
     5
 10
-67.083357891947117
 20
-261.88443224113428
 30
0.0
 11
-67.083357891947117
 21
-261.88443224113428
 31
0.0
  0
LINE
  8
DETAIL
  6
CONTINUOUS
 62
     5
 10
-67.083357891947117
 20
-261.88443224113428
 30
0.0
 11
-66.969041413652931
 21
-261.8556460015684
 31
0.0
  0
LINE
  8
DETAIL
  6
CONTINUOUS
 62
     5
 10
-66.969041413652931
 20
-261.8556460015684
 30
0.0
 11
-66.856793414782601
 21
-261.8285323020641
 31
0.0
  0
LINE
  8
DETAIL
  6
CONTINUOUS
 62
     5
 10
-66.856793414782601
 20
-261.8285323020641
 30
0.0
 11
-66.856793414782601
 21
-261.8285323020641
 31
0.0
  0
LINE
  8
DETAIL
  6
CONTINUOUS
 62
     5
 10
-66.856793414782601
 20
-261.8285323020641
 30
0.0
 11
-66.749338176017773
 21
-261.80371906206068
 31
0.0
  0
LINE
  8
DETAIL
  6
CONTINUOUS
 62
     5
 10
-66.749338176017773
 20
-261.80371906206068
 30
0.0
 11
-66.643987942155718
 21
-261.78054855745057
 31
0.0
  0
LINE
  8
DETAIL
  6
CONTINUOUS
 62
     5
 10
-66.643987942155718
 20
-261.78054855745057
 30
0.0
 11
-66.643987942155718
 21
-261.78054855745057
 31
0.0
  0
LINE
  8
DETAIL
  6
CONTINUOUS
 62
     5
 10
-66.643987942155718
 20
-261.78054855745057
 30
0.0
 11
-66.537552908096814
 21
-261.75825389812297
 31
0.0
  0
LINE
  8
DETAIL
  6
CONTINUOUS
 62
     5
 10
-66.537552908096814
 20
-261.75825389812297
 30
0.0
 11
-66.430247105032095
 21
-261.73691717350448
 31
0.0
  0
LINE
  8
DETAIL
  6
CONTINUOUS
 62
     5
 10
-66.430247105032095
 20
-261.73691717350448
 30
0.0
 11
-66.430247105032095
 21
-261.73691717350448
 31
0.0
  0
LINE
  8
DETAIL
  6
CONTINUOUS
 62
     5
 10
-66.430247105032095
 20
-261.73691717350448
 30
0.0
 11
-66.322928747672904
 21
-261.71677818255131
 31
0.0
  0
LINE
  8
DETAIL
  6
CONTINUOUS
 62
     5
 10
-66.322928747672904
 20
-261.71677818255131
 30
0.0
 11
-66.215628948514563
 21
-261.69785858278118
 31
0.0
  0
LINE
  8
DETAIL
  6
CONTINUOUS
 62
     5
 10
-66.215628948514563
 20
-261.69785858278118
 30
0.0
 11
-66.215628948514563
 21
-261.69785858278118
 31
0.0
  0
LINE
  8
DETAIL
  6
CONTINUOUS
 62
     5
 10
-66.215628948514563
 20
-261.69785858278118
 30
0.0
 11
-66.10814818764176
 21
-261.68013139290542
 31
0.0
  0
LINE
  8
DETAIL
  6
CONTINUOUS
 62
     5
 10
-66.10814818764176
 20
-261.68013139290542
 30
0.0
 11
-66.000191517706526
 21
-261.66359321783648
 31
0.0
  0
LINE
  8
DETAIL
  6
CONTINUOUS
 62
     5
 10
-66.000191517706526
 20
-261.66359321783648
 30
0.0
 11
-66.000191517706526
 21
-261.66359321783648
 31
0.0
  0
LINE
  8
DETAIL
  6
CONTINUOUS
 62
     5
 10
-66.000191517706526
 20
-261.66359321783648
 30
0.0
 11
-65.891742337488949
 21
-261.64827750819518
 31
0.0
  0
LINE
  8
DETAIL
  6
CONTINUOUS
 62
     5
 10
-65.891742337488949
 20
-261.64827750819518
 30
0.0
 11
-65.783992857710928
 21
-261.63434151122692
 31
0.0
  0
LINE
  8
DETAIL
  6
CONTINUOUS
 62
     5
 10
-65.783992857710928
 20
-261.63434151122692
 30
0.0
 11
-65.783992857710928
 21
-261.63434151122692
 31
0.0
  0
LINE
  8
DETAIL
  6
CONTINUOUS
 62
     5
 10
-65.783992857710928
 20
-261.63434151122692
 30
0.0
 11
-65.677942085246173
 21
-261.62190908647591
 31
0.0
  0
LINE
  8
DETAIL
  6
CONTINUOUS
 62
     5
 10
-65.677942085246173
 20
-261.62190908647591
 30
0.0
 11
-65.572607399636809
 21
-261.61084674605058
 31
0.0
  0
LINE
  8
DETAIL
  6
CONTINUOUS
 62
     5
 10
-65.572607399636809
 20
-261.61084674605058
 30
0.0
 11
-65.572607399636809
 21
-261.61084674605058
 31
0.0
  0
LINE
  8
DETAIL
  6
CONTINUOUS
 62
     5
 10
-65.572607399636809
 20
-261.61084674605058
 30
0.0
 11
-65.466827148781704
 21
-261.60100342575168
 31
0.0
  0
LINE
  8
DETAIL
  6
CONTINUOUS
 62
     5
 10
-65.466827148781704
 20
-261.60100342575168
 30
0.0
 11
-65.360705181338744
 21
-261.59241510358811
 31
0.0
  0
LINE
  8
DETAIL
  6
CONTINUOUS
 62
     5
 10
-65.360705181338744
 20
-261.59241510358811
 30
0.0
 11
-65.360705181338744
 21
-261.59241510358811
 31
0.0
  0
LINE
  8
DETAIL
  6
CONTINUOUS
 62
     5
 10
-65.360705181338744
 20
-261.59241510358811
 30
0.0
 11
-65.254576780698571
 21
-261.5851398812751
 31
0.0
  0
LINE
  8
DETAIL
  6
CONTINUOUS
 62
     5
 10
-65.254576780698571
 20
-261.5851398812751
 30
0.0
 11
-65.148437468420752
 21
-261.57913731315313
 31
0.0
  0
LINE
  8
DETAIL
  6
CONTINUOUS
 62
     5
 10
-65.148437468420752
 20
-261.57913731315313
 30
0.0
 11
-65.148437468420752
 21
-261.57913731315313
 31
0.0
  0
LINE
  8
DETAIL
  6
CONTINUOUS
 62
     5
 10
-65.148437468420752
 20
-261.57913731315313
 30
0.0
 11
-65.042221212248705
 21
-261.57439410354141
 31
0.0
  0
LINE
  8
DETAIL
  6
CONTINUOUS
 62
     5
 10
-65.042221212248705
 20
-261.57439410354141
 30
0.0
 11
-64.935955526486168
 21
-261.57110410406131
 31
0.0
  0
LINE
  8
DETAIL
  6
CONTINUOUS
 62
     5
 10
-64.935955526486168
 20
-261.57110410406131
 30
0.0
 11
-64.935955526486168
 21
-261.57110410406131
 31
0.0
  0
LINE
  8
DETAIL
  6
CONTINUOUS
 62
     5
 10
-64.935955526486168
 20
-261.57110410406131
 30
0.0
 11
-64.829682705974164
 21
-261.56933044270022
 31
0.0
  0
LINE
  8
DETAIL
  6
CONTINUOUS
 62
     5
 10
-64.829682705974164
 20
-261.56933044270022
 30
0.0
 11
-64.723410621139237
 21
-261.56840620562781
 31
0.0
  0
LINE
  8
DETAIL
  6
CONTINUOUS
 62
     5
 10
-64.723410621139237
 20
-261.56840620562781
 30
0.0
 11
-64.617110214768786
 21
-261.56933095287638
 31
0.0
  0
LINE
  8
DETAIL
  6
CONTINUOUS
 62
     5
 10
-64.617110214768786
 20
-261.56933095287638
 30
0.0
 11
-64.510809213512189
 21
-261.57110555941591
 31
0.0
  0
LINE
  8
DETAIL
  6
CONTINUOUS
 62
     5
 10
-64.510809213512189
 20
-261.57110555941591
 30
0.0
 11
-64.510809213512189
 21
-261.57110555941591
 31
0.0
  0
LINE
  8
DETAIL
  6
CONTINUOUS
 62
     5
 10
-64.510809213512189
 20
-261.57110555941591
 30
0.0
 11
-64.404515493278382
 21
-261.57439729421941
 31
0.0
  0
LINE
  8
DETAIL
  6
CONTINUOUS
 62
     5
 10
-64.404515493278382
 20
-261.57439729421941
 30
0.0
 11
-64.298270813155114
 21
-261.57914306499038
 31
0.0
  0
LINE
  8
DETAIL
  6
CONTINUOUS
 62
     5
 10
-64.298270813155114
 20
-261.57914306499038
 30
0.0
 11
-64.298270813155114
 21
-261.57914306499038
 31
0.0
  0
LINE
  8
DETAIL
  6
CONTINUOUS
 62
     5
 10
-64.298270813155114
 20
-261.57914306499038
 30
0.0
 11
-64.192102568018754
 21
-261.58514892720018
 31
0.0
  0
LINE
  8
DETAIL
  6
CONTINUOUS
 62
     5
 10
-64.192102568018754
 20
-261.58514892720018
 30
0.0
 11
-64.085946812718134
 21
-261.59242788866351
 31
0.0
  0
LINE
  8
DETAIL
  6
CONTINUOUS
 62
     5
 10
-64.085946812718134
 20
-261.59242788866351
 30
0.0
 11
-64.085946812718134
 21
-261.59242788866351
 31
0.0
  0
LINE
  8
DETAIL
  6
CONTINUOUS
 62
     5
 10
-64.085946812718134
 20
-261.59242788866351
 30
0.0
 11
-63.979799636327712
 21
-261.60102033325529
 31
0.0
  0
LINE
  8
DETAIL
  6
CONTINUOUS
 62
     5
 10
-63.979799636327712
 20
-261.60102033325529
 30
0.0
 11
-63.87398860485132
 21
-261.61086919674722
 31
0.0
  0
LINE
  8
DETAIL
  6
CONTINUOUS
 62
     5
 10
-63.87398860485132
 20
-261.61086919674722
 30
0.0
 11
-63.87398860485132
 21
-261.61086919674722
 31
0.0
  0
LINE
  8
DETAIL
  6
CONTINUOUS
 62
     5
 10
-63.87398860485132
 20
-261.61086919674722
 30
0.0
 11
-63.76861551160242
 21
-261.62193876290212
 31
0.0
  0
LINE
  8
DETAIL
  6
CONTINUOUS
 62
     5
 10
-63.76861551160242
 20
-261.62193876290212
 30
0.0
 11
-63.662547582205207
 21
-261.63437615555557
 31
0.0
  0
LINE
  8
DETAIL
  6
CONTINUOUS
 62
     5
 10
-63.662547582205207
 20
-261.63437615555557
 30
0.0
 11
-63.662547582205207
 21
-261.63437615555557
 31
0.0
  0
LINE
  8
DETAIL
  6
CONTINUOUS
 62
     5
 10
-63.662547582205207
 20
-261.63437615555557
 30
0.0
 11
-63.554826565064097
 21
-261.64831137340741
 31
0.0
  0
LINE
  8
DETAIL
  6
CONTINUOUS
 62
     5
 10
-63.554826565064097
 20
-261.64831137340741
 30
0.0
 11
-63.446426867391317
 21
-261.66362307454762
 31
0.0
  0
LINE
  8
DETAIL
  6
CONTINUOUS
 62
     5
 10
-63.446426867391317
 20
-261.66362307454762
 30
0.0
 11
-63.446426867391317
 21
-261.66362307454762
 31
0.0
  0
LINE
  8
DETAIL
  6
CONTINUOUS
 62
     5
 10
-63.446426867391317
 20
-261.66362307454762
 30
0.0
 11
-63.338511719744361
 21
-261.68015716820668
 31
0.0
  0
LINE
  8
DETAIL
  6
CONTINUOUS
 62
     5
 10
-63.338511719744361
 20
-261.68015716820668
 30
0.0
 11
-63.231066987250408
 21
-261.69787990877808
 31
0.0
  0
LINE
  8
DETAIL
  6
CONTINUOUS
 62
     5
 10
-63.231066987250408
 20
-261.69787990877808
 30
0.0
 11
-63.231066987250408
 21
-261.69787990877808
 31
0.0
  0
LINE
  8
DETAIL
  6
CONTINUOUS
 62
     5
 10
-63.231066987250408
 20
-261.69787990877808
 30
0.0
 11
-63.123805571738103
 21
-261.71679385646712
 31
0.0
  0
LINE
  8
DETAIL
  6
CONTINUOUS
 62
     5
 10
-63.123805571738103
 20
-261.71679385646712
 30
0.0
 11
-63.016525887265402
 21
-261.73692644956287
 31
0.0
  0
LINE
  8
DETAIL
  6
CONTINUOUS
 62
     5
 10
-63.016525887265402
 20
-261.73692644956287
 30
0.0
 11
-63.016525887265402
 21
-261.73692644956287
 31
0.0
  0
LINE
  8
DETAIL
  6
CONTINUOUS
 62
     5
 10
-63.016525887265402
 20
-261.73692644956287
 30
0.0
 11
-62.909256555075331
 21
-261.75825638150133
 31
0.0
  0
LINE
  8
DETAIL
  6
CONTINUOUS
 62
     5
 10
-62.909256555075331
 20
-261.75825638150133
 30
0.0
 11
-62.80286151291989
 21
-261.78054248822082
 31
0.0
  0
LINE
  8
DETAIL
  6
CONTINUOUS
 62
     5
 10
-62.80286151291989
 20
-261.78054248822082
 30
0.0
 11
-62.80286151291989
 21
-261.78054248822082
 31
0.0
  0
LINE
  8
DETAIL
  6
CONTINUOUS
 62
     5
 10
-62.80286151291989
 20
-261.78054248822082
 30
0.0
 11
-62.697556833111427
 21
-261.80370227926261
 31
0.0
  0
LINE
  8
DETAIL
  6
CONTINUOUS
 62
     5
 10
-62.697556833111427
 20
-261.80370227926261
 30
0.0
 11
-62.590131809696913
 21
-261.82850781606862
 31
0.0
  0
LINE
  8
DETAIL
  6
CONTINUOUS
 62
     5
 10
-62.590131809696913
 20
-261.82850781606862
 30
0.0
 11
-62.590131809696913
 21
-261.82850781606862
 31
0.0
  0
LINE
  8
DETAIL
  6
CONTINUOUS
 62
     5
 10
-62.590131809696913
 20
-261.82850781606862
 30
0.0
 11
-62.477880929270327
 21
-261.85562130570912
 31
0.0
  0
LINE
  8
DETAIL
  6
CONTINUOUS
 62
     5
 10
-62.477880929270327
 20
-261.85562130570912
 30
0.0
 11
-62.36354622687827
 21
-261.88441098585622
 31
0.0
  0
LINE
  8
DETAIL
  6
CONTINUOUS
 62
     5
 10
-62.36354622687827
 20
-261.88441098585622
 30
0.0
 11
-62.36354622687827
 21
-261.88441098585622
 31
0.0
  0
LINE
  8
DETAIL
  6
CONTINUOUS
 62
     5
 10
-62.36354622687827
 20
-261.88441098585622
 30
0.0
 11
-62.250365280812282
 21
-261.91411772876808
 31
0.0
  0
LINE
  8
DETAIL
  6
CONTINUOUS
 62
     5
 10
-62.250365280812282
 20
-261.91411772876808
 30
0.0
 11
-62.138110293887507
 21
-261.94476691444652
 31
0.0
  0
LINE
  8
DETAIL
  6
CONTINUOUS
 62
     5
 10
-62.138110293887507
 20
-261.94476691444652
 30
0.0
 11
-62.138110293887507
 21
-261.94476691444652
 31
0.0
  0
LINE
  8
DETAIL
  6
CONTINUOUS
 62
     5
 10
-62.138110293887507
 20
-261.94476691444652
 30
0.0
 11
-62.025916502392427
 21
-261.97652004951402
 31
0.0
  0
LINE
  8
DETAIL
  6
CONTINUOUS
 62
     5
 10
-62.025916502392427
 20
-261.97652004951402
 30
0.0
 11
-61.913836651985207
 21
-262.00929863933328
 31
0.0
  0
LINE
  8
DETAIL
  6
CONTINUOUS
 62
     5
 10
-61.913836651985207
 20
-262.00929863933328
 30
0.0
 11
-61.913836651985207
 21
-262.00929863933328
 31
0.0
  0
LINE
  8
DETAIL
  6
CONTINUOUS
 62
     5
 10
-61.913836651985207
 20
-262.00929863933328
 30
0.0
 11
-61.802101700165608
 21
-262.04300806327763
 31
0.0
  0
LINE
  8
DETAIL
  6
CONTINUOUS
 62
     5
 10
-61.802101700165608
 20
-262.04300806327763
 30
0.0
 11
-61.690737942431269
 21
-262.07772919801278
 31
0.0
  0
LINE
  8
DETAIL
  6
CONTINUOUS
 62
     5
 10
-61.690737942431269
 20
-262.07772919801278
 30
0.0
 11
-61.690737942431269
 21
-262.07772919801278
 31
0.0
  0
LINE
  8
DETAIL
  6
CONTINUOUS
 62
     5
 10
-61.690737942431269
 20
-262.07772919801278
 30
0.0
 11
-61.579695793438432
 21
-262.11347129754972
 31
0.0
  0
LINE
  8
DETAIL
  6
CONTINUOUS
 62
     5
 10
-61.579695793438432
 20
-262.11347129754972
 30
0.0
 11
-61.468826806486497
 21
-262.1497816279782
 31
0.0
  0
LINE
  8
DETAIL
  6
CONTINUOUS
 62
     5
 10
44.716774604042598
 20
-347.32465248452291
 30
0.0
 11
44.69833486289258
 21
-347.33296640221818
 31
0.0
  0
LINE
  8
DETAIL
  6
CONTINUOUS
 62
     5
 10
44.69833486289258
 20
-347.33296640221818
 30
0.0
 11
44.679916101889937
 21
-347.34128085719732
 31
0.0
  0
LINE
  8
DETAIL
  6
CONTINUOUS
 62
     5
 10
44.679916101889937
 20
-347.34128085719732
 30
0.0
 11
44.679916101889937
 21
-347.34128085719732
 31
0.0
  0
LINE
  8
DETAIL
  6
CONTINUOUS
 62
     5
 10
44.679916101889937
 20
-347.34128085719732
 30
0.0
 11
44.661519426449672
 21
-347.34960120386597
 31
0.0
  0
LINE
  8
DETAIL
  6
CONTINUOUS
 62
     5
 10
44.661519426449672
 20
-347.34960120386597
 30
0.0
 11
44.643066443056682
 21
-347.35795206512438
 31
0.0
  0
LINE
  8
DETAIL
  6
CONTINUOUS
 62
     5
 10
44.643066443056682
 20
-347.35795206512438
 30
0.0
 11
44.643066443056682
 21
-347.35795206512438
 31
0.0
  0
LINE
  8
DETAIL
  6
CONTINUOUS
 62
     5
 10
44.643066443056682
 20
-347.35795206512438
 30
0.0
 11
44.624535618829327
 21
-347.36633022650972
 31
0.0
  0
LINE
  8
DETAIL
  6
CONTINUOUS
 62
     5
 10
44.624535618829327
 20
-347.36633022650972
 30
0.0
 11
44.606212362350561
 21
-347.37460185561463
 31
0.0
  0
LINE
  8
DETAIL
  6
CONTINUOUS
 62
     5
 10
44.606212362350561
 20
-347.37460185561463
 30
0.0
 11
44.606212362350561
 21
-347.37460185561463
 31
0.0
  0
LINE
  8
DETAIL
  6
CONTINUOUS
 62
     5
 10
44.606212362350561
 20
-347.37460185561463
 30
0.0
 11
44.588171750837319
 21
-347.38272626636831
 31
0.0
  0
LINE
  8
DETAIL
  6
CONTINUOUS
 62
     5
 10
44.588171750837319
 20
-347.38272626636831
 30
0.0
 11
44.569340594578989
 21
-347.39116597598053
 31
0.0
  0
LINE
  8
DETAIL
  6
CONTINUOUS
 62
     5
 10
44.569340594578989
 20
-347.39116597598053
 30
0.0
 11
44.569340594578989
 21
-347.39116597598053
 31
0.0
  0
LINE
  8
DETAIL
  6
CONTINUOUS
 62
     5
 10
44.569340594578989
 20
-347.39116597598053
 30
0.0
 11
44.549430168695153
 21
-347.40003875368438
 31
0.0
  0
LINE
  8
DETAIL
  6
CONTINUOUS
 62
     5
 10
44.549430168695153
 20
-347.40003875368438
 30
0.0
 11
44.532437874550283
 21
-347.40758017353232
 31
0.0
  0
LINE
  8
DETAIL
  6
CONTINUOUS
 62
     5
 10
44.532437874550283
 20
-347.40758017353232
 30
0.0
 11
44.532437874550283
 21
-347.40758017353232
 31
0.0
  0
LINE
  8
DETAIL
  6
CONTINUOUS
 62
     5
 10
44.532437874550283
 20
-347.40758017353232
 30
0.0
 11
44.521743376938844
 21
-347.41230206123652
 31
0.0
  0
LINE
  8
DETAIL
  6
CONTINUOUS
 62
     5
 10
44.521743376938844
 20
-347.41230206123652
 30
0.0
 11
44.513969268126743
 21
-347.41570344433131
 31
0.0
  0
LINE
  8
DETAIL
  6
CONTINUOUS
 62
     5
 10
44.513969268126743
 20
-347.41570344433131
 30
0.0
 11
44.513969268126743
 21
-347.41570344433131
 31
0.0
  0
LINE
  8
DETAIL
  6
CONTINUOUS
 62
     5
 10
44.513969268126743
 20
-347.41570344433131
 30
0.0
 11
44.5051193062626
 21
-347.41955414621572
 31
0.0
  0
LINE
  8
DETAIL
  6
CONTINUOUS
 62
     5
 10
44.5051193062626
 20
-347.41955414621572
 30
0.0
 11
44.495478985552268
 21
-347.42371997192748
 31
0.0
  0
LINE
  8
DETAIL
  6
CONTINUOUS
 62
     5
 10
44.495478985552268
 20
-347.42371997192748
 30
0.0
 11
44.495478985552268
 21
-347.42371997192748
 31
0.0
  0
LINE
  8
DETAIL
  6
CONTINUOUS
 62
     5
 10
44.495478985552268
 20
-347.42371997192748
 30
0.0
 11
44.486117412286717
 21
-347.42771826696139
 31
0.0
  0
LINE
  8
DETAIL
  6
CONTINUOUS
 62
     5
 10
44.486117412286717
 20
-347.42771826696139
 30
0.0
 11
44.476956405037747
 21
-347.43157655699372
 31
0.0
  0
LINE
  8
DETAIL
  6
CONTINUOUS
 62
     5
 10
44.476956405037747
 20
-347.43157655699372
 30
0.0
 11
44.476956405037747
 21
-347.43157655699372
 31
0.0
  0
LINE
  8
DETAIL
  6
CONTINUOUS
 62
     5
 10
44.476956405037747
 20
-347.43157655699372
 30
0.0
 11
44.467707814152277
 21
-347.43541573715282
 31
0.0
  0
LINE
  8
DETAIL
  6
CONTINUOUS
 62
     5
 10
44.467707814152277
 20
-347.43541573715282
 30
0.0
 11
44.45839090479511
 21
-347.43922000020132
 31
0.0
  0
LINE
  8
DETAIL
  6
CONTINUOUS
 62
     5
 10
44.45839090479511
 20
-347.43922000020132
 30
0.0
 11
44.45839090479511
 21
-347.43922000020132
 31
0.0
  0
LINE
  8
DETAIL
  6
CONTINUOUS
 62
     5
 10
44.45839090479511
 20
-347.43922000020132
 30
0.0
 11
44.449081202946452
 21
-347.44294852063172
 31
0.0
  0
LINE
  8
DETAIL
  6
CONTINUOUS
 62
     5
 10
44.449081202946452
 20
-347.44294852063172
 30
0.0
 11
44.439771863035162
 21
-347.44659710222442
 31
0.0
  0
LINE
  8
DETAIL
  6
CONTINUOUS
 62
     5
 10
44.439771863035162
 20
-347.44659710222442
 30
0.0
 11
44.439771863035162
 21
-347.44659710222442
 31
0.0
  0
LINE
  8
DETAIL
  6
CONTINUOUS
 62
     5
 10
44.439771863035162
 20
-347.44659710222442
 30
0.0
 11
44.430441573240053
 21
-347.45017134706598
 31
0.0
  0
LINE
  8
DETAIL
  6
CONTINUOUS
 62
     5
 10
44.430441573240053
 20
-347.45017134706598
 30
0.0
 11
44.421093528291863
 21
-347.45367942117849
 31
0.0
  0
LINE
  8
DETAIL
  6
CONTINUOUS
 62
     5
 10
44.421093528291863
 20
-347.45367942117849
 30
0.0
 11
44.421093528291863
 21
-347.45367942117849
 31
0.0
  0
LINE
  8
DETAIL
  6
CONTINUOUS
 62
     5
 10
44.421093528291863
 20
-347.45367942117849
 30
0.0
 11
44.411735571056397
 21
-347.45713078903168
 31
0.0
  0
LINE
  8
DETAIL
  6
CONTINUOUS
 62
     5
 10
44.411735571056397
 20
-347.45713078903168
 30
0.0
 11
44.402369630388193
 21
-347.46053754495972
 31
0.0
  0
LINE
  8
DETAIL
  6
CONTINUOUS
 62
     5
 10
44.402369630388193
 20
-347.46053754495972
 30
0.0
 11
44.402369630388193
 21
-347.46053754495972
 31
0.0
  0
LINE
  8
DETAIL
  6
CONTINUOUS
 62
     5
 10
44.402369630388193
 20
-347.46053754495972
 30
0.0
 11
44.392996552802288
 21
-347.46391226459667
 31
0.0
  0
LINE
  8
DETAIL
  6
CONTINUOUS
 62
     5
 10
44.392996552802288
 20
-347.46391226459667
 30
0.0
 11
44.383618769469187
 21
-347.4672668189055
 31
0.0
  0
LINE
  8
DETAIL
  6
CONTINUOUS
 62
     5
 10
44.383618769469187
 20
-347.4672668189055
 30
0.0
 11
44.383618769469187
 21
-347.4672668189055
 31
0.0
  0
LINE
  8
DETAIL
  6
CONTINUOUS
 62
     5
 10
44.383618769469187
 20
-347.4672668189055
 30
0.0
 11
44.374239001570231
 21
-347.4706129498868
 31
0.0
  0
LINE
  8
DETAIL
  6
CONTINUOUS
 62
     5
 10
44.374239001570231
 20
-347.4706129498868
 30
0.0
 11
44.36485954568036
 21
-347.47396258835511
 31
0.0
  0
LINE
  8
DETAIL
  6
CONTINUOUS
 62
     5
 10
44.36485954568036
 20
-347.47396258835511
 30
0.0
 11
44.36485954568036
 21
-347.47396258835511
 31
0.0
  0
LINE
  8
DETAIL
  6
CONTINUOUS
 62
     5
 10
44.36485954568036
 20
-347.47396258835511
 30
0.0
 11
44.355482620666407
 21
-347.47732769968269
 31
0.0
  0
LINE
  8
DETAIL
  6
CONTINUOUS
 62
     5
 10
44.355482620666407
 20
-347.47732769968269
 30
0.0
 11
44.3461105591673
 21
-347.48072019864799
 31
0.0
  0
LINE
  8
DETAIL
  6
CONTINUOUS
 62
     5
 10
44.3461105591673
 20
-347.48072019864799
 30
0.0
 11
44.3461105591673
 21
-347.48072019864799
 31
0.0
  0
LINE
  8
DETAIL
  6
CONTINUOUS
 62
     5
 10
44.3461105591673
 20
-347.48072019864799
 30
0.0
 11
44.336744993709431
 21
-347.48414806111498
 31
0.0
  0
LINE
  8
DETAIL
  6
CONTINUOUS
 62
     5
 10
44.336744993709431
 20
-347.48414806111498
 30
0.0
 11
44.327384642591937
 21
-347.4876035578875
 31
0.0
  0
LINE
  8
DETAIL
  6
CONTINUOUS
 62
     5
 10
44.327384642591937
 20
-347.4876035578875
 30
0.0
 11
44.327384642591937
 21
-347.4876035578875
 31
0.0
  0
LINE
  8
DETAIL
  6
CONTINUOUS
 62
     5
 10
44.327384642591937
 20
-347.4876035578875
 30
0.0
 11
44.318027497599587
 21
-347.49107503259307
 31
0.0
  0
LINE
  8
DETAIL
  6
CONTINUOUS
 62
     5
 10
44.318027497599587
 20
-347.49107503259307
 30
0.0
 11
44.308671558684857
 21
-347.49455082523218
 31
0.0
  0
LINE
  8
DETAIL
  6
CONTINUOUS
 62
     5
 10
44.308671558684857
 20
-347.49455082523218
 30
0.0
 11
44.308671558684857
 21
-347.49455082523218
 31
0.0
  0
LINE
  8
DETAIL
  6
CONTINUOUS
 62
     5
 10
44.308671558684857
 20
-347.49455082523218
 30
0.0
 11
44.299314827296477
 21
-347.49801927513522
 31
0.0
  0
LINE
  8
DETAIL
  6
CONTINUOUS
 62
     5
 10
44.299314827296477
 20
-347.49801927513522
 30
0.0
 11
44.289955302693443
 21
-347.50146872260842
 31
0.0
  0
LINE
  8
DETAIL
  6
CONTINUOUS
 62
     5
 10
44.289955302693443
 20
-347.50146872260842
 30
0.0
 11
44.289955302693443
 21
-347.50146872260842
 31
0.0
  0
LINE
  8
DETAIL
  6
CONTINUOUS
 62
     5
 10
44.289955302693443
 20
-347.50146872260842
 30
0.0
 11
44.280590983734562
 21
-347.50488750813452
 31
0.0
  0
LINE
  8
DETAIL
  6
CONTINUOUS
 62
     5
 10
44.280590983734562
 20
-347.50488750813452
 30
0.0
 11
44.271219869865263
 21
-347.50826397193771
 31
0.0
  0
LINE
  8
DETAIL
  6
CONTINUOUS
 62
     5
 10
44.271219869865263
 20
-347.50826397193771
 30
0.0
 11
44.271219869865263
 21
-347.50826397193771
 31
0.0
  0
LINE
  8
DETAIL
  6
CONTINUOUS
 62
     5
 10
44.271219869865263
 20
-347.50826397193771
 30
0.0
 11
44.261839960637758
 21
-347.51158645419332
 31
0.0
  0
LINE
  8
DETAIL
  6
CONTINUOUS
 62
     5
 10
44.261839960637758
 20
-347.51158645419332
 30
0.0
 11
44.252449255447686
 21
-347.51484329514648
 31
0.0
  0
LINE
  8
DETAIL
  6
CONTINUOUS
 62
     5
 10
44.252449255447686
 20
-347.51484329514648
 30
0.0
 11
44.252449255447686
 21
-347.51484329514648
 31
0.0
  0
LINE
  8
DETAIL
  6
CONTINUOUS
 62
     5
 10
44.252449255447686
 20
-347.51484329514648
 30
0.0
 11
44.243046232747133
 21
-347.51802560038698
 31
0.0
  0
LINE
  8
DETAIL
  6
CONTINUOUS
 62
     5
 10
44.243046232747133
 20
-347.51802560038698
 30
0.0
 11
44.233631287373669
 21
-347.52113553681619
 31
0.0
  0
LINE
  8
DETAIL
  6
CONTINUOUS
 62
     5
 10
44.233631287373669
 20
-347.52113553681619
 30
0.0
 11
44.233631287373669
 21
-347.52113553681619
 31
0.0
  0
LINE
  8
DETAIL
  6
CONTINUOUS
 62
     5
 10
44.233631287373669
 20
-347.52113553681619
 30
0.0
 11
44.224205293258251
 21
-347.52417803666231
 31
0.0
  0
LINE
  8
DETAIL
  6
CONTINUOUS
 62
     5
 10
44.224205293258251
 20
-347.52417803666231
 30
0.0
 11
44.214769124319673
 21
-347.5271580321612
 31
0.0
  0
LINE
  8
DETAIL
  6
CONTINUOUS
 62
     5
 10
44.214769124319673
 20
-347.5271580321612
 30
0.0
 11
44.214769124319673
 21
-347.5271580321612
 31
0.0
  0
LINE
  8
DETAIL
  6
CONTINUOUS
 62
     5
 10
44.214769124319673
 20
-347.5271580321612
 30
0.0
 11
44.205323654476047
 21
-347.53008045554702
 31
0.0
  0
LINE
  8
DETAIL
  6
CONTINUOUS
 62
     5
 10
44.205323654476047
 20
-347.53008045554702
 30
0.0
 11
44.195869757647188
 21
-347.53295023905531
 31
0.0
  0
LINE
  8
DETAIL
  6
CONTINUOUS
 62
     5
 10
44.195869757647188
 20
-347.53295023905531
 30
0.0
 11
44.195869757647188
 21
-347.53295023905531
 31
0.0
  0
LINE
  8
DETAIL
  6
CONTINUOUS
 62
     5
 10
44.195869757647188
 20
-347.53295023905531
 30
0.0
 11
44.18640830775449
 21
-347.53577231491761
 31
0.0
  0
LINE
  8
DETAIL
  6
CONTINUOUS
 62
     5
 10
44.18640830775449
 20
-347.53577231491761
 30
0.0
 11
44.176940178718162
 21
-347.53855161536927
 31
0.0
  0
LINE
  8
DETAIL
  6
CONTINUOUS
 62
     5
 10
44.176940178718162
 20
-347.53855161536927
 30
0.0
 11
44.176940178718162
 21
-347.53855161536927
 31
0.0
  0
LINE
  8
DETAIL
  6
CONTINUOUS
 62
     5
 10
44.176940178718162
 20
-347.53855161536927
 30
0.0
 11
44.167466244457962
 21
-347.54129307264458
 31
0.0
  0
LINE
  8
DETAIL
  6
CONTINUOUS
 62
     5
 10
44.167466244457962
 20
-347.54129307264458
 30
0.0
 11
44.157987378894177
 21
-347.54400161897752
 31
0.0
  0
LINE
  8
DETAIL
  6
CONTINUOUS
 62
     5
 10
44.157987378894177
 20
-347.54400161897752
 30
0.0
 11
44.157987378894177
 21
-347.54400161897752
 31
0.0
  0
LINE
  8
DETAIL
  6
CONTINUOUS
 62
     5
 10
44.157987378894177
 20
-347.54400161897752
 30
0.0
 11
44.148504461399398
 21
-347.54668250208567
 31
0.0
  0
LINE
  8
DETAIL
  6
CONTINUOUS
 62
     5
 10
44.148504461399398
 20
-347.54668250208567
 30
0.0
 11
44.139018393153719
 21
-347.54934223162149
 31
0.0
  0
LINE
  8
DETAIL
  6
CONTINUOUS
 62
     5
 10
44.139018393153719
 20
-347.54934223162149
 30
0.0
 11
44.139018393153719
 21
-347.54934223162149
 31
0.0
  0
LINE
  8
DETAIL
  6
CONTINUOUS
 62
     5
 10
44.139018393153719
 20
-347.54934223162149
 30
0.0
 11
44.129530080790119
 21
-347.55198763272142
 31
0.0
  0
LINE
  8
DETAIL
  6
CONTINUOUS
 62
     5
 10
44.129530080790119
 20
-347.55198763272142
 30
0.0
 11
44.120040430940783
 21
-347.55462553052178
 31
0.0
  0
LINE
  8
DETAIL
  6
CONTINUOUS
 62
     5
 10
44.120040430940783
 20
-347.55462553052178
 30
0.0
 11
44.120040430940783
 21
-347.55462553052178
 31
0.0
  0
LINE
  8
DETAIL
  6
CONTINUOUS
 62
     5
 10
44.120040430940783
 20
-347.55462553052178
 30
0.0
 11
44.11055035023854
 21
-347.55726275015849
 31
0.0
  0
LINE
  8
DETAIL
  6
CONTINUOUS
 62
     5
 10
44.11055035023854
 20
-347.55726275015849
 30
0.0
 11
44.101060745315642
 21
-347.55990611676879
 31
0.0
  0
LINE
  8
DETAIL
  6
CONTINUOUS
 62
     5
 10
44.101060745315642
 20
-347.55990611676879
 30
0.0
 11
44.101060745315642
 21
-347.55990611676879
 31
0.0
  0
LINE
  8
DETAIL
  6
CONTINUOUS
 62
     5
 10
44.101060745315642
 20
-347.55990611676879
 30
0.0
 11
44.091572522805109
 21
-347.56256245548752
 31
0.0
  0
LINE
  8
DETAIL
  6
CONTINUOUS
 62
     5
 10
44.091572522805109
 20
-347.56256245548752
 30
0.0
 11
44.082086589339369
 21
-347.56523859145102
 31
0.0
  0
LINE
  8
DETAIL
  6
CONTINUOUS
 62
     5
 10
44.082086589339369
 20
-347.56523859145102
 30
0.0
 11
44.082086589339369
 21
-347.56523859145102
 31
0.0
  0
LINE
  8
DETAIL
  6
CONTINUOUS
 62
     5
 10
44.082086589339369
 20
-347.56523859145102
 30
0.0
 11
44.07260385155098
 21
-347.56794134979668
 31
0.0
  0
LINE
  8
DETAIL
  6
CONTINUOUS
 62
     5
 10
44.07260385155098
 20
-347.56794134979668
 30
0.0
 11
44.063125216072187
 21
-347.57067755565981
 31
0.0
  0
LINE
  8
DETAIL
  6
CONTINUOUS
 62
     5
 10
44.063125216072187
 20
-347.57067755565981
 30
0.0
 11
44.063125216072187
 21
-347.57067755565981
 31
0.0
  0
LINE
  8
DETAIL
  6
CONTINUOUS
 62
     5
 10
44.063125216072187
 20
-347.57067755565981
 30
0.0
 11
44.053651088642027
 21
-347.57345000691191
 31
0.0
  0
LINE
  8
DETAIL
  6
CONTINUOUS
 62
     5
 10
44.053651088642027
 20
-347.57345000691191
 30
0.0
 11
44.044179871423012
 21
-347.57624539236429
 31
0.0
  0
LINE
  8
DETAIL
  6
CONTINUOUS
 62
     5
 10
44.044179871423012
 20
-347.57624539236429
 30
0.0
 11
44.044179871423012
 21
-347.57624539236429
 31
0.0
  0
LINE
  8
DETAIL
  6
CONTINUOUS
 62
     5
 10
44.044179871423012
 20
-347.57624539236429
 30
0.0
 11
44.0347094656845
 21
-347.5790463735608
 31
0.0
  0
LINE
  8
DETAIL
  6
CONTINUOUS
 62
     5
 10
44.0347094656845
 20
-347.5790463735608
 30
0.0
 11
44.025237772694943
 21
-347.58183561204902
 31
0.0
  0
LINE
  8
DETAIL
  6
CONTINUOUS
 62
     5
 10
44.025237772694943
 20
-347.58183561204902
 30
0.0
 11
44.025237772694943
 21
-347.58183561204902
 31
0.0
  0
LINE
  8
DETAIL
  6
CONTINUOUS
 62
     5
 10
44.025237772694943
 20
-347.58183561204902
 30
0.0
 11
44.015762693723218
 21
-347.58459576937338
 31
0.0
  0
LINE
  8
DETAIL
  6
CONTINUOUS
 62
     5
 10
44.015762693723218
 20
-347.58459576937338
 30
0.0
 11
44.006282130038358
 21
-347.58730950707991
 31
0.0
  0
LINE
  8
DETAIL
  6
CONTINUOUS
 62
     5
 10
44.006282130038358
 20
-347.58730950707991
 30
0.0
 11
44.006282130038358
 21
-347.58730950707991
 31
0.0
  0
LINE
  8
DETAIL
  6
CONTINUOUS
 62
     5
 10
44.006282130038358
 20
-347.58730950707991
 30
0.0
 11
43.99679398290948
 21
-347.58995948671401
 31
0.0
  0
LINE
  8
DETAIL
  6
CONTINUOUS
 62
     5
 10
43.99679398290948
 20
-347.58995948671401
 30
0.0
 11
43.987296153605257
 21
-347.59252836982148
 31
0.0
  0
LINE
  8
DETAIL
  6
CONTINUOUS
 62
     5
 10
43.987296153605257
 20
-347.59252836982148
 30
0.0
 11
43.987296153605257
 21
-347.59252836982148
 31
0.0
  0
LINE
  8
DETAIL
  6
CONTINUOUS
 62
     5
 10
43.987296153605257
 20
-347.59252836982148
 30
0.0
 11
43.9777865433947
 21
-347.59499881794778
 31
0.0
  0
LINE
  8
DETAIL
  6
CONTINUOUS
 62
     5
 10
43.9777865433947
 20
-347.59499881794778
 30
0.0
 11
43.96826305354648
 21
-347.5973534926386
 31
0.0
  0
LINE
  8
DETAIL
  6
CONTINUOUS
 62
     5
 10
43.96826305354648
 20
-347.5973534926386
 30
0.0
 11
43.96826305354648
 21
-347.5973534926386
 31
0.0
  0
LINE
  8
DETAIL
  6
CONTINUOUS
 62
     5
 10
43.96826305354648
 20
-347.5973534926386
 30
0.0
 11
43.958724278132408
 21
-347.59958083628072
 31
0.0
  0
LINE
  8
DETAIL
  6
CONTINUOUS
 62
     5
 10
43.958724278132408
 20
-347.59958083628072
 30
0.0
 11
43.949171582435717
 21
-347.60169241462302
 31
0.0
  0
LINE
  8
DETAIL
  6
CONTINUOUS
 62
     5
 10
43.949171582435717
 20
-347.60169241462302
 30
0.0
 11
43.949171582435717
 21
-347.60169241462302
 31
0.0
  0
LINE
  8
DETAIL
  6
CONTINUOUS
 62
     5
 10
43.949171582435717
 20
-347.60169241462302
 30
0.0
 11
43.939607024542511
 21
-347.60370557425449
 31
0.0
  0
LINE
  8
DETAIL
  6
CONTINUOUS
 62
     5
 10
43.939607024542511
 20
-347.60370557425449
 30
0.0
 11
43.930032662538451
 21
-347.60563766176591
 31
0.0
  0
LINE
  8
DETAIL
  6
CONTINUOUS
 62
     5
 10
43.930032662538451
 20
-347.60563766176591
 30
0.0
 11
43.930032662538451
 21
-347.60563766176591
 31
0.0
  0
LINE
  8
DETAIL
  6
CONTINUOUS
 62
     5
 10
43.930032662538451
 20
-347.60563766176591
 30
0.0
 11
43.920450554509671
 21
-347.60750602374611
 31
0.0
  0
LINE
  8
DETAIL
  6
CONTINUOUS
 62
     5
 10
43.920450554509671
 20
-347.60750602374611
 30
0.0
 11
43.910862758542073
 21
-347.6093280067862
 31
0.0
  0
LINE
  8
DETAIL
  6
CONTINUOUS
 62
     5
 10
43.910862758542073
 20
-347.6093280067862
 30
0.0
 11
43.910862758542073
 21
-347.6093280067862
 31
0.0
  0
LINE
  8
DETAIL
  6
CONTINUOUS
 62
     5
 10
43.910862758542073
 20
-347.6093280067862
 30
0.0
 11
43.90127133272199
 21
-347.61112095747512
 31
0.0
  0
LINE
  8
DETAIL
  6
CONTINUOUS
 62
     5
 10
43.90127133272199
 20
-347.61112095747512
 30
0.0
 11
43.891678335135111
 21
-347.61290222240251
 31
0.0
  0
LINE
  8
DETAIL
  6
CONTINUOUS
 62
     5
 10
43.891678335135111
 20
-347.61290222240251
 30
0.0
 11
43.891678335135111
 21
-347.61290222240251
 31
0.0
  0
LINE
  8
DETAIL
  6
CONTINUOUS
 62
     5
 10
43.891678335135111
 20
-347.61290222240251
 30
0.0
 11
43.882085823867769
 21
-347.61468914815867
 31
0.0
  0
LINE
  8
DETAIL
  6
CONTINUOUS
 62
     5
 10
43.882085823867769
 20
-347.61468914815867
 30
0.0
 11
43.872495857005333
 21
-347.61649908133347
 31
0.0
  0
LINE
  8
DETAIL
  6
CONTINUOUS
 62
     5
 10
43.872495857005333
 20
-347.61649908133347
 30
0.0
 11
43.872495857005333
 21
-347.61649908133347
 31
0.0
  0
LINE
  8
DETAIL
  6
CONTINUOUS
 62
     5
 10
43.872495857005333
 20
-347.61649908133347
 30
0.0
 11
43.862910032384889
 21
-347.61834533311571
 31
0.0
  0
LINE
  8
DETAIL
  6
CONTINUOUS
 62
     5
 10
43.862910032384889
 20
-347.61834533311571
 30
0.0
 11
43.853328106845083
 21
-347.62022507309229
 31
0.0
  0
LINE
  8
DETAIL
  6
CONTINUOUS
 62
     5
 10
43.853328106845083
 20
-347.62022507309229
 30
0.0
 11
43.853328106845083
 21
-347.62022507309229
 31
0.0
  0
LINE
  8
DETAIL
  6
CONTINUOUS
 62
     5
 10
43.853328106845083
 20
-347.62022507309229
 30
0.0
 11
43.843749376975552
 21
-347.62213143544813
 31
0.0
  0
LINE
  8
DETAIL
  6
CONTINUOUS
 62
     5
 10
43.843749376975552
 20
-347.62213143544813
 30
0.0
 11
43.834173139365689
 21
-347.62405755436947
 31
0.0
  0
LINE
  8
DETAIL
  6
CONTINUOUS
 62
     5
 10
43.834173139365689
 20
-347.62405755436947
 30
0.0
 11
43.834173139365689
 21
-347.62405755436947
 31
0.0
  0
LINE
  8
DETAIL
  6
CONTINUOUS
 62
     5
 10
43.834173139365689
 20
-347.62405755436947
 30
0.0
 11
43.82459869060483
 21
-347.62599656404251
 31
0.0
  0
LINE
  8
DETAIL
  6
CONTINUOUS
 62
     5
 10
43.82459869060483
 20
-347.62599656404251
 30
0.0
 11
43.815025327282228
 21
-347.62794159865228
 31
0.0
  0
LINE
  8
DETAIL
  6
CONTINUOUS
 62
     5
 10
43.815025327282228
 20
-347.62794159865228
 30
0.0
 11
43.815025327282228
 21
-347.62794159865228
 31
0.0
  0
LINE
  8
DETAIL
  6
CONTINUOUS
 62
     5
 10
43.815025327282228
 20
-347.62794159865228
 30
0.0
 11
43.805452345988101
 21
-347.62988579238493
 31
0.0
  0
LINE
  8
DETAIL
  6
CONTINUOUS
 62
     5
 10
43.805452345988101
 20
-347.62988579238493
 30
0.0
 11
43.795879043311402
 21
-347.63182227942559
 31
0.0
  0
LINE
  8
DETAIL
  6
CONTINUOUS
 62
     5
 10
43.795879043311402
 20
-347.63182227942559
 30
0.0
 11
43.795879043311402
 21
-347.63182227942559
 31
0.0
  0
LINE
  8
DETAIL
  6
CONTINUOUS
 62
     5
 10
43.795879043311402
 20
-347.63182227942559
 30
0.0
 11
43.786304715841652
 21
-347.63374419396098
 31
0.0
  0
LINE
  8
DETAIL
  6
CONTINUOUS
 62
     5
 10
43.786304715841652
 20
-347.63374419396098
 30
0.0
 11
43.776728660167919
 21
-347.63564467017687
 31
0.0
  0
LINE
  8
DETAIL
  6
CONTINUOUS
 62
     5
 10
43.776728660167919
 20
-347.63564467017687
 30
0.0
 11
43.776728660167919
 21
-347.63564467017687
 31
0.0
  0
LINE
  8
DETAIL
  6
CONTINUOUS
 62
     5
 10
43.776728660167919
 20
-347.63564467017687
 30
0.0
 11
43.767150213913283
 21
-347.63751714265351
 31
0.0
  0
LINE
  8
DETAIL
  6
CONTINUOUS
 62
     5
 10
43.767150213913283
 20
-347.63751714265351
 30
0.0
 11
43.757568878832437
 21
-347.63935624755652
 31
0.0
  0
LINE
  8
DETAIL
  6
CONTINUOUS
 62
     5
 10
43.757568878832437
 20
-347.63935624755652
 30
0.0
 11
43.757568878832437
 21
-347.63935624755652
 31
0.0
  0
LINE
  8
DETAIL
  6
CONTINUOUS
 62
     5
 10
43.757568878832437
 20
-347.63935624755652
 30
0.0
 11
43.747984197713777
 21
-347.64115692144492
 31
0.0
  0
LINE
  8
DETAIL
  6
CONTINUOUS
 62
     5
 10
43.747984197713777
 20
-347.64115692144492
 30
0.0
 11
43.73839571334463
 21
-347.64291410087981
 31
0.0
  0
LINE
  8
DETAIL
  6
CONTINUOUS
 62
     5
 10
43.73839571334463
 20
-347.64291410087981
 30
0.0
 11
43.73839571334463
 21
-347.64291410087981
 31
0.0
  0
LINE
  8
DETAIL
  6
CONTINUOUS
 62
     5
 10
43.73839571334463
 20
-347.64291410087981
 30
0.0
 11
43.728802968513037
 21
-347.64462272242088
 31
0.0
  0
LINE
  8
DETAIL
  6
CONTINUOUS
 62
     5
 10
43.728802968513037
 20
-347.64462272242088
 30
0.0
 11
43.719205506007818
 21
-347.64627772262878
 31
0.0
  0
LINE
  8
DETAIL
  6
CONTINUOUS
 62
     5
 10
43.719205506007818
 20
-347.64627772262878
 30
0.0
 11
43.719205506007818
 21
-347.64627772262878
 31
0.0
  0
LINE
  8
DETAIL
  6
CONTINUOUS
 62
     5
 10
43.719205506007818
 20
-347.64627772262878
 30
0.0
 11
43.709602868617367
 21
-347.64787403806241
 31
0.0
  0
LINE
  8
DETAIL
  6
CONTINUOUS
 62
     5
 10
43.709602868617367
 20
-347.64787403806241
 30
0.0
 11
43.699994599126512
 21
-347.64940660528299
 31
0.0
  0
LINE
  8
DETAIL
  6
CONTINUOUS
 62
     5
 10
43.699994599126512
 20
-347.64940660528299
 30
0.0
 11
43.699994599126512
 21
-347.64940660528299
 31
0.0
  0
LINE
  8
DETAIL
  6
CONTINUOUS
 62
     5
 10
43.699994599126512
 20
-347.64940660528299
 30
0.0
 11
43.690380240322163
 21
-347.65087036084992
 31
0.0
  0
LINE
  8
DETAIL
  6
CONTINUOUS
 62
     5
 10
43.690380240322163
 20
-347.65087036084992
 30
0.0
 11
43.680759335003813
 21
-347.65226024132431
 31
0.0
  0
LINE
  8
DETAIL
  6
CONTINUOUS
 62
     5
 10
43.680759335003813
 20
-347.65226024132431
 30
0.0
 11
43.680759335003813
 21
-347.65226024132431
 31
0.0
  0
LINE
  8
DETAIL
  6
CONTINUOUS
 62
     5
 10
43.680759335003813
 20
-347.65226024132431
 30
0.0
 11
43.671131722077916
 21
-347.65357401708218
 31
0.0
  0
LINE
  8
DETAIL
  6
CONTINUOUS
 62
     5
 10
43.671131722077916
 20
-347.65357401708218
 30
0.0
 11
43.661498424869023
 21
-347.65482079377472
 31
0.0
  0
LINE
  8
DETAIL
  6
CONTINUOUS
 62
     5
 10
43.661498424869023
 20
-347.65482079377472
 30
0.0
 11
43.661498424869023
 21
-347.65482079377472
 31
0.0
  0
LINE
  8
DETAIL
  6
CONTINUOUS
 62
     5
 10
43.661498424869023
 20
-347.65482079377472
 30
0.0
 11
43.651860762847043
 21
-347.65601251086667
 31
0.0
  0
LINE
  8
DETAIL
  6
CONTINUOUS
 62
     5
 10
43.651860762847043
 20
-347.65601251086667
 30
0.0
 11
43.642220055649432
 21
-347.6571611078183
 31
0.0
  0
LINE
  8
DETAIL
  6
CONTINUOUS
 62
     5
 10
43.642220055649432
 20
-347.6571611078183
 30
0.0
 11
43.642220055649432
 21
-347.6571611078183
 31
0.0
  0
LINE
  8
DETAIL
  6
CONTINUOUS
 62
     5
 10
43.642220055649432
 20
-347.6571611078183
 30
0.0
 11
43.63257762279909
 21
-347.65827852409319
 31
0.0
  0
LINE
  8
DETAIL
  6
CONTINUOUS
 62
     5
 10
43.63257762279909
 20
-347.65827852409319
 30
0.0
 11
43.622934783196683
 21
-347.65937669918389
 31
0.0
  0
LINE
  8
DETAIL
  6
CONTINUOUS
 62
     5
 10
43.622934783196683
 20
-347.65937669918389
 30
0.0
 11
43.622934783196683
 21
-347.65937669918389
 31
0.0
  0
LINE
  8
DETAIL
  6
CONTINUOUS
 62
     5
 10
43.622934783196683
 20
-347.65937669918389
 30
0.0
 11
43.613292856168073
 21
-347.66046757256231
 31
0.0
  0
LINE
  8
DETAIL
  6
CONTINUOUS
 62
     5
 10
43.613292856168073
 20
-347.66046757256231
 30
0.0
 11
43.603653163363219
 21
-347.66156308359751
 31
0.0
  0
LINE
  8
DETAIL
  6
CONTINUOUS
 62
     5
 10
43.603653163363219
 20
-347.66156308359751
 30
0.0
 11
43.603653163363219
 21
-347.66156308359751
 31
0.0
  0
LINE
  8
DETAIL
  6
CONTINUOUS
 62
     5
 10
43.603653163363219
 20
-347.66156308359751
 30
0.0
 11
43.594017024844668
 21
-347.66267517172878
 31
0.0
  0
LINE
  8
DETAIL
  6
CONTINUOUS
 62
     5
 10
43.594017024844668
 20
-347.66267517172878
 30
0.0
 11
43.584385752000678
 21
-347.66381577678533
 31
0.0
  0
LINE
  8
DETAIL
  6
CONTINUOUS
 62
     5
 10
43.584385752000678
 20
-347.66381577678533
 30
0.0
 11
43.584385752000678
 21
-347.66381577678533
 31
0.0
  0
LINE
  8
DETAIL
  6
CONTINUOUS
 62
     5
 10
43.584385752000678
 20
-347.66381577678533
 30
0.0
 11
43.574760043036576
 21
-347.66499279271761
 31
0.0
  0
LINE
  8
DETAIL
  6
CONTINUOUS
 62
     5
 10
43.574760043036576
 20
-347.66499279271761
 30
0.0
 11
43.56513815209712
 21
-347.66619792957749
 31
0.0
  0
LINE
  8
DETAIL
  6
CONTINUOUS
 62
     5
 10
43.56513815209712
 20
-347.66619792957749
 30
0.0
 11
43.56513815209712
 21
-347.66619792957749
 31
0.0
  0
LINE
  8
DETAIL
  6
CONTINUOUS
 62
     5
 10
43.56513815209712
 20
-347.66619792957749
 30
0.0
 11
43.555517692109113
 21
-347.66741885279481
 31
0.0
  0
LINE
  8
DETAIL
  6
CONTINUOUS
 62
     5
 10
43.555517692109113
 20
-347.66741885279481
 30
0.0
 11
43.545896155182852
 21
-347.66864323320777
 31
0.0
  0
LINE
  8
DETAIL
  6
CONTINUOUS
 62
     5
 10
43.545896155182852
 20
-347.66864323320777
 30
0.0
 11
43.545896155182852
 21
-347.66864323320777
 31
0.0
  0
LINE
  8
DETAIL
  6
CONTINUOUS
 62
     5
 10
43.545896155182852
 20
-347.66864323320777
 30
0.0
 11
43.536271115947557
 21
-347.66985873796159
 31
0.0
  0
LINE
  8
DETAIL
  6
CONTINUOUS
 62
     5
 10
43.536271115947557
 20
-347.66985873796159
 30
0.0
 11
43.526640599923439
 21
-347.67105301401511
 31
0.0
  0
LINE
  8
DETAIL
  6
CONTINUOUS
 62
     5
 10
43.526640599923439
 20
-347.67105301401511
 30
0.0
 11
43.526640599923439
 21
-347.67105301401511
 31
0.0
  0
LINE
  8
DETAIL
  6
CONTINUOUS
 62
     5
 10
43.526640599923439
 20
-347.67105301401511
 30
0.0
 11
43.517002324666578
 21
-347.67221372211418
 31
0.0
  0
LINE
  8
DETAIL
  6
CONTINUOUS
 62
     5
 10
43.517002324666578
 20
-347.67221372211418
 30
0.0
 11
43.507352324985618
 21
-347.67332859833527
 31
0.0
  0
LINE
  8
DETAIL
  6
CONTINUOUS
 62
     5
 10
43.507352324985618
 20
-347.67332859833527
 30
0.0
 11
43.507352324985618
 21
-347.67332859833527
 31
0.0
  0
LINE
  8
DETAIL
  6
CONTINUOUS
 62
     5
 10
43.507352324985618
 20
-347.67332859833527
 30
0.0
 11
43.497687785026763
 21
-347.67438532730262
 31
0.0
  0
LINE
  8
DETAIL
  6
CONTINUOUS
 62
     5
 10
43.497687785026763
 20
-347.67438532730262
 30
0.0
 11
43.488012169034853
 21
-347.675371312506
 31
0.0
  0
LINE
  8
DETAIL
  6
CONTINUOUS
 62
     5
 10
43.488012169034853
 20
-347.675371312506
 30
0.0
 11
43.488012169034853
 21
-347.675371312506
 31
0.0
  0
LINE
  8
DETAIL
  6
CONTINUOUS
 62
     5
 10
43.488012169034853
 20
-347.675371312506
 30
0.0
 11
43.478325292757063
 21
-347.67627735452118
 31
0.0
  0
LINE
  8
DETAIL
  6
CONTINUOUS
 62
     5
 10
43.478325292757063
 20
-347.67627735452118
 30
0.0
 11
43.468606097851527
 21
-347.67710812340522
 31
0.0
  0
LINE
  8
DETAIL
  6
CONTINUOUS
 62
     5
 10
43.468606097851527
 20
-347.67710812340522
 30
0.0
 11
43.468606097851527
 21
-347.67710812340522
 31
0.0
  0
LINE
  8
DETAIL
  6
CONTINUOUS
 62
     5
 10
43.468606097851527
 20
-347.67710812340522
 30
0.0
 11
43.45885017507544
 21
-347.67787077765809
 31
0.0
  0
LINE
  8
DETAIL
  6
CONTINUOUS
 62
     5
 10
43.45885017507544
 20
-347.67787077765809
 30
0.0
 11
43.449140585671671
 21
-347.67856856007319
 31
0.0
  0
LINE
  8
DETAIL
  6
CONTINUOUS
 62
     5
 10
43.449140585671671
 20
-347.67856856007319
 30
0.0
 11
43.449140585671671
 21
-347.67856856007319
 31
0.0
  0
LINE
  8
DETAIL
  6
CONTINUOUS
 62
     5
 10
43.449140585671671
 20
-347.67856856007319
 30
0.0
 11
43.439500647430577
 21
-347.67920738792299
 31
0.0
  0
LINE
  8
DETAIL
  6
CONTINUOUS
 62
     5
 10
43.439500647430577
 20
-347.67920738792299
 30
0.0
 11
43.429627233845054
 21
-347.67980779209199
 31
0.0
  0
LINE
  8
DETAIL
  6
CONTINUOUS
 62
     5
 10
43.429627233845054
 20
-347.67980779209199
 30
0.0
 11
43.429627233845054
 21
-347.67980779209199
 31
0.0
  0
LINE
  8
DETAIL
  6
CONTINUOUS
 62
     5
 10
43.429627233845054
 20
-347.67980779209199
 30
0.0
 11
43.419440184009893
 21
-347.68038032218078
 31
0.0
  0
LINE
  8
DETAIL
  6
CONTINUOUS
 62
     5
 10
43.419440184009893
 20
-347.68038032218078
 30
0.0
 11
43.410077643721927
 21
-347.68088098904133
 31
0.0
  0
LINE
  8
DETAIL
  6
CONTINUOUS
 62
     5
 10
43.410077643721927
 20
-347.68088098904133
 30
0.0
 11
43.410077643721927
 21
-347.68088098904133
 31
0.0
  0
LINE
  8
DETAIL
  6
CONTINUOUS
 62
     5
 10
43.410077643721927
 20
-347.68088098904133
 30
0.0
 11
43.40184563982541
 21
-347.68130305418231
 31
0.0
  0
LINE
  8
DETAIL
  6
CONTINUOUS
 62
     5
 10
43.40184563982541
 20
-347.68130305418231
 30
0.0
 11
43.390503416651882
 21
-347.68184332050322
 31
0.0
  0
LINE
  8
DETAIL
  6
CONTINUOUS
 62
     5
 10
43.390503416651882
 20
-347.68184332050322
 30
0.0
 11
43.390503416651882
 21
-347.68184332050322
 31
0.0
  0
LINE
  8
DETAIL
  6
CONTINUOUS
 62
     5
 10
43.390503416651882
 20
-347.68184332050322
 30
0.0
 11
43.372465533959939
 21
-347.68266503066963
 31
0.0
  0
LINE
  8
DETAIL
  6
CONTINUOUS
 62
     5
 10
43.372465533959939
 20
-347.68266503066963
 30
0.0
 11
43.351314595726883
 21
-347.68359364502692
 31
0.0
  0
LINE
  8
DETAIL
  6
CONTINUOUS
 62
     5
 10
43.351314595726883
 20
-347.68359364502692
 30
0.0
 11
43.351314595726883
 21
-347.68359364502692
 31
0.0
  0
LINE
  8
DETAIL
  6
CONTINUOUS
 62
     5
 10
43.351314595726883
 20
-347.68359364502692
 30
0.0
 11
43.331289874782208
 21
-347.68442672529449
 31
0.0
  0
LINE
  8
DETAIL
  6
CONTINUOUS
 62
     5
 10
43.331289874782208
 20
-347.68442672529449
 30
0.0
 11
43.312089275142633
 21
-347.68518802100579
 31
0.0
  0
LINE
  8
DETAIL
  6
CONTINUOUS
 62
     5
 10
43.312089275142633
 20
-347.68518802100579
 30
0.0
 11
43.312089275142633
 21
-347.68518802100579
 31
0.0
  0
LINE
  8
DETAIL
  6
CONTINUOUS
 62
     5
 10
43.312089275142633
 20
-347.68518802100579
 30
0.0
 11
43.292579409946711
 21
-347.68594243349821
 31
0.0
  0
LINE
  8
DETAIL
  6
CONTINUOUS
 62
     5
 10
43.292579409946711
 20
-347.68594243349821
 30
0.0
 11
43.272843097627629
 21
-347.68669328351967
 31
0.0
  0
LINE
  8
DETAIL
  6
CONTINUOUS
 62
     5
 10
43.272843097627629
 20
-347.68669328351967
 30
0.0
 11
43.272843097627629
 21
-347.68669328351967
 31
0.0
  0
LINE
  8
DETAIL
  6
CONTINUOUS
 62
     5
 10
43.272843097627629
 20
-347.68669328351967
 30
0.0
 11
43.253186344850519
 21
-347.687433530308
 31
0.0
  0
LINE
  8
DETAIL
  6
CONTINUOUS
 62
     5
 10
43.253186344850519
 20
-347.687433530308
 30
0.0
 11
43.233591705909483
 21
-347.68817626764991
 31
0.0
  0
LINE
  8
DETAIL
  6
CONTINUOUS
 62
     5
 10
43.233591705909483
 20
-347.68817626764991
 30
0.0
 11
43.233591705909483
 21
-347.68817626764991
 31
0.0
  0
LINE
  8
DETAIL
  6
CONTINUOUS
 62
     5
 10
43.233591705909483
 20
-347.68817626764991
 30
0.0
 11
43.21398027305338
 21
-347.68893488356872
 31
0.0
  0
LINE
  8
DETAIL
  6
CONTINUOUS
 62
     5
 10
43.21398027305338
 20
-347.68893488356872
 30
0.0
 11
43.19435074271621
 21
-347.68970380847679
 31
0.0
  0
LINE
  8
DETAIL
  6
CONTINUOUS
 62
     5
 10
43.194350765825561
 20
-347.68970380847679
 30
0.0
 11
43.175003779008989
 21
-347.6889571119525
 31
0.0
  0
LINE
  8
DETAIL
  6
CONTINUOUS
 62
     5
 10
43.175003779008989
 20
-347.6889571119525
 30
0.0
 11
43.155676474586578
 21
-347.6882207028832
 31
0.0
  0
LINE
  8
DETAIL
  6
CONTINUOUS
 62
     5
 10
43.155676474586578
 20
-347.6882207028832
 30
0.0
 11
43.155676474586578
 21
-347.6882207028832
 31
0.0
  0
LINE
  8
DETAIL
  6
CONTINUOUS
 62
     5
 10
43.155676474586578
 20
-347.6882207028832
 30
0.0
 11
43.13636864820522
 21
-347.68750015172583
 31
0.0
  0
LINE
  8
DETAIL
  6
CONTINUOUS
 62
     5
 10
43.13636864820522
 20
-347.68750015172583
 30
0.0
 11
43.117000548524167
 21
-347.68678216094048
 31
0.0
  0
LINE
  8
DETAIL
  6
CONTINUOUS
 62
     5
 10
43.117000548524167
 20
-347.68678216094048
 30
0.0
 11
43.117000548524167
 21
-347.68678216094048
 31
0.0
  0
LINE
  8
DETAIL
  6
CONTINUOUS
 62
     5
 10
43.117000548524167
 20
-347.68678216094048
 30
0.0
 11
43.097552595331543
 21
-347.68605365785282
 31
0.0
  0
LINE
  8
DETAIL
  6
CONTINUOUS
 62
     5
 10
43.097552595331543
 20
-347.68605365785282
 30
0.0
 11
43.078325439920953
 21
-347.68532133724329
 31
0.0
  0
LINE
  8
DETAIL
  6
CONTINUOUS
 62
     5
 10
43.078325439920953
 20
-347.68532133724329
 30
0.0
 11
43.078325439920953
 21
-347.68532133724329
 31
0.0
  0
LINE
  8
DETAIL
  6
CONTINUOUS
 62
     5
 10
43.078325439920953
 20
-347.68532133724329
 30
0.0
 11
43.059399446703878
 21
-347.68458178530159
 31
0.0
  0
LINE
  8
DETAIL
  6
CONTINUOUS
 62
     5
 10
43.059399446703878
 20
-347.68458178530159
 30
0.0
 11
43.039653601058937
 21
-347.68377138638709
 31
0.0
  0
LINE
  8
DETAIL
  6
CONTINUOUS
 62
     5
 10
43.039653601058937
 20
-347.68377138638709
 30
0.0
 11
43.039653601058937
 21
-347.68377138638709
 31
0.0
  0
LINE
  8
DETAIL
  6
CONTINUOUS
 62
     5
 10
43.039653601058937
 20
-347.68377138638709
 30
0.0
 11
43.018787864763567
 21
-347.68286673436683
 31
0.0
  0
LINE
  8
DETAIL
  6
CONTINUOUS
 62
     5
 10
43.018787864763567
 20
-347.68286673436683
 30
0.0
 11
43.000987484220673
 21
-347.6820654629654
 31
0.0
  0
LINE
  8
DETAIL
  6
CONTINUOUS
 62
     5
 10
43.000987484220673
 20
-347.6820654629654
 30
0.0
 11
43.000987484220673
 21
-347.6820654629654
 31
0.0
  0
LINE
  8
DETAIL
  6
CONTINUOUS
 62
     5
 10
43.000987484220673
 20
-347.6820654629654
 30
0.0
 11
42.989790104672693
 21
-347.68153805111359
 31
0.0
  0
LINE
  8
DETAIL
  6
CONTINUOUS
 62
     5
 10
42.989790104672693
 20
-347.68153805111359
 30
0.0
 11
42.981657682089121
 21
-347.68112531870628
 31
0.0
  0
LINE
  8
DETAIL
  6
CONTINUOUS
 62
     5
 10
42.981657682089121
 20
-347.68112531870628
 30
0.0
 11
42.981657682089121
 21
-347.68112531870628
 31
0.0
  0
LINE
  8
DETAIL
  6
CONTINUOUS
 62
     5
 10
42.981657682089121
 20
-347.68112531870628
 30
0.0
 11
42.972404806720647
 21
-347.68063526833208
 31
0.0
  0
LINE
  8
DETAIL
  6
CONTINUOUS
 62
     5
 10
42.972404806720647
 20
-347.68063526833208
 30
0.0
 11
42.962332295211809
 21
-347.6800742923931
 31
0.0
  0
LINE
  8
DETAIL
  6
CONTINUOUS
 62
     5
 10
42.962332295211809
 20
-347.6800742923931
 30
0.0
 11
42.962332295211809
 21
-347.6800742923931
 31
0.0
  0
LINE
  8
DETAIL
  6
CONTINUOUS
 62
     5
 10
42.962332295211809
 20
-347.6800742923931
 30
0.0
 11
42.952562000620659
 21
-347.67948509114848
 31
0.0
  0
LINE
  8
DETAIL
  6
CONTINUOUS
 62
     5
 10
42.952562000620659
 20
-347.67948509114848
 30
0.0
 11
42.943013695266252
 21
-347.67885720646592
 31
0.0
  0
LINE
  8
DETAIL
  6
CONTINUOUS
 62
     5
 10
42.943013695266252
 20
-347.67885720646592
 30
0.0
 11
42.943013695266252
 21
-347.67885720646592
 31
0.0
  0
LINE
  8
DETAIL
  6
CONTINUOUS
 62
     5
 10
42.943013695266252
 20
-347.67885720646592
 30
0.0
 11
42.933387155423127
 21
-347.67817045155238
 31
0.0
  0
LINE
  8
DETAIL
  6
CONTINUOUS
 62
     5
 10
42.933387155423127
 20
-347.67817045155238
 30
0.0
 11
42.923704253930168
 21
-347.67741888336298
 31
0.0
  0
LINE
  8
DETAIL
  6
CONTINUOUS
 62
     5
 10
42.923704253930168
 20
-347.67741888336298
 30
0.0
 11
42.923704253930168
 21
-347.67741888336298
 31
0.0
  0
LINE
  8
DETAIL
  6
CONTINUOUS
 62
     5
 10
42.923704253930168
 20
-347.67741888336298
 30
0.0
 11
42.914045811387041
 21
-347.67659916563929
 31
0.0
  0
LINE
  8
DETAIL
  6
CONTINUOUS
 62
     5
 10
42.914045811387041
 20
-347.67659916563929
 30
0.0
 11
42.904406342881202
 21
-347.67570414552301
 31
0.0
  0
LINE
  8
DETAIL
  6
CONTINUOUS
 62
     5
 10
42.904406342881202
 20
-347.67570414552301
 30
0.0
 11
42.904406342881202
 21
-347.67570414552301
 31
0.0
  0
LINE
  8
DETAIL
  6
CONTINUOUS
 62
     5
 10
42.904406342881202
 20
-347.67570414552301
 30
0.0
 11
42.894764421943357
 21
-347.67472917718652
 31
0.0
  0
LINE
  8
DETAIL
  6
CONTINUOUS
 62
     5
 10
42.894764421943357
 20
-347.67472917718652
 30
0.0
 11
42.885121161398729
 21
-347.67368345952718
 31
0.0
  0
LINE
  8
DETAIL
  6
CONTINUOUS
 62
     5
 10
42.885121161398729
 20
-347.67368345952718
 30
0.0
 11
42.885121161398729
 21
-347.67368345952718
 31
0.0
  0
LINE
  8
DETAIL
  6
CONTINUOUS
 62
     5
 10
42.885121161398729
 20
-347.67368345952718
 30
0.0
 11
42.875481759781337
 21
-347.67257958411932
 31
0.0
  0
LINE
  8
DETAIL
  6
CONTINUOUS
 62
     5
 10
42.875481759781337
 20
-347.67257958411932
 30
0.0
 11
42.865845219168357
 21
-347.67142986851792
 31
0.0
  0
LINE
  8
DETAIL
  6
CONTINUOUS
 62
     5
 10
42.865845219168357
 20
-347.67142986851792
 30
0.0
 11
42.865845219168357
 21
-347.67142986851792
 31
0.0
  0
LINE
  8
DETAIL
  6
CONTINUOUS
 62
     5
 10
42.865845219168357
 20
-347.67142986851792
 30
0.0
 11
42.856209407606123
 21
-347.67024658012878
 31
0.0
  0
LINE
  8
DETAIL
  6
CONTINUOUS
 62
     5
 10
42.856209407606123
 20
-347.67024658012878
 30
0.0
 11
42.846573853477253
 21
-347.66904205978079
 31
0.0
  0
LINE
  8
DETAIL
  6
CONTINUOUS
 62
     5
 10
42.846573853477253
 20
-347.66904205978079
 30
0.0
 11
42.846573853477253
 21
-347.66904205978079
 31
0.0
  0
LINE
  8
DETAIL
  6
CONTINUOUS
 62
     5
 10
42.846573853477253
 20
-347.66904205978079
 30
0.0
 11
42.836938389026272
 21
-347.66782866174071
 31
0.0
  0
LINE
  8
DETAIL
  6
CONTINUOUS
 62
     5
 10
42.836938389026272
 20
-347.66782866174071
 30
0.0
 11
42.827302401612663
 21
-347.66661872060098
 31
0.0
  0
LINE
  8
DETAIL
  6
CONTINUOUS
 62
     5
 10
42.827302401612663
 20
-347.66661872060098
 30
0.0
 11
42.827302401612663
 21
-347.66661872060098
 31
0.0
  0
LINE
  8
DETAIL
  6
CONTINUOUS
 62
     5
 10
42.827302401612663
 20
-347.66661872060098
 30
0.0
 11
42.817665197175977
 21
-347.66542456735368
 31
0.0
  0
LINE
  8
DETAIL
  6
CONTINUOUS
 62
     5
 10
42.817665197175977
 20
-347.66542456735368
 30
0.0
 11
42.808026200862059
 21
-347.66425853826308
 31
0.0
  0
LINE
  8
DETAIL
  6
CONTINUOUS
 62
     5
 10
42.808026200862059
 20
-347.66425853826308
 30
0.0
 11
42.808026200862059
 21
-347.66425853826308
 31
0.0
  0
LINE
  8
DETAIL
  6
CONTINUOUS
 62
     5
 10
42.808026200862059
 20
-347.66425853826308
 30
0.0
 11
42.798385094924008
 21
-347.66312892445347
 31
0.0
  0
LINE
  8
DETAIL
  6
CONTINUOUS
 62
     5
 10
42.798385094924008
 20
-347.66312892445347
 30
0.0
 11
42.788742470833881
 21
-347.6620278312248
 31
0.0
  0
LINE
  8
DETAIL
  6
CONTINUOUS
 62
     5
 10
42.788742470833881
 20
-347.6620278312248
 30
0.0
 11
42.788742470833881
 21
-347.6620278312248
 31
0.0
  0
LINE
  8
DETAIL
  6
CONTINUOUS
 62
     5
 10
42.788742470833881
 20
-347.6620278312248
 30
0.0
 11
42.779099149508738
 21
-347.66094331751202
 31
0.0
  0
LINE
  8
DETAIL
  6
CONTINUOUS
 62
     5
 10
42.779099149508738
 20
-347.66094331751202
 30
0.0
 11
42.769455960423556
 21
-347.65986344263109
 31
0.0
  0
LINE
  8
DETAIL
  6
CONTINUOUS
 62
     5
 10
42.769455960423556
 20
-347.65986344263109
 30
0.0
 11
42.769455960423556
 21
-347.65986344263109
 31
0.0
  0
LINE
  8
DETAIL
  6
CONTINUOUS
 62
     5
 10
42.769455960423556
 20
-347.65986344263109
 30
0.0
 11
42.759813734620373
 21
-347.65877626596688
 31
0.0
  0
LINE
  8
DETAIL
  6
CONTINUOUS
 62
     5
 10
42.759813734620373
 20
-347.65877626596688
 30
0.0
 11
42.75017330084745
 21
-347.65766984680198
 31
0.0
  0
LINE
  8
DETAIL
  6
CONTINUOUS
 62
     5
 10
42.75017330084745
 20
-347.65766984680198
 30
0.0
 11
42.75017330084745
 21
-347.65766984680198
 31
0.0
  0
LINE
  8
DETAIL
  6
CONTINUOUS
 62
     5
 10
42.75017330084745
 20
-347.65766984680198
 30
0.0
 11
42.740535487433817
 21
-347.65653224440041
 31
0.0
  0
LINE
  8
DETAIL
  6
CONTINUOUS
 62
     5
 10
42.740535487433817
 20
-347.65653224440041
 30
0.0
 11
42.730901123322383
 21
-347.65535151805472
 31
0.0
  0
LINE
  8
DETAIL
  6
CONTINUOUS
 62
     5
 10
42.730901123322383
 20
-347.65535151805472
 30
0.0
 11
42.730901123322383
 21
-347.65535151805472
 31
0.0
  0
LINE
  8
DETAIL
  6
CONTINUOUS
 62
     5
 10
42.730901123322383
 20
-347.65535151805472
 30
0.0
 11
42.721271037569068
 21
-347.65411572705978
 31
0.0
  0
LINE
  8
DETAIL
  6
CONTINUOUS
 62
     5
 10
42.721271037569068
 20
-347.65411572705978
 30
0.0
 11
42.711646059065167
 21
-347.65281293070689
 31
0.0
  0
LINE
  8
DETAIL
  6
CONTINUOUS
 62
     5
 10
42.711646059065167
 20
-347.65281293070689
 30
0.0
 11
42.711646059065167
 21
-347.65281293070689
 31
0.0
  0
LINE
  8
DETAIL
  6
CONTINUOUS
 62
     5
 10
42.711646059065167
 20
-347.65281293070689
 30
0.0
 11
42.702026824430732
 21
-347.65143402239568
 31
0.0
  0
LINE
  8
DETAIL
  6
CONTINUOUS
 62
     5
 10
42.702026824430732
 20
-347.65143402239568
 30
0.0
 11
42.692413201369732
 21
-347.64998123197978
 31
0.0
  0
LINE
  8
DETAIL
  6
CONTINUOUS
 62
     5
 10
42.692413201369732
 20
-347.64998123197978
 30
0.0
 11
42.692413201369732
 21
-347.64998123197978
 31
0.0
  0
LINE
  8
DETAIL
  6
CONTINUOUS
 62
     5
 10
42.692413201369732
 20
-347.64998123197978
 30
0.0
 11
42.68280486535366
 21
-347.64845962342571
 31
0.0
  0
LINE
  8
DETAIL
  6
CONTINUOUS
 62
     5
 10
42.68280486535366
 20
-347.64845962342571
 30
0.0
 11
42.673201491841837
 21
-347.64687426070009
 31
0.0
  0
LINE
  8
DETAIL
  6
CONTINUOUS
 62
     5
 10
42.673201491841837
 20
-347.64687426070009
 30
0.0
 11
42.673201491841837
 21
-347.64687426070009
 31
0.0
  0
LINE
  8
DETAIL
  6
CONTINUOUS
 62
     5
 10
42.673201491841837
 20
-347.64687426070009
 30
0.0
 11
42.663602756291539
 21
-347.64523020776818
 31
0.0
  0
LINE
  8
DETAIL
  6
CONTINUOUS
 62
     5
 10
42.663602756291539
 20
-347.64523020776818
 30
0.0
 11
42.654008334163677
 21
-347.64353252859632
 31
0.0
  0
LINE
  8
DETAIL
  6
CONTINUOUS
 62
     5
 10
42.654008334163677
 20
-347.64353252859632
 30
0.0
 11
42.654008334163677
 21
-347.64353252859632
 31
0.0
  0
LINE
  8
DETAIL
  6
CONTINUOUS
 62
     5
 10
42.654008334163677
 20
-347.64353252859632
 30
0.0
 11
42.644417900919393
 21
-347.64178628715013
 31
0.0
  0
LINE
  8
DETAIL
  6
CONTINUOUS
 62
     5
 10
42.644417900919393
 20
-347.64178628715013
 30
0.0
 11
42.634831132018803
 21
-347.63999654739649
 31
0.0
  0
LINE
  8
DETAIL
  6
CONTINUOUS
 62
     5
 10
42.634831132018803
 20
-347.63999654739649
 30
0.0
 11
42.634831132018803
 21
-347.63999654739649
 31
0.0
  0
LINE
  8
DETAIL
  6
CONTINUOUS
 62
     5
 10
42.634831132018803
 20
-347.63999654739649
 30
0.0
 11
42.625247702922017
 21
-347.63816837330091
 31
0.0
  0
LINE
  8
DETAIL
  6
CONTINUOUS
 62
     5
 10
42.625247702922017
 20
-347.63816837330091
 30
0.0
 11
42.615667289089401
 21
-347.6363068288299
 31
0.0
  0
LINE
  8
DETAIL
  6
CONTINUOUS
 62
     5
 10
42.615667289089401
 20
-347.6363068288299
 30
0.0
 11
42.615667289089401
 21
-347.6363068288299
 31
0.0
  0
LINE
  8
DETAIL
  6
CONTINUOUS
 62
     5
 10
42.615667289089401
 20
-347.6363068288299
 30
0.0
 11
42.606089497595121
 21
-347.6344172783422
 31
0.0
  0
LINE
  8
DETAIL
  6
CONTINUOUS
 62
     5
 10
42.606089497595121
 20
-347.6344172783422
 30
0.0
 11
42.596513661967492
 21
-347.63250628776967
 31
0.0
  0
LINE
  8
DETAIL
  6
CONTINUOUS
 62
     5
 10
42.596513661967492
 20
-347.63250628776967
 30
0.0
 11
42.596513661967492
 21
-347.63250628776967
 31
0.0
  0
LINE
  8
DETAIL
  6
CONTINUOUS
 62
     5
 10
42.596513661967492
 20
-347.63250628776967
 30
0.0
 11
42.586939047348437
 21
-347.63058072343603
 31
0.0
  0
LINE
  8
DETAIL
  6
CONTINUOUS
 62
     5
 10
42.586939047348437
 20
-347.63058072343603
 30
0.0
 11
42.577364918879653
 21
-347.6286474516661
 31
0.0
  0
LINE
  8
DETAIL
  6
CONTINUOUS
 62
     5
 10
42.577364918879653
 20
-347.6286474516661
 30
0.0
 11
42.577364918879653
 21
-347.6286474516661
 31
0.0
  0
LINE
  8
DETAIL
  6
CONTINUOUS
 62
     5
 10
42.577364918879653
 20
-347.6286474516661
 30
0.0
 11
42.567790541703403
 21
-347.62671333878421
 31
0.0
  0
LINE
  8
DETAIL
  6
CONTINUOUS
 62
     5
 10
42.567790541703403
 20
-347.62671333878421
 30
0.0
 11
42.558215180961042
 21
-347.6247852511151
 31
0.0
  0
LINE
  8
DETAIL
  6
CONTINUOUS
 62
     5
 10
42.558215180961042
 20
-347.6247852511151
 30
0.0
 11
42.558215180961042
 21
-347.6247852511151
 31
0.0
  0
LINE
  8
DETAIL
  6
CONTINUOUS
 62
     5
 10
42.558215180961042
 20
-347.6247852511151
 30
0.0
 11
42.54863810179495
 21
-347.62287005498268
 31
0.0
  0
LINE
  8
DETAIL
  6
CONTINUOUS
 62
     5
 10
42.54863810179495
 20
-347.62287005498268
 30
0.0
 11
42.539058569346928
 21
-347.62097461671198
 31
0.0
  0
LINE
  8
DETAIL
  6
CONTINUOUS
 62
     5
 10
42.539058569346928
 20
-347.62097461671198
 30
0.0
 11
42.539058569346928
 21
-347.62097461671198
 31
0.0
  0
LINE
  8
DETAIL
  6
CONTINUOUS
 62
     5
 10
42.539058569346928
 20
-347.62097461671198
 30
0.0
 11
42.529475848759027
 21
-347.61910580262628
 31
0.0
  0
LINE
  8
DETAIL
  6
CONTINUOUS
 62
     5
 10
42.529475848759027
 20
-347.61910580262628
 30
0.0
 11
42.519889205172717
 21
-347.61727047905168
 31
0.0
  0
LINE
  8
DETAIL
  6
CONTINUOUS
 62
     5
 10
42.519889205172717
 20
-347.61727047905168
 30
0.0
 11
42.519889205172717
 21
-347.61727047905168
 31
0.0
  0
LINE
  8
DETAIL
  6
CONTINUOUS
 62
     5
 10
42.519889205172717
 20
-347.61727047905168
 30
0.0
 11
42.510298369515567
 21
-347.61547147662827
 31
0.0
  0
LINE
  8
DETAIL
  6
CONTINUOUS
 62
     5
 10
42.510298369515567
 20
-347.61547147662827
 30
0.0
 11
42.500704935855879
 21
-347.61369548326479
 31
0.0
  0
LINE
  8
DETAIL
  6
CONTINUOUS
 62
     5
 10
42.500704935855879
 20
-347.61369548326479
 30
0.0
 11
42.500704935855879
 21
-347.61369548326479
 31
0.0
  0
LINE
  8
DETAIL
  6
CONTINUOUS
 62
     5
 10
42.500704935855879
 20
-347.61369548326479
 30
0.0
 11
42.491110964048183
 21
-347.61192515118421
 31
0.0
  0
LINE
  8
DETAIL
  6
CONTINUOUS
 62
     5
 10
42.491110964048183
 20
-347.61192515118421
 30
0.0
 11
42.481518513945623
 21
-347.61014313261171
 31
0.0
  0
LINE
  8
DETAIL
  6
CONTINUOUS
 62
     5
 10
42.481518513945623
 20
-347.61014313261171
 30
0.0
 11
42.481518513945623
 21
-347.61014313261171
 31
0.0
  0
LINE
  8
DETAIL
  6
CONTINUOUS
 62
     5
 10
42.481518513945623
 20
-347.61014313261171
 30
0.0
 11
42.47192964540227
 21
-347.60833207977242
 31
0.0
  0
LINE
  8
DETAIL
  6
CONTINUOUS
 62
     5
 10
42.47192964540227
 20
-347.60833207977242
 30
0.0
 11
42.462346418271849
 21
-347.60647464488989
 31
0.0
  0
LINE
  8
DETAIL
  6
CONTINUOUS
 62
     5
 10
42.462346418271849
 20
-347.60647464488989
 30
0.0
 11
42.462346418271849
 21
-347.60647464488989
 31
0.0
  0
LINE
  8
DETAIL
  6
CONTINUOUS
 62
     5
 10
42.462346418271849
 20
-347.60647464488989
 30
0.0
 11
42.452770892408687
 21
-347.60455348018922
 31
0.0
  0
LINE
  8
DETAIL
  6
CONTINUOUS
 62
     5
 10
42.452770892408687
 20
-347.60455348018922
 30
0.0
 11
42.443205127666261
 21
-347.60255123789437
 31
0.0
  0
LINE
  8
DETAIL
  6
CONTINUOUS
 62
     5
 10
42.443205127666261
 20
-347.60255123789437
 30
0.0
 11
42.443205127666261
 21
-347.60255123789437
 31
0.0
  0
LINE
  8
DETAIL
  6
CONTINUOUS
 62
     5
 10
42.443205127666261
 20
-347.60255123789437
 30
0.0
 11
42.433651183898753
 21
-347.60045057023001
 31
0.0
  0
LINE
  8
DETAIL
  6
CONTINUOUS
 62
     5
 10
42.433651183898753
 20
-347.60045057023001
 30
0.0
 11
42.424111120959651
 21
-347.59823412942183
 31
0.0
  0
LINE
  8
DETAIL
  6
CONTINUOUS
 62
     5
 10
42.424111120959651
 20
-347.59823412942183
 30
0.0
 11
42.424111120959651
 21
-347.59823412942183
 31
0.0
  0
LINE
  8
DETAIL
  6
CONTINUOUS
 62
     5
 10
42.424111120959651
 20
-347.59823412942183
 30
0.0
 11
42.414586305373518
 21
-347.59589034840718
 31
0.0
  0
LINE
  8
DETAIL
  6
CONTINUOUS
 62
     5
 10
42.414586305373518
 20
-347.59589034840718
 30
0.0
 11
42.405075330347699
 21
-347.59343078298252
 31
0.0
  0
LINE
  8
DETAIL
  6
CONTINUOUS
 62
     5
 10
42.405075330347699
 20
-347.59343078298252
 30
0.0
 11
42.405075330347699
 21
-347.59343078298252
 31
0.0
  0
LINE
  8
DETAIL
  6
CONTINUOUS
 62
     5
 10
42.405075330347699
 20
-347.59343078298252
 30
0.0
 11
42.395576095760248
 21
-347.59087276965522
 31
0.0
  0
LINE
  8
DETAIL
  6
CONTINUOUS
 62
     5
 10
42.395576095760248
 20
-347.59087276965522
 30
0.0
 11
42.386086501488762
 21
-347.58823364493759
 31
0.0
  0
LINE
  8
DETAIL
  6
CONTINUOUS
 62
     5
 10
42.386086501488762
 20
-347.58823364493759
 30
0.0
 11
42.386086501488762
 21
-347.58823364493759
 31
0.0
  0
LINE
  8
DETAIL
  6
CONTINUOUS
 62
     5
 10
42.386086501488762
 20
-347.58823364493759
 30
0.0
 11
42.37660444741141
 21
-347.58553074533819
 31
0.0
  0
LINE
  8
DETAIL
  6
CONTINUOUS
 62
     5
 10
42.37660444741141
 20
-347.58553074533819
 30
0.0
 11
42.367127833405561
 21
-347.58278140736718
 31
0.0
  0
LINE
  8
DETAIL
  6
CONTINUOUS
 62
     5
 10
42.367127833405561
 20
-347.58278140736718
 30
0.0
 11
42.367127833405561
 21
-347.58278140736718
 31
0.0
  0
LINE
  8
DETAIL
  6
CONTINUOUS
 62
     5
 10
42.367127833405561
 20
-347.58278140736718
 30
0.0
 11
42.357654559349612
 21
-347.58000296753272
 31
0.0
  0
LINE
  8
DETAIL
  6
CONTINUOUS
 62
     5
 10
42.357654559349612
 20
-347.58000296753272
 30
0.0
 11
42.348182525121267
 21
-347.57721276234571
 31
0.0
  0
LINE
  8
DETAIL
  6
CONTINUOUS
 62
     5
 10
42.348182525121267
 20
-347.57721276234571
 30
0.0
 11
42.348182525121267
 21
-347.57721276234571
 31
0.0
  0
LINE
  8
DETAIL
  6
CONTINUOUS
 62
     5
 10
42.348182525121267
 20
-347.57721276234571
 30
0.0
 11
42.338709630598601
 21
-347.57442812831528
 31
0.0
  0
LINE
  8
DETAIL
  6
CONTINUOUS
 62
     5
 10
42.338709630598601
 20
-347.57442812831528
 30
0.0
 11
42.329233775659077
 21
-347.57166640195152
 31
0.0
  0
LINE
  8
DETAIL
  6
CONTINUOUS
 62
     5
 10
42.329233775659077
 20
-347.57166640195152
 30
0.0
 11
42.329233775659077
 21
-347.57166640195152
 31
0.0
  0
LINE
  8
DETAIL
  6
CONTINUOUS
 62
     5
 10
42.329233775659077
 20
-347.57166640195152
 30
0.0
 11
42.319753366234643
 21
-347.56894089534632
 31
0.0
  0
LINE
  8
DETAIL
  6
CONTINUOUS
 62
     5
 10
42.319753366234643
 20
-347.56894089534632
 30
0.0
 11
42.310268832472623
 21
-347.56624882292198
 31
0.0
  0
LINE
  8
DETAIL
  6
CONTINUOUS
 62
     5
 10
42.310268832472623
 20
-347.56624882292198
 30
0.0
 11
42.310268832472623
 21
-347.56624882292198
 31
0.0
  0
LINE
  8
DETAIL
  6
CONTINUOUS
 62
     5
 10
42.310268832472623
 20
-347.56624882292198
 30
0.0
 11
42.300781110574121
 21
-347.56358337468367
 31
0.0
  0
LINE
  8
DETAIL
  6
CONTINUOUS
 62
     5
 10
42.300781110574121
 20
-347.56358337468367
 30
0.0
 11
42.291291136740263
 21
-347.56093774063561
 31
0.0
  0
LINE
  8
DETAIL
  6
CONTINUOUS
 62
     5
 10
42.291291136740263
 20
-347.56093774063561
 30
0.0
 11
42.291291136740263
 21
-347.56093774063561
 31
0.0
  0
LINE
  8
DETAIL
  6
CONTINUOUS
 62
     5
 10
42.291291136740263
 20
-347.56093774063561
 30
0.0
 11
42.281799847172117
 21
-347.55830511078352
 31
0.0
  0
LINE
  8
DETAIL
  6
CONTINUOUS
 62
     5
 10
42.281799847172117
 20
-347.55830511078352
 30
0.0
 11
42.272308178071057
 21
-347.55567867513241
 31
0.0
  0
LINE
  8
DETAIL
  6
CONTINUOUS
 62
     5
 10
42.272308178071057
 20
-347.55567867513241
 30
0.0
 11
42.272308178071057
 21
-347.55567867513241
 31
0.0
  0
LINE
  8
DETAIL
  6
CONTINUOUS
 62
     5
 10
42.272308178071057
 20
-347.55567867513241
 30
0.0
 11
42.262817065637933
 21
-347.55305162368592
 31
0.0
  0
LINE
  8
DETAIL
  6
CONTINUOUS
 62
     5
 10
42.262817065637933
 20
-347.55305162368592
 30
0.0
 11
42.253327446074081
 21
-347.55041714645017
 31
0.0
  0
LINE
  8
DETAIL
  6
CONTINUOUS
 62
     5
 10
42.253327446074081
 20
-347.55041714645017
 30
0.0
 11
42.253327446074081
 21
-347.55041714645017
 31
0.0
  0
LINE
  8
DETAIL
  6
CONTINUOUS
 62
     5
 10
42.253327446074081
 20
-347.55041714645017
 30
0.0
 11
42.243840255580608
 21
-347.54776843342893
 31
0.0
  0
LINE
  8
DETAIL
  6
CONTINUOUS
 62
     5
 10
42.243840255580608
 20
-347.54776843342893
 30
0.0
 11
42.234356430358488
 21
-347.54509867462889
 31
0.0
  0
LINE
  8
DETAIL
  6
CONTINUOUS
 62
     5
 10
42.234356430358488
 20
-347.54509867462889
 30
0.0
 11
42.234356430358488
 21
-347.54509867462889
 31
0.0
  0
LINE
  8
DETAIL
  6
CONTINUOUS
 62
     5
 10
42.234356430358488
 20
-347.54509867462889
 30
0.0
 11
42.224876875332257
 21
-347.54240136278878
 31
0.0
  0
LINE
  8
DETAIL
  6
CONTINUOUS
 62
     5
 10
42.224876875332257
 20
-347.54240136278878
 30
0.0
 11
42.215402370319453
 21
-347.5396712015899
 31
0.0
  0
LINE
  8
DETAIL
  6
CONTINUOUS
 62
     5
 10
42.215402370319453
 20
-347.5396712015899
 30
0.0
 11
42.215402370319453
 21
-347.5396712015899
 31
0.0
  0
LINE
  8
DETAIL
  6
CONTINUOUS
 62
     5
 10
42.215402370319453
 20
-347.5396712015899
 30
0.0
 11
42.205933663860613
 21
-347.53690319744669
 31
0.0
  0
LINE
  8
DETAIL
  6
CONTINUOUS
 62
     5
 10
42.205933663860613
 20
-347.53690319744669
 30
0.0
 11
42.19647150449623
 21
-347.53409235677532
 31
0.0
  0
LINE
  8
DETAIL
  6
CONTINUOUS
 62
     5
 10
42.19647150449623
 20
-347.53409235677532
 30
0.0
 11
42.19647150449623
 21
-347.53409235677532
 31
0.0
  0
LINE
  8
DETAIL
  6
CONTINUOUS
 62
     5
 10
42.19647150449623
 20
-347.53409235677532
 30
0.0
 11
42.187016640766963
 21
-347.53123368599131
 31
0.0
  0
LINE
  8
DETAIL
  6
CONTINUOUS
 62
     5
 10
42.187016640766963
 20
-347.53123368599131
 30
0.0
 11
42.177569821214092
 21
-347.52832219151122
 31
0.0
  0
LINE
  8
DETAIL
  6
CONTINUOUS
 62
     5
 10
42.177569821214092
 20
-347.52832219151122
 30
0.0
 11
42.177569821214092
 21
-347.52832219151122
 31
0.0
  0
LINE
  8
DETAIL
  6
CONTINUOUS
 62
     5
 10
42.177569821214092
 20
-347.52832219151122
 30
0.0
 11
42.168131794378723
 21
-347.52535287974962
 31
0.0
  0
LINE
  8
DETAIL
  6
CONTINUOUS
 62
     5
 10
42.168131794378723
 20
-347.52535287974962
 30
0.0
 11
42.158703308798749
 21
-347.52232075712129
 31
0.0
  0
LINE
  8
DETAIL
  6
CONTINUOUS
 62
     5
 10
42.158703308798749
 20
-347.52232075712129
 30
0.0
 11
42.158703308798749
 21
-347.52232075712129
 31
0.0
  0
LINE
  8
DETAIL
  6
CONTINUOUS
 62
     5
 10
42.158703308798749
 20
-347.52232075712129
 30
0.0
 11
42.149285113013889
 21
-347.51922083004212
 31
0.0
  0
LINE
  8
DETAIL
  6
CONTINUOUS
 62
     5
 10
42.149285113013889
 20
-347.51922083004212
 30
0.0
 11
42.139877955575457
 21
-347.51604810493183
 31
0.0
  0
LINE
  8
DETAIL
  6
CONTINUOUS
 62
     5
 10
42.139877955575457
 20
-347.51604810493183
 30
0.0
 11
42.139877955575457
 21
-347.51604810493183
 31
0.0
  0
LINE
  8
DETAIL
  6
CONTINUOUS
 62
     5
 10
42.139877955575457
 20
-347.51604810493183
 30
0.0
 11
42.130482204079613
 21
-347.51280040168348
 31
0.0
  0
LINE
  8
DETAIL
  6
CONTINUOUS
 62
     5
 10
42.130482204079613
 20
-347.51280040168348
 30
0.0
 11
42.12109670229141
 21
-347.50948679407861
 31
0.0
  0
LINE
  8
DETAIL
  6
CONTINUOUS
 62
     5
 10
42.12109670229141
 20
-347.50948679407861
 30
0.0
 11
42.12109670229141
 21
-347.50948679407861
 31
0.0
  0
LINE
  8
DETAIL
  6
CONTINUOUS
 62
     5
 10
42.12109670229141
 20
-347.50948679407861
 30
0.0
 11
42.111719913058323
 21
-347.50611916938601
 31
0.0
  0
LINE
  8
DETAIL
  6
CONTINUOUS
 62
     5
 10
42.111719913058323
 20
-347.50611916938601
 30
0.0
 11
42.102350299385421
 21
-347.50270941494841
 31
0.0
  0
LINE
  8
DETAIL
  6
CONTINUOUS
 62
     5
 10
42.102350299385421
 20
-347.50270941494841
 30
0.0
 11
42.102350299385421
 21
-347.50270941494841
 31
0.0
  0
LINE
  8
DETAIL
  6
CONTINUOUS
 62
     5
 10
42.102350299385421
 20
-347.50270941494841
 30
0.0
 11
42.092986324170617
 21
-347.49926941805711
 31
0.0
  0
LINE
  8
DETAIL
  6
CONTINUOUS
 62
     5
 10
42.092986324170617
 20
-347.49926941805711
 30
0.0
 11
42.083626449716348
 21
-347.49581106574118
 31
0.0
  0
LINE
  8
DETAIL
  6
CONTINUOUS
 62
     5
 10
42.083626449716348
 20
-347.49581106574118
 30
0.0
 11
42.083626449716348
 21
-347.49581106574118
 31
0.0
  0
LINE
  8
DETAIL
  6
CONTINUOUS
 62
     5
 10
42.083626449716348
 20
-347.49581106574118
 30
0.0
 11
42.074269138732006
 21
-347.49234624520898
 31
0.0
  0
LINE
  8
DETAIL
  6
CONTINUOUS
 62
     5
 10
42.074269138732006
 20
-347.49234624520898
 30
0.0
 11
42.064912856144701
 21
-347.48888684465561
 31
0.0
  0
LINE
  8
DETAIL
  6
CONTINUOUS
 62
     5
 10
42.064912856144701
 20
-347.48888684465561
 30
0.0
 11
42.064912856144701
 21
-347.48888684465561
 31
0.0
  0
LINE
  8
DETAIL
  6
CONTINUOUS
 62
     5
 10
42.064912856144701
 20
-347.48888684465561
 30
0.0
 11
42.055556065366893
 21
-347.48544475160071
 31
0.0
  0
LINE
  8
DETAIL
  6
CONTINUOUS
 62
     5
 10
42.055556065366893
 20
-347.48544475160071
 30
0.0
 11
42.046197221530413
 21
-347.48203184989018
 31
0.0
  0
LINE
  8
DETAIL
  6
CONTINUOUS
 62
     5
 10
42.046197221530413
 20
-347.48203184989018
 30
0.0
 11
42.046197221530413
 21
-347.48203184989018
 31
0.0
  0
LINE
  8
DETAIL
  6
CONTINUOUS
 62
     5
 10
42.046197221530413
 20
-347.48203184989018
 30
0.0
 11
42.036835143877397
 21
-347.47865591776628
 31
0.0
  0
LINE
  8
DETAIL
  6
CONTINUOUS
 62
     5
 10
42.036835143877397
 20
-347.47865591776628
 30
0.0
 11
42.027470116368477
 21
-347.47530831474472
 31
0.0
  0
LINE
  8
DETAIL
  6
CONTINUOUS
 62
     5
 10
42.027470116368477
 20
-347.47530831474472
 30
0.0
 11
42.027470116368477
 21
-347.47530831474472
 31
0.0
  0
LINE
  8
DETAIL
  6
CONTINUOUS
 62
     5
 10
42.027470116368477
 20
-347.47530831474472
 30
0.0
 11
42.018102760313127
 21
-347.47197628285431
 31
0.0
  0
LINE
  8
DETAIL
  6
CONTINUOUS
 62
     5
 10
42.018102760313127
 20
-347.47197628285431
 30
0.0
 11
42.008733581696113
 21
-347.46864701291122
 31
0.0
  0
LINE
  8
DETAIL
  6
CONTINUOUS
 62
     5
 10
42.008733581696113
 20
-347.46864701291122
 30
0.0
 11
42.008733581696113
 21
-347.46864701291122
 31
0.0
  0
LINE
  8
DETAIL
  6
CONTINUOUS
 62
     5
 10
42.008733581696113
 20
-347.46864701291122
 30
0.0
 11
41.999363165270779
 21
-347.46530773071203
 31
0.0
  0
LINE
  8
DETAIL
  6
CONTINUOUS
 62
     5
 10
41.999363165270779
 20
-347.46530773071203
 30
0.0
 11
41.989992526185233
 21
-347.46194585318449
 31
0.0
  0
LINE
  8
DETAIL
  6
CONTINUOUS
 62
     5
 10
41.989992526185233
 20
-347.46194585318449
 30
0.0
 11
41.989992526185233
 21
-347.46194585318449
 31
0.0
  0
LINE
  8
DETAIL
  6
CONTINUOUS
 62
     5
 10
41.989992526185233
 20
-347.46194585318449
 30
0.0
 11
41.980622385622837
 21
-347.4585486667109
 31
0.0
  0
LINE
  8
DETAIL
  6
CONTINUOUS
 62
     5
 10
41.980622385622837
 20
-347.4585486667109
 30
0.0
 11
41.971251858508367
 21
-347.45510274435651
 31
0.0
  0
LINE
  8
DETAIL
  6
CONTINUOUS
 62
     5
 10
41.971251858508367
 20
-347.45510274435651
 30
0.0
 11
41.971251858508367
 21
-347.45510274435651
 31
0.0
  0
LINE
  8
DETAIL
  6
CONTINUOUS
 62
     5
 10
41.971251858508367
 20
-347.45510274435651
 30
0.0
 11
41.961881156861068
 21
-347.45159514639022
 31
0.0
  0
LINE
  8
DETAIL
  6
CONTINUOUS
 62
     5
 10
41.961881156861068
 20
-347.45159514639022
 30
0.0
 11
41.952516487337327
 21
-347.44801559522028
 31
0.0
  0
LINE
  8
DETAIL
  6
CONTINUOUS
 62
     5
 10
41.952516487337327
 20
-347.44801559522028
 30
0.0
 11
41.952516487337327
 21
-347.44801559522028
 31
0.0
  0
LINE
  8
DETAIL
  6
CONTINUOUS
 62
     5
 10
41.952516487337327
 20
-347.44801559522028
 30
0.0
 11
41.943159820205658
 21
-347.44435531967798
 31
0.0
  0
LINE
  8
DETAIL
  6
CONTINUOUS
 62
     5
 10
41.943159820205658
 20
-347.44435531967798
 30
0.0
 11
41.93379018554981
 21
-347.4406089121585
 31
0.0
  0
LINE
  8
DETAIL
  6
CONTINUOUS
 62
     5
 10
41.93379018554981
 20
-347.4406089121585
 30
0.0
 11
41.93379018554981
 21
-347.4406089121585
 31
0.0
  0
LINE
  8
DETAIL
  6
CONTINUOUS
 62
     5
 10
41.93379018554981
 20
-347.4406089121585
 30
0.0
 11
41.924401752036601
 21
-347.43678107564477
 31
0.0
  0
LINE
  8
DETAIL
  6
CONTINUOUS
 62
     5
 10
41.924401752036601
 20
-347.43678107564477
 30
0.0
 11
41.915072182845513
 21
-347.43291359191193
 31
0.0
  0
LINE
  8
DETAIL
  6
CONTINUOUS
 62
     5
 10
41.915072182845513
 20
-347.43291359191193
 30
0.0
 11
41.915072182845513
 21
-347.43291359191193
 31
0.0
  0
LINE
  8
DETAIL
  6
CONTINUOUS
 62
     5
 10
41.915072182845513
 20
-347.43291359191193
 30
0.0
 11
41.905822113343447
 21
-347.42902291744832
 31
0.0
  0
LINE
  8
DETAIL
  6
CONTINUOUS
 62
     5
 10
41.905822113343447
 20
-347.42902291744832
 30
0.0
 11
41.896360573128618
 21
-347.42498712881172
 31
0.0
  0
LINE
  8
DETAIL
  6
CONTINUOUS
 62
     5
 10
41.896360573128618
 20
-347.42498712881172
 30
0.0
 11
41.896360573128618
 21
-347.42498712881172
 31
0.0
  0
LINE
  8
DETAIL
  6
CONTINUOUS
 62
     5
 10
41.896360573128618
 20
-347.42498712881172
 30
0.0
 11
41.886609422497941
 21
-347.42077881781051
 31
0.0
  0
LINE
  8
DETAIL
  6
CONTINUOUS
 62
     5
 10
41.886609422497941
 20
-347.42077881781051
 30
0.0
 11
41.877653450304358
 21
-347.41688701718772
 31
0.0
  0
LINE
  8
DETAIL
  6
CONTINUOUS
 62
     5
 10
41.877653450304358
 20
-347.41688701718772
 30
0.0
 11
41.877653450304358
 21
-347.41688701718772
 31
0.0
  0
LINE
  8
DETAIL
  6
CONTINUOUS
 62
     5
 10
41.877653450304358
 20
-347.41688701718772
 30
0.0
 11
41.869783150425413
 21
-347.41344802396952
 31
0.0
  0
LINE
  8
DETAIL
  6
CONTINUOUS
 62
     5
 10
41.869783150425413
 20
-347.41344802396952
 30
0.0
 11
41.858948908276943
 21
-347.40867075137197
 31
0.0
  0
LINE
  8
DETAIL
  6
CONTINUOUS
 62
     5
 10
41.858948908276943
 20
-347.40867075137197
 30
0.0
 11
41.858948908276943
 21
-347.40867075137197
 31
0.0
  0
LINE
  8
DETAIL
  6
CONTINUOUS
 62
     5
 10
41.858948908276943
 20
-347.40867075137197
 30
0.0
 11
41.841727621956579
 21
-347.40103791294092
 31
0.0
  0
LINE
  8
DETAIL
  6
CONTINUOUS
 62
     5
 10
41.841727621956579
 20
-347.40103791294092
 30
0.0
 11
41.82154234874838
 21
-347.39205480734489
 31
0.0
  0
LINE
  8
DETAIL
  6
CONTINUOUS
 62
     5
 10
41.82154234874838
 20
-347.39205480734489
 30
0.0
 11
41.82154234874838
 21
-347.39205480734489
 31
0.0
  0
LINE
  8
DETAIL
  6
CONTINUOUS
 62
     5
 10
41.82154234874838
 20
-347.39205480734489
 30
0.0
 11
41.802442616780013
 21
-347.38350650968658
 31
0.0
  0
LINE
  8
DETAIL
  6
CONTINUOUS
 62
     5
 10
41.802442616780013
 20
-347.38350650968658
 30
0.0
 11
41.784137678361049
 21
-347.37527461567993
 31
0.0
  0
LINE
  8
DETAIL
  6
CONTINUOUS
 62
     5
 10
41.784137678361049
 20
-347.37527461567993
 30
0.0
 11
41.784137678361049
 21
-347.37527461567993
 31
0.0
  0
LINE
  8
DETAIL
  6
CONTINUOUS
 62
     5
 10
41.784137678361049
 20
-347.37527461567993
 30
0.0
 11
41.76554236332845
 21
-347.36689205445282
 31
0.0
  0
LINE
  8
DETAIL
  6
CONTINUOUS
 62
     5
 10
41.76554236332845
 20
-347.36689205445282
 30
0.0
 11
41.746734087448999
 21
-347.35840056818893
 31
0.0
  0
LINE
  8
DETAIL
  6
CONTINUOUS
 62
     5
 10
41.746734087448999
 20
-347.35840056818893
 30
0.0
 11
41.746734087448999
 21
-347.35840056818893
 31
0.0
  0
LINE
  8
DETAIL
  6
CONTINUOUS
 62
     5
 10
41.746734087448999
 20
-347.35840056818893
 30
0.0
 11
41.728003395996438
 21
-347.34993615912731
 31
0.0
  0
LINE
  8
DETAIL
  6
CONTINUOUS
 62
     5
 10
41.728003395996438
 20
-347.34993615912731
 30
0.0
 11
41.709330766346511
 21
-347.34150305668089
 31
0.0
  0
LINE
  8
DETAIL
  6
CONTINUOUS
 62
     5
 10
41.709330766346511
 20
-347.34150305668089
 30
0.0
 11
41.709330766346511
 21
-347.34150305668089
 31
0.0
  0
LINE
  8
DETAIL
  6
CONTINUOUS
 62
     5
 10
41.709330766346511
 20
-347.34150305668089
 30
0.0
 11
41.690638580316431
 21
-347.33307711661911
 31
0.0
  0
LINE
  8
DETAIL
  6
CONTINUOUS
 62
     5
 10
41.690638580316431
 20
-347.33307711661911
 30
0.0
 11
41.671926905387849
 21
-347.32465247296818
 31
0.0
  0
LINE
  8
DETAIL
  6
CONTINUOUS
 62
     5
 10
308.84310714589668
 20
-18.526093092116529
 30
0.0
 11
308.76138082873342
 21
-18.52538254012461
 31
0.0
  0
LINE
  8
DETAIL
  6
CONTINUOUS
 62
     5
 10
308.76138082873342
 20
-18.52538254012461
 30
0.0
 11
308.67965364323709
 21
-18.524018885691252
 31
0.0
  0
LINE
  8
DETAIL
  6
CONTINUOUS
 62
     5
 10
308.67965364323709
 20
-18.524018885691252
 30
0.0
 11
308.67965364323709
 21
-18.524018885691252
 31
0.0
  0
LINE
  8
DETAIL
  6
CONTINUOUS
 62
     5
 10
308.67965364323709
 20
-18.524018885691252
 30
0.0
 11
308.5979316411607
 21
-18.52148938594723
 31
0.0
  0
LINE
  8
DETAIL
  6
CONTINUOUS
 62
     5
 10
308.5979316411607
 20
-18.52148938594723
 30
0.0
 11
308.51624855459642
 21
-18.517842736303461
 31
0.0
  0
LINE
  8
DETAIL
  6
CONTINUOUS
 62
     5
 10
308.51624855459642
 20
-18.517842736303461
 30
0.0
 11
308.51624855459642
 21
-18.517842736303461
 31
0.0
  0
LINE
  8
DETAIL
  6
CONTINUOUS
 62
     5
 10
308.51624855459642
 20
-18.517842736303461
 30
0.0
 11
308.43462583389692
 21
-18.513228009433082
 31
0.0
  0
LINE
  8
DETAIL
  6
CONTINUOUS
 62
     5
 10
308.43462583389692
 20
-18.513228009433082
 30
0.0
 11
308.35300812211449
 21
-18.5076343487824
 31
0.0
  0
LINE
  8
DETAIL
  6
CONTINUOUS
 62
     5
 10
308.35300812211449
 20
-18.5076343487824
 30
0.0
 11
308.35300812211449
 21
-18.5076343487824
 31
0.0
  0
LINE
  8
DETAIL
  6
CONTINUOUS
 62
     5
 10
308.35300812211449
 20
-18.5076343487824
 30
0.0
 11
308.27139074769019
 21
-18.501030485150299
 31
0.0
  0
LINE
  8
DETAIL
  6
CONTINUOUS
 62
     5
 10
308.27139074769019
 20
-18.501030485150299
 30
0.0
 11
308.19004858792982
 21
-18.49346342796116
 31
0.0
  0
LINE
  8
DETAIL
  6
CONTINUOUS
 62
     5
 10
308.19004858792982
 20
-18.49346342796116
 30
0.0
 11
308.19004858792982
 21
-18.49346342796116
 31
0.0
  0
LINE
  8
DETAIL
  6
CONTINUOUS
 62
     5
 10
308.19004858792982
 20
-18.49346342796116
 30
0.0
 11
308.10906606031682
 21
-18.484961459976599
 31
0.0
  0
LINE
  8
DETAIL
  6
CONTINUOUS
 62
     5
 10
308.10906606031682
 20
-18.484961459976599
 30
0.0
 11
308.02748619418207
 21
-18.47539967866874
 31
0.0
  0
LINE
  8
DETAIL
  6
CONTINUOUS
 62
     5
 10
308.02748619418207
 20
-18.47539967866874
 30
0.0
 11
308.02748619418207
 21
-18.47539967866874
 31
0.0
  0
LINE
  8
DETAIL
  6
CONTINUOUS
 62
     5
 10
308.02748619418207
 20
-18.47539967866874
 30
0.0
 11
307.94449967531818
 21
-18.464667711125461
 31
0.0
  0
LINE
  8
DETAIL
  6
CONTINUOUS
 62
     5
 10
307.94449967531818
 20
-18.464667711125461
 30
0.0
 11
307.86092920351581
 21
-18.452866488172958
 31
0.0
  0
LINE
  8
DETAIL
  6
CONTINUOUS
 62
     5
 10
307.86092920351581
 20
-18.452866488172958
 30
0.0
 11
307.86092920351581
 21
-18.452866488172958
 31
0.0
  0
LINE
  8
DETAIL
  6
CONTINUOUS
 62
     5
 10
307.86092920351581
 20
-18.452866488172958
 30
0.0
 11
307.77775550843648
 21
-18.440123990252221
 31
0.0
  0
LINE
  8
DETAIL
  6
CONTINUOUS
 62
     5
 10
307.77775550843648
 20
-18.440123990252221
 30
0.0
 11
307.69495942522917
 21
-18.426465092514949
 31
0.0
  0
LINE
  8
DETAIL
  6
CONTINUOUS
 62
     5
 10
307.69495942522917
 20
-18.426465092514949
 30
0.0
 11
307.69495942522917
 21
-18.426465092514949
 31
0.0
  0
LINE
  8
DETAIL
  6
CONTINUOUS
 62
     5
 10
307.69495942522917
 20
-18.426465092514949
 30
0.0
 11
307.61229659307918
 21
-18.41188531088028
 31
0.0
  0
LINE
  8
DETAIL
  6
CONTINUOUS
 62
     5
 10
307.61229659307918
 20
-18.41188531088028
 30
0.0
 11
307.52962176183962
 21
-18.39636582961953
 31
0.0
  0
LINE
  8
DETAIL
  6
CONTINUOUS
 62
     5
 10
307.52962176183962
 20
-18.39636582961953
 30
0.0
 11
307.52962176183962
 21
-18.39636582961953
 31
0.0
  0
LINE
  8
DETAIL
  6
CONTINUOUS
 62
     5
 10
307.52962176183962
 20
-18.39636582961953
 30
0.0
 11
307.44696532199112
 21
-18.37992435806245
 31
0.0
  0
LINE
  8
DETAIL
  6
CONTINUOUS
 62
     5
 10
307.44696532199112
 20
-18.37992435806245
 30
0.0
 11
307.36496111586519
 21
-18.362739037413348
 31
0.0
  0
LINE
  8
DETAIL
  6
CONTINUOUS
 62
     5
 10
307.36496111586519
 20
-18.362739037413348
 30
0.0
 11
307.36496111586519
 21
-18.362739037413348
 31
0.0
  0
LINE
  8
DETAIL
  6
CONTINUOUS
 62
     5
 10
307.36496111586519
 20
-18.362739037413348
 30
0.0
 11
307.28376561923932
 21
-18.344871267879849
 31
0.0
  0
LINE
  8
DETAIL
  6
CONTINUOUS
 62
     5
 10
307.28376561923932
 20
-18.344871267879849
 30
0.0
 11
307.20102238982332
 21
-18.3257550538201
 31
0.0
  0
LINE
  8
DETAIL
  6
CONTINUOUS
 62
     5
 10
307.20102238982332
 20
-18.3257550538201
 30
0.0
 11
307.20102238982332
 21
-18.3257550538201
 31
0.0
  0
LINE
  8
DETAIL
  6
CONTINUOUS
 62
     5
 10
307.20102238982332
 20
-18.3257550538201
 30
0.0
 11
307.11474626878862
 21
-18.304905163970261
 31
0.0
  0
LINE
  8
DETAIL
  6
CONTINUOUS
 62
     5
 10
307.11474626878862
 20
-18.304905163970261
 30
0.0
 11
307.02695014921818
 21
-18.28278682045584
 31
0.0
  0
LINE
  8
DETAIL
  6
CONTINUOUS
 62
     5
 10
307.02695014921818
 20
-18.28278682045584
 30
0.0
 11
307.02695014921818
 21
-18.28278682045584
 31
0.0
  0
LINE
  8
DETAIL
  6
CONTINUOUS
 62
     5
 10
307.02695014921818
 20
-18.28278682045584
 30
0.0
 11
306.94001053957652
 21
-18.25995873051966
 31
0.0
  0
LINE
  8
DETAIL
  6
CONTINUOUS
 62
     5
 10
306.94001053957652
 20
-18.25995873051966
 30
0.0
 11
306.85376035793888
 21
-18.236403088493031
 31
0.0
  0
LINE
  8
DETAIL
  6
CONTINUOUS
 62
     5
 10
306.85376035793888
 20
-18.236403088493031
 30
0.0
 11
306.85376035793888
 21
-18.236403088493031
 31
0.0
  0
LINE
  8
DETAIL
  6
CONTINUOUS
 62
     5
 10
306.85376035793888
 20
-18.236403088493031
 30
0.0
 11
306.76756489954118
 21
-18.212002295202861
 31
0.0
  0
LINE
  8
DETAIL
  6
CONTINUOUS
 62
     5
 10
306.76756489954118
 20
-18.212002295202861
 30
0.0
 11
306.68146255865281
 21
-18.186816090370929
 31
0.0
  0
LINE
  8
DETAIL
  6
CONTINUOUS
 62
     5
 10
306.68146255865281
 20
-18.186816090370929
 30
0.0
 11
306.68146255865281
 21
-18.186816090370929
 31
0.0
  0
LINE
  8
DETAIL
  6
CONTINUOUS
 62
     5
 10
306.68146255865281
 20
-18.186816090370929
 30
0.0
 11
306.59562280286508
 21
-18.160915337776942
 31
0.0
  0
LINE
  8
DETAIL
  6
CONTINUOUS
 62
     5
 10
306.59562280286508
 20
-18.160915337776942
 30
0.0
 11
306.51006629402741
 21
-18.134238058533359
 31
0.0
  0
LINE
  8
DETAIL
  6
CONTINUOUS
 62
     5
 10
306.51006629402741
 20
-18.134238058533359
 30
0.0
 11
306.51006629402741
 21
-18.134238058533359
 31
0.0
  0
LINE
  8
DETAIL
  6
CONTINUOUS
 62
     5
 10
306.51006629402741
 20
-18.134238058533359
 30
0.0
 11
306.42475702353772
 21
-18.10677757102712
 31
0.0
  0
LINE
  8
DETAIL
  6
CONTINUOUS
 62
     5
 10
306.42475702353772
 20
-18.10677757102712
 30
0.0
 11
306.33958110673012
 21
-18.07888122541976
 31
0.0
  0
LINE
  8
DETAIL
  6
CONTINUOUS
 62
     5
 10
311.34663329261139
 20
-18.07888122541976
 30
0.0
 11
311.26148411922952
 21
-18.106768976779229
 31
0.0
  0
LINE
  8
DETAIL
  6
CONTINUOUS
 62
     5
 10
311.26148411922952
 20
-18.106768976779229
 30
0.0
 11
311.1762015586263
 21
-18.134221176740311
 31
0.0
  0
LINE
  8
DETAIL
  6
CONTINUOUS
 62
     5
 10
311.1762015586263
 20
-18.134221176740311
 30
0.0
 11
311.1762015586263
 21
-18.134221176740311
 31
0.0
  0
LINE
  8
DETAIL
  6
CONTINUOUS
 62
     5
 10
311.1762015586263
 20
-18.134221176740311
 30
0.0
 11
311.09067180158138
 21
-18.160890699630041
 31
0.0
  0
LINE
  8
DETAIL
  6
CONTINUOUS
 62
     5
 10
311.09067180158138
 20
-18.160890699630041
 30
0.0
 11
311.0048593508767
 21
-18.186784122683999
 31
0.0
  0
LINE
  8
DETAIL
  6
CONTINUOUS
 62
     5
 10
311.0048593508767
 20
-18.186784122683999
 30
0.0
 11
311.0048593508767
 21
-18.186784122683999
 31
0.0
  0
LINE
  8
DETAIL
  6
CONTINUOUS
 62
     5
 10
311.0048593508767
 20
-18.186784122683999
 30
0.0
 11
310.91878497190862
 21
-18.21196336784806
 31
0.0
  0
LINE
  8
DETAIL
  6
CONTINUOUS
 62
     5
 10
310.91878497190862
 20
-18.21196336784806
 30
0.0
 11
310.83261616852877
 21
-18.236358033005899
 31
0.0
  0
LINE
  8
DETAIL
  6
CONTINUOUS
 62
     5
 10
310.83261616852877
 20
-18.236358033005899
 30
0.0
 11
310.83261616852877
 21
-18.236358033005899
 31
0.0
  0
LINE
  8
DETAIL
  6
CONTINUOUS
 62
     5
 10
310.83261616852877
 20
-18.236358033005899
 30
0.0
 11
310.74639081274591
 21
-18.259908533361791
 31
0.0
  0
LINE
  8
DETAIL
  6
CONTINUOUS
 62
     5
 10
310.74639081274591
 20
-18.259908533361791
 30
0.0
 11
310.65948151074878
 21
-18.282730877461521
 31
0.0
  0
LINE
  8
DETAIL
  6
CONTINUOUS
 62
     5
 10
310.65948151074878
 20
-18.282730877461521
 30
0.0
 11
310.65948151074878
 21
-18.282730877461521
 31
0.0
  0
LINE
  8
DETAIL
  6
CONTINUOUS
 62
     5
 10
310.65948151074878
 20
-18.282730877461521
 30
0.0
 11
310.57172313347752
 21
-18.30484245985895
 31
0.0
  0
LINE
  8
DETAIL
  6
CONTINUOUS
 62
     5
 10
310.57172313347752
 20
-18.30484245985895
 30
0.0
 11
310.48546487670308
 21
-18.325690625804331
 31
0.0
  0
LINE
  8
DETAIL
  6
CONTINUOUS
 62
     5
 10
310.48546487670308
 20
-18.325690625804331
 30
0.0
 11
310.48546487670308
 21
-18.325690625804331
 31
0.0
  0
LINE
  8
DETAIL
  6
CONTINUOUS
 62
     5
 10
310.48546487670308
 20
-18.325690625804331
 30
0.0
 11
310.40269653201972
 21
-18.344815129375089
 31
0.0
  0
LINE
  8
DETAIL
  6
CONTINUOUS
 62
     5
 10
310.40269653201972
 20
-18.344815129375089
 30
0.0
 11
310.32145594948418
 21
-18.36269540927378
 31
0.0
  0
LINE
  8
DETAIL
  6
CONTINUOUS
 62
     5
 10
310.32145594948418
 20
-18.36269540927378
 30
0.0
 11
310.32145594948418
 21
-18.36269540927378
 31
0.0
  0
LINE
  8
DETAIL
  6
CONTINUOUS
 62
     5
 10
310.32145594948418
 20
-18.36269540927378
 30
0.0
 11
310.23941385377998
 21
-18.379890771460619
 31
0.0
  0
LINE
  8
DETAIL
  6
CONTINUOUS
 62
     5
 10
310.23941385377998
 20
-18.379890771460619
 30
0.0
 11
310.15672440963698
 21
-18.396340306298729
 31
0.0
  0
LINE
  8
DETAIL
  6
CONTINUOUS
 62
     5
 10
310.15672440963698
 20
-18.396340306298729
 30
0.0
 11
310.15672440963698
 21
-18.396340306298729
 31
0.0
  0
LINE
  8
DETAIL
  6
CONTINUOUS
 62
     5
 10
310.15672440963698
 20
-18.396340306298729
 30
0.0
 11
310.07401409932783
 21
-18.411867639755659
 31
0.0
  0
LINE
  8
DETAIL
  6
CONTINUOUS
 62
     5
 10
310.07401409932783
 20
-18.411867639755659
 30
0.0
 11
309.99131523525318
 21
-18.426454755809569
 31
0.0
  0
LINE
  8
DETAIL
  6
CONTINUOUS
 62
     5
 10
309.99131523525318
 20
-18.426454755809569
 30
0.0
 11
309.99131523525318
 21
-18.426454755809569
 31
0.0
  0
LINE
  8
DETAIL
  6
CONTINUOUS
 62
     5
 10
309.99131523525318
 20
-18.426454755809569
 30
0.0
 11
309.90848489720707
 21
-18.440119923827979
 31
0.0
  0
LINE
  8
DETAIL
  6
CONTINUOUS
 62
     5
 10
309.90848489720707
 20
-18.440119923827979
 30
0.0
 11
309.82527340442402
 21
-18.452868196736059
 31
0.0
  0
LINE
  8
DETAIL
  6
CONTINUOUS
 62
     5
 10
309.82527340442402
 20
-18.452868196736059
 30
0.0
 11
309.82527340442402
 21
-18.452868196736059
 31
0.0
  0
LINE
  8
DETAIL
  6
CONTINUOUS
 62
     5
 10
309.82527340442402
 20
-18.452868196736059
 30
0.0
 11
309.74165968902469
 21
-18.464674950289009
 31
0.0
  0
LINE
  8
DETAIL
  6
CONTINUOUS
 62
     5
 10
309.74165968902469
 20
-18.464674950289009
 30
0.0
 11
309.6586438952412
 21
-18.475410068007481
 31
0.0
  0
LINE
  8
DETAIL
  6
CONTINUOUS
 62
     5
 10
309.6586438952412
 20
-18.475410068007481
 30
0.0
 11
309.6586438952412
 21
-18.475410068007481
 31
0.0
  0
LINE
  8
DETAIL
  6
CONTINUOUS
 62
     5
 10
309.6586438952412
 20
-18.475410068007481
 30
0.0
 11
309.57706525631721
 21
-18.484970901603671
 31
0.0
  0
LINE
  8
DETAIL
  6
CONTINUOUS
 62
     5
 10
309.57706525631721
 20
-18.484970901603671
 30
0.0
 11
309.49609814943727
 21
-18.493470167789841
 31
0.0
  0
LINE
  8
DETAIL
  6
CONTINUOUS
 62
     5
 10
309.49609814943727
 20
-18.493470167789841
 30
0.0
 11
309.49609814943727
 21
-18.493470167789841
 31
0.0
  0
LINE
  8
DETAIL
  6
CONTINUOUS
 62
     5
 10
309.49609814943727
 20
-18.493470167789841
 30
0.0
 11
309.41476626505118
 21
-18.501035419669961
 31
0.0
  0
LINE
  8
DETAIL
  6
CONTINUOUS
 62
     5
 10
309.41476626505118
 20
-18.501035419669961
 30
0.0
 11
309.33315540272338
 21
-18.507638190927992
 31
0.0
  0
LINE
  8
DETAIL
  6
CONTINUOUS
 62
     5
 10
309.33315540272338
 20
-18.507638190927992
 30
0.0
 11
309.33315540272338
 21
-18.507638190927992
 31
0.0
  0
LINE
  8
DETAIL
  6
CONTINUOUS
 62
     5
 10
309.33315540272338
 20
-18.507638190927992
 30
0.0
 11
309.25154561459289
 21
-18.513230767855699
 31
0.0
  0
LINE
  8
DETAIL
  6
CONTINUOUS
 62
     5
 10
309.25154561459289
 20
-18.513230767855699
 30
0.0
 11
309.16993185397678
 21
-18.517844466585981
 31
0.0
  0
LINE
  8
DETAIL
  6
CONTINUOUS
 62
     5
 10
309.16993185397678
 20
-18.517844466585981
 30
0.0
 11
309.16993185397678
 21
-18.517844466585981
 31
0.0
  0
LINE
  8
DETAIL
  6
CONTINUOUS
 62
     5
 10
309.16993185397678
 20
-18.517844466585981
 30
0.0
 11
309.08825737102848
 21
-18.521490335727549
 31
0.0
  0
LINE
  8
DETAIL
  6
CONTINUOUS
 62
     5
 10
309.08825737102848
 20
-18.521490335727549
 30
0.0
 11
309.00654370207519
 21
-18.52401932392786
 31
0.0
  0
LINE
  8
DETAIL
  6
CONTINUOUS
 62
     5
 10
309.00654370207519
 20
-18.52401932392786
 30
0.0
 11
309.00654370207519
 21
-18.52401932392786
 31
0.0
  0
LINE
  8
DETAIL
  6
CONTINUOUS
 62
     5
 10
309.00654370207519
 20
-18.52401932392786
 30
0.0
 11
308.92482494351998
 21
-18.525382697342589
 31
0.0
  0
LINE
  8
DETAIL
  6
CONTINUOUS
 62
     5
 10
308.92482494351998
 20
-18.525382697342589
 30
0.0
 11
308.84310714589668
 21
-18.526093092116529
 31
0.0
  0
LINE
  8
DETAIL
  6
CONTINUOUS
 62
     5
 10
-277.68652631875489
 20
-18.526093088561311
 30
0.0
 11
-277.76825264151802
 21
-18.525382535697421
 31
0.0
  0
LINE
  8
DETAIL
  6
CONTINUOUS
 62
     5
 10
-277.76825264151802
 20
-18.525382535697421
 30
0.0
 11
-277.84997983259632
 21
-18.5240188807295
 31
0.0
  0
LINE
  8
DETAIL
  6
CONTINUOUS
 62
     5
 10
-277.84997983259632
 20
-18.5240188807295
 30
0.0
 11
-277.84997983259632
 21
-18.5240188807295
 31
0.0
  0
LINE
  8
DETAIL
  6
CONTINUOUS
 62
     5
 10
-277.84997983259632
 20
-18.5240188807295
 30
0.0
 11
-277.93170184023262
 21
-18.521489381028459
 31
0.0
  0
LINE
  8
DETAIL
  6
CONTINUOUS
 62
     5
 10
-277.93170184023262
 20
-18.521489381028459
 30
0.0
 11
-278.01338493237807
 21
-18.517842731862171
 31
0.0
  0
LINE
  8
DETAIL
  6
CONTINUOUS
 62
     5
 10
-278.01338493237807
 20
-18.517842731862171
 30
0.0
 11
-278.01338493237807
 21
-18.517842731862171
 31
0.0
  0
LINE
  8
DETAIL
  6
CONTINUOUS
 62
     5
 10
-278.01338493237807
 20
-18.517842731862171
 30
0.0
 11
-278.09500765869188
 21
-18.51322800569756
 31
0.0
  0
LINE
  8
DETAIL
  6
CONTINUOUS
 62
     5
 10
-278.09500765869188
 20
-18.51322800569756
 30
0.0
 11
-278.17662537595129
 21
-18.50763434589976
 31
0.0
  0
LINE
  8
DETAIL
  6
CONTINUOUS
 62
     5
 10
-278.17662537595129
 20
-18.50763434589976
 30
0.0
 11
-278.17662537595129
 21
-18.50763434589976
 31
0.0
  0
LINE
  8
DETAIL
  6
CONTINUOUS
 62
     5
 10
-278.17662537595129
 20
-18.50763434589976
 30
0.0
 11
-278.25824275566652
 21
-18.5010304831867
 31
0.0
  0
LINE
  8
DETAIL
  6
CONTINUOUS
 62
     5
 10
-278.25824275566652
 20
-18.5010304831867
 30
0.0
 11
-278.33958492116642
 21
-18.493463426781769
 31
0.0
  0
LINE
  8
DETAIL
  6
CONTINUOUS
 62
     5
 10
-278.33958492116642
 20
-18.493463426781769
 30
0.0
 11
-278.33958492116642
 21
-18.493463426781769
 31
0.0
  0
LINE
  8
DETAIL
  6
CONTINUOUS
 62
     5
 10
-278.33958492116642
 20
-18.493463426781769
 30
0.0
 11
-278.42056745513628
 21
-18.48496145930471
 31
0.0
  0
LINE
  8
DETAIL
  6
CONTINUOUS
 62
     5
 10
-278.42056745513628
 20
-18.48496145930471
 30
0.0
 11
-278.5021473258754
 21
-18.47539967844887
 31
0.0
  0
LINE
  8
DETAIL
  6
CONTINUOUS
 62
     5
 10
-278.5021473258754
 20
-18.47539967844887
 30
0.0
 11
-278.5021473258754
 21
-18.47539967844887
 31
0.0
  0
LINE
  8
DETAIL
  6
CONTINUOUS
 62
     5
 10
-278.5021473258754
 20
-18.47539967844887
 30
0.0
 11
-278.58513384558972
 21
-18.46466771150563
 31
0.0
  0
LINE
  8
DETAIL
  6
CONTINUOUS
 62
     5
 10
-278.58513384558972
 20
-18.46466771150563
 30
0.0
 11
-278.66870431649892
 21
-18.452866489097691
 31
0.0
  0
LINE
  8
DETAIL
  6
CONTINUOUS
 62
     5
 10
-278.66870431649892
 20
-18.452866489097691
 30
0.0
 11
-278.66870431649892
 21
-18.452866489097691
 31
0.0
  0
LINE
  8
DETAIL
  6
CONTINUOUS
 62
     5
 10
-278.66870431649892
 20
-18.452866489097691
 30
0.0
 11
-278.75187801131767
 21
-18.44012399142866
 31
0.0
  0
LINE
  8
DETAIL
  6
CONTINUOUS
 62
     5
 10
-278.75187801131767
 20
-18.44012399142866
 30
0.0
 11
-278.83467409472701
 21
-18.42646509370843
 31
0.0
  0
LINE
  8
DETAIL
  6
CONTINUOUS
 62
     5
 10
-278.83467409472701
 20
-18.42646509370843
 30
0.0
 11
-278.83467409472701
 21
-18.42646509370843
 31
0.0
  0
LINE
  8
DETAIL
  6
CONTINUOUS
 62
     5
 10
-278.83467409472701
 20
-18.42646509370843
 30
0.0
 11
-278.91733692690241
 21
-18.411885311968259
 31
0.0
  0
LINE
  8
DETAIL
  6
CONTINUOUS
 62
     5
 10
-278.91733692690241
 20
-18.411885311968259
 30
0.0
 11
-279.00001175803709
 21
-18.396365830511741
 31
0.0
  0
LINE
  8
DETAIL
  6
CONTINUOUS
 62
     5
 10
-279.00001175803709
 20
-18.396365830511741
 30
0.0
 11
-279.00001175803709
 21
-18.396365830511741
 31
0.0
  0
LINE
  8
DETAIL
  6
CONTINUOUS
 62
     5
 10
-279.00001175803709
 20
-18.396365830511741
 30
0.0
 11
-279.08266819781909
 21
-18.379924358687049
 31
0.0
  0
LINE
  8
DETAIL
  6
CONTINUOUS
 62
     5
 10
-279.08266819781909
 20
-18.379924358687049
 30
0.0
 11
-279.16467240390591
 21
-18.362739037738269
 31
0.0
  0
LINE
  8
DETAIL
  6
CONTINUOUS
 62
     5
 10
-279.16467240390591
 20
-18.362739037738269
 30
0.0
 11
-279.16467240390591
 21
-18.362739037738269
 31
0.0
  0
LINE
  8
DETAIL
  6
CONTINUOUS
 62
     5
 10
-279.16467240390591
 20
-18.362739037738269
 30
0.0
 11
-279.24586790047363
 21
-18.34487126791737
 31
0.0
  0
LINE
  8
DETAIL
  6
CONTINUOUS
 62
     5
 10
-279.24586790047363
 20
-18.34487126791737
 30
0.0
 11
-279.32861112981038
 21
-18.32575505361638
 31
0.0
  0
LINE
  8
DETAIL
  6
CONTINUOUS
 62
     5
 10
-279.32861112981038
 20
-18.32575505361638
 30
0.0
 11
-279.32861112981038
 21
-18.32575505361638
 31
0.0
  0
LINE
  8
DETAIL
  6
CONTINUOUS
 62
     5
 10
-279.32861112981038
 20
-18.32575505361638
 30
0.0
 11
-279.4148872507526
 21
-18.304905163601688
 31
0.0
  0
LINE
  8
DETAIL
  6
CONTINUOUS
 62
     5
 10
-279.4148872507526
 20
-18.304905163601688
 30
0.0
 11
-279.5026833702226
 21
-18.282786819998819
 31
0.0
  0
LINE
  8
DETAIL
  6
CONTINUOUS
 62
     5
 10
-279.5026833702226
 20
-18.282786819998819
 30
0.0
 11
-279.5026833702226
 21
-18.282786819998819
 31
0.0
  0
LINE
  8
DETAIL
  6
CONTINUOUS
 62
     5
 10
-279.5026833702226
 20
-18.282786819998819
 30
0.0
 11
-279.58962297976188
 21
-18.259958730043991
 31
0.0
  0
LINE
  8
DETAIL
  6
CONTINUOUS
 62
     5
 10
-279.58962297976188
 20
-18.259958730043991
 30
0.0
 11
-279.67587316129828
 21
-18.23640308805102
 31
0.0
  0
LINE
  8
DETAIL
  6
CONTINUOUS
 62
     5
 10
-279.67587316129828
 20
-18.23640308805102
 30
0.0
 11
-279.67587316129828
 21
-18.23640308805102
 31
0.0
  0
LINE
  8
DETAIL
  6
CONTINUOUS
 62
     5
 10
-279.67587316129828
 20
-18.23640308805102
 30
0.0
 11
-279.7620686196002
 21
-18.212002294831791
 31
0.0
  0
LINE
  8
DETAIL
  6
CONTINUOUS
 62
     5
 10
-279.7620686196002
 20
-18.212002294831791
 30
0.0
 11
-279.84817096040081
 21
-18.18681609009241
 31
0.0
  0
LINE
  8
DETAIL
  6
CONTINUOUS
 62
     5
 10
-279.84817096040081
 20
-18.18681609009241
 30
0.0
 11
-279.84817096040081
 21
-18.18681609009241
 31
0.0
  0
LINE
  8
DETAIL
  6
CONTINUOUS
 62
     5
 10
-279.84817096040081
 20
-18.18681609009241
 30
0.0
 11
-279.93401071611243
 21
-18.160915337600041
 31
0.0
  0
LINE
  8
DETAIL
  6
CONTINUOUS
 62
     5
 10
-279.93401071611243
 20
-18.160915337600041
 30
0.0
 11
-280.01956722489348
 21
-18.134238058443088
 31
0.0
  0
LINE
  8
DETAIL
  6
CONTINUOUS
 62
     5
 10
-280.01956722489348
 20
-18.134238058443088
 30
0.0
 11
-280.01956722489348
 21
-18.134238058443088
 31
0.0
  0
LINE
  8
DETAIL
  6
CONTINUOUS
 62
     5
 10
-280.01956722489348
 20
-18.134238058443088
 30
0.0
 11
-280.10487649535048
 21
-18.106777570991881
 31
0.0
  0
LINE
  8
DETAIL
  6
CONTINUOUS
 62
     5
 10
-280.10487649535048
 20
-18.106777570991881
 30
0.0
 11
-280.19005241214012
 21
-18.07888122541976
 31
0.0
  0
LINE
  8
DETAIL
  6
CONTINUOUS
 62
     5
 10
-272.67947418709173
 20
-18.526093092116529
 30
0.0
 11
-272.76120050404131
 21
-18.52538254012461
 31
0.0
  0
LINE
  8
DETAIL
  6
CONTINUOUS
 62
     5
 10
-272.76120050404131
 20
-18.52538254012461
 30
0.0
 11
-272.84292768936518
 21
-18.524018885691252
 31
0.0
  0
LINE
  8
DETAIL
  6
CONTINUOUS
 62
     5
 10
-272.84292768936518
 20
-18.524018885691252
 30
0.0
 11
-272.84292768936518
 21
-18.524018885691252
 31
0.0
  0
LINE
  8
DETAIL
  6
CONTINUOUS
 62
     5
 10
-272.84292768936518
 20
-18.524018885691252
 30
0.0
 11
-272.92464969134062
 21
-18.52148938594723
 31
0.0
  0
LINE
  8
DETAIL
  6
CONTINUOUS
 62
     5
 10
-272.92464969134062
 20
-18.52148938594723
 30
0.0
 11
-273.00633277786352
 21
-18.517842736303461
 31
0.0
  0
LINE
  8
DETAIL
  6
CONTINUOUS
 62
     5
 10
-273.00633277786352
 20
-18.517842736303461
 30
0.0
 11
-273.00633277786352
 21
-18.517842736303461
 31
0.0
  0
LINE
  8
DETAIL
  6
CONTINUOUS
 62
     5
 10
-273.00633277786352
 20
-18.517842736303461
 30
0.0
 11
-273.08795549856131
 21
-18.513228009433082
 31
0.0
  0
LINE
  8
DETAIL
  6
CONTINUOUS
 62
     5
 10
-273.08795549856131
 20
-18.513228009433082
 30
0.0
 11
-273.16957321037398
 21
-18.5076343487824
 31
0.0
  0
LINE
  8
DETAIL
  6
CONTINUOUS
 62
     5
 10
-273.16957321037398
 20
-18.5076343487824
 30
0.0
 11
-273.16957321037398
 21
-18.5076343487824
 31
0.0
  0
LINE
  8
DETAIL
  6
CONTINUOUS
 62
     5
 10
-273.16957321037398
 20
-18.5076343487824
 30
0.0
 11
-273.25119058485302
 21
-18.501030485150299
 31
0.0
  0
LINE
  8
DETAIL
  6
CONTINUOUS
 62
     5
 10
-273.25119058485302
 20
-18.501030485150299
 30
0.0
 11
-273.33253274468348
 21
-18.49346342796116
 31
0.0
  0
LINE
  8
DETAIL
  6
CONTINUOUS
 62
     5
 10
-273.33253274468348
 20
-18.49346342796116
 30
0.0
 11
-273.33253274468348
 21
-18.49346342796116
 31
0.0
  0
LINE
  8
DETAIL
  6
CONTINUOUS
 62
     5
 10
-273.33253274468348
 20
-18.49346342796116
 30
0.0
 11
-273.41351527237128
 21
-18.484961459976599
 31
0.0
  0
LINE
  8
DETAIL
  6
CONTINUOUS
 62
     5
 10
-273.41351527237128
 20
-18.484961459976599
 30
0.0
 11
-273.49509513857828
 21
-18.47539967866874
 31
0.0
  0
LINE
  8
DETAIL
  6
CONTINUOUS
 62
     5
 10
-273.49509513857828
 20
-18.47539967866874
 30
0.0
 11
-273.49509513857828
 21
-18.47539967866874
 31
0.0
  0
LINE
  8
DETAIL
  6
CONTINUOUS
 62
     5
 10
-273.49509513857828
 20
-18.47539967866874
 30
0.0
 11
-273.5780816575035
 21
-18.464667711125461
 31
0.0
  0
LINE
  8
DETAIL
  6
CONTINUOUS
 62
     5
 10
-273.5780816575035
 20
-18.464667711125461
 30
0.0
 11
-273.66165212935562
 21
-18.452866488172958
 31
0.0
  0
LINE
  8
DETAIL
  6
CONTINUOUS
 62
     5
 10
-273.66165212935562
 20
-18.452866488172958
 30
0.0
 11
-273.66165212935562
 21
-18.452866488172958
 31
0.0
  0
LINE
  8
DETAIL
  6
CONTINUOUS
 62
     5
 10
-273.66165212935562
 20
-18.452866488172958
 30
0.0
 11
-273.74482582447348
 21
-18.440123990252221
 31
0.0
  0
LINE
  8
DETAIL
  6
CONTINUOUS
 62
     5
 10
-273.74482582447348
 20
-18.440123990252221
 30
0.0
 11
-273.82762190771012
 21
-18.426465092514949
 31
0.0
  0
LINE
  8
DETAIL
  6
CONTINUOUS
 62
     5
 10
-273.82762190771012
 20
-18.426465092514949
 30
0.0
 11
-273.82762190771012
 21
-18.426465092514949
 31
0.0
  0
LINE
  8
DETAIL
  6
CONTINUOUS
 62
     5
 10
-273.82762190771012
 20
-18.426465092514949
 30
0.0
 11
-273.91028473988041
 21
-18.41188531088028
 31
0.0
  0
LINE
  8
DETAIL
  6
CONTINUOUS
 62
     5
 10
-273.91028473988041
 20
-18.41188531088028
 30
0.0
 11
-273.99295957113412
 21
-18.39636582961953
 31
0.0
  0
LINE
  8
DETAIL
  6
CONTINUOUS
 62
     5
 10
-273.99295957113412
 20
-18.39636582961953
 30
0.0
 11
-273.99295957113412
 21
-18.39636582961953
 31
0.0
  0
LINE
  8
DETAIL
  6
CONTINUOUS
 62
     5
 10
-273.99295957113412
 20
-18.39636582961953
 30
0.0
 11
-274.07561601099133
 21
-18.37992435806245
 31
0.0
  0
LINE
  8
DETAIL
  6
CONTINUOUS
 62
     5
 10
-274.07561601099133
 20
-18.37992435806245
 30
0.0
 11
-274.15762021712158
 21
-18.362739037413348
 31
0.0
  0
LINE
  8
DETAIL
  6
CONTINUOUS
 62
     5
 10
-274.15762021712158
 20
-18.362739037413348
 30
0.0
 11
-274.15762021712158
 21
-18.362739037413348
 31
0.0
  0
LINE
  8
DETAIL
  6
CONTINUOUS
 62
     5
 10
-274.15762021712158
 20
-18.362739037413348
 30
0.0
 11
-274.23881571374852
 21
-18.344871267879849
 31
0.0
  0
LINE
  8
DETAIL
  6
CONTINUOUS
 62
     5
 10
-274.23881571374852
 20
-18.344871267879849
 30
0.0
 11
-274.32155894316497
 21
-18.3257550538201
 31
0.0
  0
LINE
  8
DETAIL
  6
CONTINUOUS
 62
     5
 10
-274.32155894316497
 20
-18.3257550538201
 30
0.0
 11
-274.32155894316497
 21
-18.3257550538201
 31
0.0
  0
LINE
  8
DETAIL
  6
CONTINUOUS
 62
     5
 10
-274.32155894316497
 20
-18.3257550538201
 30
0.0
 11
-274.40783506419962
 21
-18.304905163970261
 31
0.0
  0
LINE
  8
DETAIL
  6
CONTINUOUS
 62
     5
 10
-274.40783506419962
 20
-18.304905163970261
 30
0.0
 11
-274.49563118377012
 21
-18.28278682045584
 31
0.0
  0
LINE
  8
DETAIL
  6
CONTINUOUS
 62
     5
 10
-274.49563118377012
 20
-18.28278682045584
 30
0.0
 11
-274.49563118377012
 21
-18.28278682045584
 31
0.0
  0
LINE
  8
DETAIL
  6
CONTINUOUS
 62
     5
 10
-274.49563118377012
 20
-18.28278682045584
 30
0.0
 11
-274.58257079341178
 21
-18.25995873051966
 31
0.0
  0
LINE
  8
DETAIL
  6
CONTINUOUS
 62
     5
 10
-274.58257079341178
 20
-18.25995873051966
 30
0.0
 11
-274.66882097504958
 21
-18.236403088493031
 31
0.0
  0
LINE
  8
DETAIL
  6
CONTINUOUS
 62
     5
 10
-274.66882097504958
 20
-18.236403088493031
 30
0.0
 11
-274.66882097504958
 21
-18.236403088493031
 31
0.0
  0
LINE
  8
DETAIL
  6
CONTINUOUS
 62
     5
 10
-274.66882097504958
 20
-18.236403088493031
 30
0.0
 11
-274.75501643344722
 21
-18.212002295202861
 31
0.0
  0
LINE
  8
DETAIL
  6
CONTINUOUS
 62
     5
 10
-274.75501643344722
 20
-18.212002295202861
 30
0.0
 11
-274.84111877433543
 21
-18.186816090370929
 31
0.0
  0
LINE
  8
DETAIL
  6
CONTINUOUS
 62
     5
 10
-274.84111877433543
 20
-18.186816090370929
 30
0.0
 11
-274.84111877433543
 21
-18.186816090370929
 31
0.0
  0
LINE
  8
DETAIL
  6
CONTINUOUS
 62
     5
 10
-274.84111877433543
 20
-18.186816090370929
 30
0.0
 11
-274.92695853012327
 21
-18.160915337776942
 31
0.0
  0
LINE
  8
DETAIL
  6
CONTINUOUS
 62
     5
 10
-274.92695853012327
 20
-18.160915337776942
 30
0.0
 11
-275.01251503896083
 21
-18.134238058533359
 31
0.0
  0
LINE
  8
DETAIL
  6
CONTINUOUS
 62
     5
 10
-275.01251503896083
 20
-18.134238058533359
 30
0.0
 11
-275.01251503896083
 21
-18.134238058533359
 31
0.0
  0
LINE
  8
DETAIL
  6
CONTINUOUS
 62
     5
 10
-275.01251503896083
 20
-18.134238058533359
 30
0.0
 11
-275.0978243094504
 21
-18.10677757102712
 31
0.0
  0
LINE
  8
DETAIL
  6
CONTINUOUS
 62
     5
 10
-275.0978243094504
 20
-18.10677757102712
 30
0.0
 11
-275.1830002262584
 21
-18.07888122541976
 31
0.0
  0
LINE
  8
DETAIL
  6
CONTINUOUS
 62
     5
 10
-270.17594804037708
 20
-18.07888122541976
 30
0.0
 11
-270.26109721375877
 21
-18.106768976779229
 31
0.0
  0
LINE
  8
DETAIL
  6
CONTINUOUS
 62
     5
 10
-270.26109721375877
 20
-18.106768976779229
 30
0.0
 11
-270.34637977436091
 21
-18.134221176740311
 31
0.0
  0
LINE
  8
DETAIL
  6
CONTINUOUS
 62
     5
 10
-270.34637977436091
 20
-18.134221176740311
 30
0.0
 11
-270.34637977436091
 21
-18.134221176740311
 31
0.0
  0
LINE
  8
DETAIL
  6
CONTINUOUS
 62
     5
 10
-270.34637977436091
 20
-18.134221176740311
 30
0.0
 11
-270.43190953140288
 21
-18.160890699630041
 31
0.0
  0
LINE
  8
DETAIL
  6
CONTINUOUS
 62
     5
 10
-270.43190953140288
 20
-18.160890699630041
 30
0.0
 11
-270.51772198210131
 21
-18.186784122683999
 31
0.0
  0
LINE
  8
DETAIL
  6
CONTINUOUS
 62
     5
 10
-270.51772198210131
 20
-18.186784122683999
 30
0.0
 11
-270.51772198210131
 21
-18.186784122683999
 31
0.0
  0
LINE
  8
DETAIL
  6
CONTINUOUS
 62
     5
 10
-270.51772198210131
 20
-18.186784122683999
 30
0.0
 11
-270.60379636105938
 21
-18.21196336784806
 31
0.0
  0
LINE
  8
DETAIL
  6
CONTINUOUS
 62
     5
 10
-270.60379636105938
 20
-18.21196336784806
 30
0.0
 11
-270.68996516442462
 21
-18.236358033005899
 31
0.0
  0
LINE
  8
DETAIL
  6
CONTINUOUS
 62
     5
 10
-270.68996516442462
 20
-18.236358033005899
 30
0.0
 11
-270.68996516442462
 21
-18.236358033005899
 31
0.0
  0
LINE
  8
DETAIL
  6
CONTINUOUS
 62
     5
 10
-270.68996516442462
 20
-18.236358033005899
 30
0.0
 11
-270.77619052018741
 21
-18.259908533361791
 31
0.0
  0
LINE
  8
DETAIL
  6
CONTINUOUS
 62
     5
 10
-270.77619052018741
 20
-18.259908533361791
 30
0.0
 11
-270.86309982215721
 21
-18.282730877461521
 31
0.0
  0
LINE
  8
DETAIL
  6
CONTINUOUS
 62
     5
 10
-270.86309982215721
 20
-18.282730877461521
 30
0.0
 11
-270.86309982215721
 21
-18.282730877461521
 31
0.0
  0
LINE
  8
DETAIL
  6
CONTINUOUS
 62
     5
 10
-270.86309982215721
 20
-18.282730877461521
 30
0.0
 11
-270.950858199393
 21
-18.30484245985895
 31
0.0
  0
LINE
  8
DETAIL
  6
CONTINUOUS
 62
     5
 10
-270.950858199393
 20
-18.30484245985895
 30
0.0
 11
-271.03711645612441
 21
-18.325690625804331
 31
0.0
  0
LINE
  8
DETAIL
  6
CONTINUOUS
 62
     5
 10
-271.03711645612441
 20
-18.325690625804331
 30
0.0
 11
-271.03711645612441
 21
-18.325690625804331
 31
0.0
  0
LINE
  8
DETAIL
  6
CONTINUOUS
 62
     5
 10
-271.03711645612441
 20
-18.325690625804331
 30
0.0
 11
-271.11988480075831
 21
-18.344815129375089
 31
0.0
  0
LINE
  8
DETAIL
  6
CONTINUOUS
 62
     5
 10
-271.11988480075831
 20
-18.344815129375089
 30
0.0
 11
-271.20112538323968
 21
-18.36269540927378
 31
0.0
  0
LINE
  8
DETAIL
  6
CONTINUOUS
 62
     5
 10
-271.20112538323968
 20
-18.36269540927378
 30
0.0
 11
-271.20112538323968
 21
-18.36269540927378
 31
0.0
  0
LINE
  8
DETAIL
  6
CONTINUOUS
 62
     5
 10
-271.20112538323968
 20
-18.36269540927378
 30
0.0
 11
-271.28316747888721
 21
-18.379890771460619
 31
0.0
  0
LINE
  8
DETAIL
  6
CONTINUOUS
 62
     5
 10
-271.28316747888721
 20
-18.379890771460619
 30
0.0
 11
-271.36585692297439
 21
-18.396340306298729
 31
0.0
  0
LINE
  8
DETAIL
  6
CONTINUOUS
 62
     5
 10
-271.36585692297439
 20
-18.396340306298729
 30
0.0
 11
-271.36585692297439
 21
-18.396340306298729
 31
0.0
  0
LINE
  8
DETAIL
  6
CONTINUOUS
 62
     5
 10
-271.36585692297439
 20
-18.396340306298729
 30
0.0
 11
-271.44856723323221
 21
-18.411867639755659
 31
0.0
  0
LINE
  8
DETAIL
  6
CONTINUOUS
 62
     5
 10
-271.44856723323221
 20
-18.411867639755659
 30
0.0
 11
-271.53126609726172
 21
-18.426454755809569
 31
0.0
  0
LINE
  8
DETAIL
  6
CONTINUOUS
 62
     5
 10
-271.53126609726172
 20
-18.426454755809569
 30
0.0
 11
-271.53126609726172
 21
-18.426454755809569
 31
0.0
  0
LINE
  8
DETAIL
  6
CONTINUOUS
 62
     5
 10
-271.53126609726172
 20
-18.426454755809569
 30
0.0
 11
-271.61409643527293
 21
-18.440119923827979
 31
0.0
  0
LINE
  8
DETAIL
  6
CONTINUOUS
 62
     5
 10
-271.61409643527293
 20
-18.440119923827979
 30
0.0
 11
-271.69730792803512
 21
-18.452868196736059
 31
0.0
  0
LINE
  8
DETAIL
  6
CONTINUOUS
 62
     5
 10
-271.69730792803512
 20
-18.452868196736059
 30
0.0
 11
-271.69730792803512
 21
-18.452868196736059
 31
0.0
  0
LINE
  8
DETAIL
  6
CONTINUOUS
 62
     5
 10
-271.69730792803512
 20
-18.452868196736059
 30
0.0
 11
-271.78092164342911
 21
-18.464674950289009
 31
0.0
  0
LINE
  8
DETAIL
  6
CONTINUOUS
 62
     5
 10
-271.78092164342911
 20
-18.464674950289009
 30
0.0
 11
-271.86393743722692
 21
-18.475410068007481
 31
0.0
  0
LINE
  8
DETAIL
  6
CONTINUOUS
 62
     5
 10
-271.86393743722692
 20
-18.475410068007481
 30
0.0
 11
-271.86393743722692
 21
-18.475410068007481
 31
0.0
  0
LINE
  8
DETAIL
  6
CONTINUOUS
 62
     5
 10
-271.86393743722692
 20
-18.475410068007481
 30
0.0
 11
-271.94551607618558
 21
-18.484970901603671
 31
0.0
  0
LINE
  8
DETAIL
  6
CONTINUOUS
 62
     5
 10
-271.94551607618558
 20
-18.484970901603671
 30
0.0
 11
-272.0264831831164
 21
-18.493470167789841
 31
0.0
  0
LINE
  8
DETAIL
  6
CONTINUOUS
 62
     5
 10
-272.0264831831164
 20
-18.493470167789841
 30
0.0
 11
-272.0264831831164
 21
-18.493470167789841
 31
0.0
  0
LINE
  8
DETAIL
  6
CONTINUOUS
 62
     5
 10
-272.0264831831164
 20
-18.493470167789841
 30
0.0
 11
-272.10781506756581
 21
-18.501035419669961
 31
0.0
  0
LINE
  8
DETAIL
  6
CONTINUOUS
 62
     5
 10
-272.10781506756581
 20
-18.501035419669961
 30
0.0
 11
-272.18942592996348
 21
-18.507638190927992
 31
0.0
  0
LINE
  8
DETAIL
  6
CONTINUOUS
 62
     5
 10
-272.18942592996348
 20
-18.507638190927992
 30
0.0
 11
-272.18942592996348
 21
-18.507638190927992
 31
0.0
  0
LINE
  8
DETAIL
  6
CONTINUOUS
 62
     5
 10
-272.18942592996348
 20
-18.507638190927992
 30
0.0
 11
-272.27103571816559
 21
-18.513230767855699
 31
0.0
  0
LINE
  8
DETAIL
  6
CONTINUOUS
 62
     5
 10
-272.27103571816559
 20
-18.513230767855699
 30
0.0
 11
-272.35264947885207
 21
-18.517844466585981
 31
0.0
  0
LINE
  8
DETAIL
  6
CONTINUOUS
 62
     5
 10
-272.35264947885207
 20
-18.517844466585981
 30
0.0
 11
-272.35264947885207
 21
-18.517844466585981
 31
0.0
  0
LINE
  8
DETAIL
  6
CONTINUOUS
 62
     5
 10
-272.35264947885207
 20
-18.517844466585981
 30
0.0
 11
-272.43432396186398
 21
-18.521490335727549
 31
0.0
  0
LINE
  8
DETAIL
  6
CONTINUOUS
 62
     5
 10
-272.43432396186398
 20
-18.521490335727549
 30
0.0
 11
-272.51603763086678
 21
-18.52401932392786
 31
0.0
  0
LINE
  8
DETAIL
  6
CONTINUOUS
 62
     5
 10
-272.51603763086678
 20
-18.52401932392786
 30
0.0
 11
-272.51603763086678
 21
-18.52401932392786
 31
0.0
  0
LINE
  8
DETAIL
  6
CONTINUOUS
 62
     5
 10
-272.51603763086678
 20
-18.52401932392786
 30
0.0
 11
-272.59775638945138
 21
-18.525382697342589
 31
0.0
  0
LINE
  8
DETAIL
  6
CONTINUOUS
 62
     5
 10
-272.59775638945138
 20
-18.525382697342589
 30
0.0
 11
-272.67947418709173
 21
-18.526093092116529
 31
0.0
  0
LINE
  8
DETAIL
  6
CONTINUOUS
 62
     5
 10
-275.1830002262584
 20
-18.07888122541976
 30
0.0
 11
-275.26814939965902
 21
-18.106768976779229
 31
0.0
  0
LINE
  8
DETAIL
  6
CONTINUOUS
 62
     5
 10
-275.26814939965902
 20
-18.106768976779229
 30
0.0
 11
-275.35343196029362
 21
-18.134221176741679
 31
0.0
  0
LINE
  8
DETAIL
  6
CONTINUOUS
 62
     5
 10
-275.35343196029362
 20
-18.134221176741679
 30
0.0
 11
-275.35343196029362
 21
-18.134221176741679
 31
0.0
  0
LINE
  8
DETAIL
  6
CONTINUOUS
 62
     5
 10
-275.35343196029362
 20
-18.134221176741679
 30
0.0
 11
-275.43896171739129
 21
-18.160890699634141
 31
0.0
  0
LINE
  8
DETAIL
  6
CONTINUOUS
 62
     5
 10
-275.43896171739129
 20
-18.160890699634141
 30
0.0
 11
-275.52477416816407
 21
-18.186784122692639
 31
0.0
  0
LINE
  8
DETAIL
  6
CONTINUOUS
 62
     5
 10
-275.52477416816407
 20
-18.186784122692639
 30
0.0
 11
-275.52477416816407
 21
-18.186784122692639
 31
0.0
  0
LINE
  8
DETAIL
  6
CONTINUOUS
 62
     5
 10
-275.52477416816407
 20
-18.186784122692639
 30
0.0
 11
-275.61084854720588
 21
-18.211963367863969
 31
0.0
  0
LINE
  8
DETAIL
  6
CONTINUOUS
 62
     5
 10
-275.61084854720588
 20
-18.211963367863969
 30
0.0
 11
-275.69701735066087
 21
-18.236358033033181
 31
0.0
  0
LINE
  8
DETAIL
  6
CONTINUOUS
 62
     5
 10
-275.69701735066087
 20
-18.236358033033181
 30
0.0
 11
-275.69701735066087
 21
-18.236358033033181
 31
0.0
  0
LINE
  8
DETAIL
  6
CONTINUOUS
 62
     5
 10
-275.69701735066087
 20
-18.236358033033181
 30
0.0
 11
-275.7832427065149
 21
-18.259908533403859
 31
0.0
  0
LINE
  8
DETAIL
  6
CONTINUOUS
 62
     5
 10
-275.7832427065149
 20
-18.259908533403859
 30
0.0
 11
-275.87015200857428
 21
-18.282730877523139
 31
0.0
  0
LINE
  8
DETAIL
  6
CONTINUOUS
 62
     5
 10
-275.87015200857428
 20
-18.282730877523139
 30
0.0
 11
-275.87015200857428
 21
-18.282730877523139
 31
0.0
  0
LINE
  8
DETAIL
  6
CONTINUOUS
 62
     5
 10
-275.87015200857428
 20
-18.282730877523139
 30
0.0
 11
-275.95791038589368
 21
-18.304842459946261
 31
0.0
  0
LINE
  8
DETAIL
  6
CONTINUOUS
 62
     5
 10
-275.95791038589368
 20
-18.304842459946261
 30
0.0
 11
-276.04416864269552
 21
-18.325690625920739
 31
0.0
  0
LINE
  8
DETAIL
  6
CONTINUOUS
 62
     5
 10
-276.04416864269552
 20
-18.325690625920739
 30
0.0
 11
-276.04416864269552
 21
-18.325690625920739
 31
0.0
  0
LINE
  8
DETAIL
  6
CONTINUOUS
 62
     5
 10
-276.04416864269552
 20
-18.325690625920739
 30
0.0
 11
-276.12693698737888
 21
-18.344815129523571
 31
0.0
  0
LINE
  8
DETAIL
  6
CONTINUOUS
 62
     5
 10
-276.12693698737888
 20
-18.344815129523571
 30
0.0
 11
-276.20817756988367
 21
-18.362695409454549
 31
0.0
  0
LINE
  8
DETAIL
  6
CONTINUOUS
 62
     5
 10
-276.20817756988367
 20
-18.362695409454549
 30
0.0
 11
-276.20817756988367
 21
-18.362695409454549
 31
0.0
  0
LINE
  8
DETAIL
  6
CONTINUOUS
 62
     5
 10
-276.20817756988367
 20
-18.362695409454549
 30
0.0
 11
-276.29021966553199
 21
-18.379890771670262
 31
0.0
  0
LINE
  8
DETAIL
  6
CONTINUOUS
 62
     5
 10
-276.29021966553199
 20
-18.379890771670262
 30
0.0
 11
-276.37290910964282
 21
-18.396340306534281
 31
0.0
  0
LINE
  8
DETAIL
  6
CONTINUOUS
 62
     5
 10
-276.37290910964282
 20
-18.396340306534281
 30
0.0
 11
-276.37290910964282
 21
-18.396340306534281
 31
0.0
  0
LINE
  8
DETAIL
  6
CONTINUOUS
 62
     5
 10
-276.37290910964282
 20
-18.396340306534281
 30
0.0
 11
-276.4556194199572
 21
-18.411867640012591
 31
0.0
  0
LINE
  8
DETAIL
  6
CONTINUOUS
 62
     5
 10
-276.4556194199572
 20
-18.411867640012591
 30
0.0
 11
-276.53831828391242
 21
-18.426454756059229
 31
0.0
  0
LINE
  8
DETAIL
  6
CONTINUOUS
 62
     5
 10
-276.53831828391242
 20
-18.426454756059229
 30
0.0
 11
-276.53831828391242
 21
-18.426454756059229
 31
0.0
  0
LINE
  8
DETAIL
  6
CONTINUOUS
 62
     5
 10
-276.53831828391242
 20
-18.426454756059229
 30
0.0
 11
-276.62114862167448
 21
-18.440119924033979
 31
0.0
  0
LINE
  8
DETAIL
  6
CONTINUOUS
 62
     5
 10
-276.62114862167448
 20
-18.440119924033979
 30
0.0
 11
-276.70436011463238
 21
-18.452868196924769
 31
0.0
  0
LINE
  8
DETAIL
  6
CONTINUOUS
 62
     5
 10
-276.70436011463238
 20
-18.452868196924769
 30
0.0
 11
-276.70436011463238
 21
-18.452868196924769
 31
0.0
  0
LINE
  8
DETAIL
  6
CONTINUOUS
 62
     5
 10
-276.70436011463238
 20
-18.452868196924769
 30
0.0
 11
-276.78797383083469
 21
-18.4646749505016
 31
0.0
  0
LINE
  8
DETAIL
  6
CONTINUOUS
 62
     5
 10
-276.78797383083469
 20
-18.4646749505016
 30
0.0
 11
-276.8709896237433
 21
-18.47541006802976
 31
0.0
  0
LINE
  8
DETAIL
  6
CONTINUOUS
 62
     5
 10
-276.8709896237433
 20
-18.47541006802976
 30
0.0
 11
-276.8709896237433
 21
-18.47541006802976
 31
0.0
  0
LINE
  8
DETAIL
  6
CONTINUOUS
 62
     5
 10
-276.8709896237433
 20
-18.47541006802976
 30
0.0
 11
-276.95256825816023
 21
-18.484970901018869
 31
0.0
  0
LINE
  8
DETAIL
  6
CONTINUOUS
 62
     5
 10
-276.95256825816023
 20
-18.484970901018869
 30
0.0
 11
-277.03353535884168
 21
-18.493470166455609
 31
0.0
  0
LINE
  8
DETAIL
  6
CONTINUOUS
 62
     5
 10
-277.03353535884168
 20
-18.493470166455609
 30
0.0
 11
-277.03353535884168
 21
-18.493470166455609
 31
0.0
  0
LINE
  8
DETAIL
  6
CONTINUOUS
 62
     5
 10
-277.03353535884168
 20
-18.493470166455609
 30
0.0
 11
-277.11486723763687
 21
-18.50103541775843
 31
0.0
  0
LINE
  8
DETAIL
  6
CONTINUOUS
 62
     5
 10
-277.11486723763687
 20
-18.50103541775843
 30
0.0
 11
-277.19647809480921
 21
-18.507638188584
 31
0.0
  0
LINE
  8
DETAIL
  6
CONTINUOUS
 62
     5
 10
-277.19647809480921
 20
-18.507638188584
 30
0.0
 11
-277.19647809480921
 21
-18.507638188584
 31
0.0
  0
LINE
  8
DETAIL
  6
CONTINUOUS
 62
     5
 10
-277.19647809480921
 20
-18.507638188584
 30
0.0
 11
-277.27808787759841
 21
-18.513230765137219
 31
0.0
  0
LINE
  8
DETAIL
  6
CONTINUOUS
 62
     5
 10
-277.27808787759841
 20
-18.513230765137219
 30
0.0
 11
-277.3597016327285
 21
-18.517844463552589
 31
0.0
  0
LINE
  8
DETAIL
  6
CONTINUOUS
 62
     5
 10
-277.3597016327285
 20
-18.517844463552589
 30
0.0
 11
-277.3597016327285
 21
-18.517844463552589
 31
0.0
  0
LINE
  8
DETAIL
  6
CONTINUOUS
 62
     5
 10
-277.3597016327285
 20
-18.517844463552589
 30
0.0
 11
-277.44137611020642
 21
-18.5214903324561
 31
0.0
  0
LINE
  8
DETAIL
  6
CONTINUOUS
 62
     5
 10
-277.44137611020642
 20
-18.5214903324561
 30
0.0
 11
-277.52308977368278
 21
-18.524019320499061
 31
0.0
  0
LINE
  8
DETAIL
  6
CONTINUOUS
 62
     5
 10
-277.52308977368278
 20
-18.524019320499061
 30
0.0
 11
-277.52308977368278
 21
-18.524019320499061
 31
0.0
  0
LINE
  8
DETAIL
  6
CONTINUOUS
 62
     5
 10
-277.52308977368278
 20
-18.524019320499061
 30
0.0
 11
-277.60480852670372
 21
-18.525382693830348
 31
0.0
  0
LINE
  8
DETAIL
  6
CONTINUOUS
 62
     5
 10
-277.60480852670372
 20
-18.525382693830348
 30
0.0
 11
-277.68652631875489
 21
-18.526093088561311
 31
0.0
  0
LINE
  8
DETAIL
  6
CONTINUOUS
 62
     5
 10
173.17916230571021
 20
-311.43818404650688
 30
0.0
 11
173.2025149267902
 21
-311.43804597249402
 31
0.0
  0
LINE
  8
DETAIL
  6
CONTINUOUS
 62
     5
 10
173.2025149267902
 20
-311.43804597249402
 30
0.0
 11
173.22599225927439
 21
-311.43771591910831
 31
0.0
  0
LINE
  8
DETAIL
  6
CONTINUOUS
 62
     5
 10
173.22599225927439
 20
-311.43771591910831
 30
0.0
 11
173.22599225927439
 21
-311.43771591910831
 31
0.0
  0
LINE
  8
DETAIL
  6
CONTINUOUS
 62
     5
 10
173.22599225927439
 20
-311.43771591910831
 30
0.0
 11
173.24958972555589
 21
-311.43705763400538
 31
0.0
  0
LINE
  8
DETAIL
  6
CONTINUOUS
 62
     5
 10
173.24958972555589
 20
-311.43705763400538
 30
0.0
 11
173.27278559198109
 21
-311.43615777296168
 31
0.0
  0
LINE
  8
DETAIL
  6
CONTINUOUS
 62
     5
 10
173.27278559198109
 20
-311.43615777296168
 30
0.0
 11
173.27278559198109
 21
-311.43615777296168
 31
0.0
  0
LINE
  8
DETAIL
  6
CONTINUOUS
 62
     5
 10
173.27278559198109
 20
-311.43615777296168
 30
0.0
 11
173.29544728222021
 21
-311.43507125287772
 31
0.0
  0
LINE
  8
DETAIL
  6
CONTINUOUS
 62
     5
 10
173.29544728222021
 20
-311.43507125287772
 30
0.0
 11
173.3195160052818
 21
-311.43350312703222
 31
0.0
  0
LINE
  8
DETAIL
  6
CONTINUOUS
 62
     5
 10
173.3195160052818
 20
-311.43350312703222
 30
0.0
 11
173.3195160052818
 21
-311.43350312703222
 31
0.0
  0
LINE
  8
DETAIL
  6
CONTINUOUS
 62
     5
 10
173.3195160052818
 20
-311.43350312703222
 30
0.0
 11
173.3455069201818
 21
-311.43136511939042
 31
0.0
  0
LINE
  8
DETAIL
  6
CONTINUOUS
 62
     5
 10
173.3455069201818
 20
-311.43136511939042
 30
0.0
 11
173.36615720062639
 21
-311.42974550029021
 31
0.0
  0
LINE
  8
DETAIL
  6
CONTINUOUS
 62
     5
 10
173.36615720062639
 20
-311.42974550029021
 30
0.0
 11
173.36615720062639
 21
-311.42974550029021
 31
0.0
  0
LINE
  8
DETAIL
  6
CONTINUOUS
 62
     5
 10
173.36615720062639
 20
-311.42974550029021
 30
0.0
 11
173.37951906296959
 21
-311.42893759619642
 31
0.0
  0
LINE
  8
DETAIL
  6
CONTINUOUS
 62
     5
 10
173.37951906296959
 20
-311.42893759619642
 30
0.0
 11
173.41268287946701
 21
-311.42487841170259
 31
0.0
  0
LINE
  8
DETAIL
  6
CONTINUOUS
 62
     5
 10
173.41268287946701
 20
-311.42487841170259
 30
0.0
 11
173.41268287946701
 21
-311.42487841170259
 31
0.0
  0
LINE
  8
DETAIL
  6
CONTINUOUS
 62
     5
 10
173.41268287946701
 20
-311.42487841170259
 30
0.0
 11
173.4884835962018
 21
-311.41377558813701
 31
0.0
  0
LINE
  8
DETAIL
  6
CONTINUOUS
 62
     5
 10
173.4884835962018
 20
-311.41377558813701
 30
0.0
 11
173.58369629866931
 21
-311.39727563562718
 31
0.0
  0
LINE
  8
DETAIL
  6
CONTINUOUS
 62
     5
 10
173.58369629866931
 20
-311.39727563562718
 30
0.0
 11
173.58369629866931
 21
-311.39727563562718
 31
0.0
  0
LINE
  8
DETAIL
  6
CONTINUOUS
 62
     5
 10
173.58369629866931
 20
-311.39727563562718
 30
0.0
 11
173.67088732290179
 21
-311.37778075958028
 31
0.0
  0
LINE
  8
DETAIL
  6
CONTINUOUS
 62
     5
 10
173.67088732290179
 20
-311.37778075958028
 30
0.0
 11
173.7518478676723
 21
-311.35527707771581
 31
0.0
  0
LINE
  8
DETAIL
  6
CONTINUOUS
 62
     5
 10
173.7518478676723
 20
-311.35527707771581
 30
0.0
 11
173.7518478676723
 21
-311.35527707771581
 31
0.0
  0
LINE
  8
DETAIL
  6
CONTINUOUS
 62
     5
 10
173.7518478676723
 20
-311.35527707771581
 30
0.0
 11
173.83376977789121
 21
-311.32927609954248
 31
0.0
  0
LINE
  8
DETAIL
  6
CONTINUOUS
 62
     5
 10
173.83376977789121
 20
-311.32927609954248
 30
0.0
 11
173.91622262027741
 21
-311.29980698939801
 31
0.0
  0
LINE
  8
DETAIL
  6
CONTINUOUS
 62
     5
 10
173.91622262027741
 20
-311.29980698939801
 30
0.0
 11
173.91622262027741
 21
-311.29980698939801
 31
0.0
  0
LINE
  8
DETAIL
  6
CONTINUOUS
 62
     5
 10
173.91622262027741
 20
-311.29980698939801
 30
0.0
 11
173.9971864545079
 21
-311.26711469241889
 31
0.0
  0
LINE
  8
DETAIL
  6
CONTINUOUS
 62
     5
 10
173.9971864545079
 20
-311.26711469241889
 30
0.0
 11
174.07590559028611
 21
-311.23178962210551
 31
0.0
  0
LINE
  8
DETAIL
  6
CONTINUOUS
 62
     5
 10
174.07590559028611
 20
-311.23178962210551
 30
0.0
 11
174.07590559028611
 21
-311.23178962210551
 31
0.0
  0
LINE
  8
DETAIL
  6
CONTINUOUS
 62
     5
 10
174.07590559028611
 20
-311.23178962210551
 30
0.0
 11
174.1525817193442
 21
-311.19403367698038
 31
0.0
  0
LINE
  8
DETAIL
  6
CONTINUOUS
 62
     5
 10
174.1525817193442
 20
-311.19403367698038
 30
0.0
 11
174.22998181149961
 21
-311.1521492272675
 31
0.0
  0
LINE
  8
DETAIL
  6
CONTINUOUS
 62
     5
 10
174.22998181149961
 20
-311.1521492272675
 30
0.0
 11
174.22998181149961
 21
-311.1521492272675
 31
0.0
  0
LINE
  8
DETAIL
  6
CONTINUOUS
 62
     5
 10
174.22998181149961
 20
-311.1521492272675
 30
0.0
 11
174.3103042362259
 21
-311.10467656047678
 31
0.0
  0
LINE
  8
DETAIL
  6
CONTINUOUS
 62
     5
 10
174.3103042362259
 20
-311.10467656047678
 30
0.0
 11
174.39090768352821
 21
-311.05300716154119
 31
0.0
  0
LINE
  8
DETAIL
  6
CONTINUOUS
 62
     5
 10
174.39090768352821
 20
-311.05300716154119
 30
0.0
 11
174.39090768352821
 21
-311.05300716154119
 31
0.0
  0
LINE
  8
DETAIL
  6
CONTINUOUS
 62
     5
 10
174.39090768352821
 20
-311.05300716154119
 30
0.0
 11
174.4687414210089
 21
-310.99884490422551
 31
0.0
  0
LINE
  8
DETAIL
  6
CONTINUOUS
 62
     5
 10
174.4687414210089
 20
-310.99884490422551
 30
0.0
 11
174.54395670612249
 21
-310.94229202019659
 31
0.0
  0
LINE
  8
DETAIL
  6
CONTINUOUS
 62
     5
 10
174.54395670612249
 20
-310.94229202019659
 30
0.0
 11
174.54395670612249
 21
-310.94229202019659
 31
0.0
  0
LINE
  8
DETAIL
  6
CONTINUOUS
 62
     5
 10
174.54395670612249
 20
-310.94229202019659
 30
0.0
 11
174.61734122839431
 21
-310.88309568498988
 31
0.0
  0
LINE
  8
DETAIL
  6
CONTINUOUS
 62
     5
 10
174.61734122839431
 20
-310.88309568498988
 30
0.0
 11
174.68902641578029
 21
-310.82118449170707
 31
0.0
  0
LINE
  8
DETAIL
  6
CONTINUOUS
 62
     5
 10
174.68902641578029
 20
-310.82118449170707
 30
0.0
 11
174.68902641578029
 21
-310.82118449170707
 31
0.0
  0
LINE
  8
DETAIL
  6
CONTINUOUS
 62
     5
 10
174.68902641578029
 20
-310.82118449170707
 30
0.0
 11
174.75883539495069
 21
-310.75675138079868
 31
0.0
  0
LINE
  8
DETAIL
  6
CONTINUOUS
 62
     5
 10
174.75883539495069
 20
-310.75675138079868
 30
0.0
 11
174.8260143489986
 21
-310.69086526454538
 31
0.0
  0
LINE
  8
DETAIL
  6
CONTINUOUS
 62
     5
 10
174.8260143489986
 20
-310.69086526454538
 30
0.0
 11
174.8260143489986
 21
-310.69086526454538
 31
0.0
  0
LINE
  8
DETAIL
  6
CONTINUOUS
 62
     5
 10
174.8260143489986
 20
-310.69086526454538
 30
0.0
 11
174.8904062340923
 21
-310.6238927219631
 31
0.0
  0
LINE
  8
DETAIL
  6
CONTINUOUS
 62
     5
 10
174.8904062340923
 20
-310.6238927219631
 30
0.0
 11
174.95481804227421
 21
-310.55251502718778
 31
0.0
  0
LINE
  8
DETAIL
  6
CONTINUOUS
 62
     5
 10
174.95481804227421
 20
-310.55251502718778
 30
0.0
 11
174.95481804227421
 21
-310.55251502718778
 31
0.0
  0
LINE
  8
DETAIL
  6
CONTINUOUS
 62
     5
 10
174.95481804227421
 20
-310.55251502718778
 30
0.0
 11
175.02155432574261
 21
-310.47393266033919
 31
0.0
  0
LINE
  8
DETAIL
  6
CONTINUOUS
 62
     5
 10
175.02155432574261
 20
-310.47393266033919
 30
0.0
 11
175.08794584144329
 21
-310.39110823035759
 31
0.0
  0
LINE
  8
DETAIL
  6
CONTINUOUS
 62
     5
 10
175.08794584144329
 20
-310.39110823035759
 30
0.0
 11
175.08794584144329
 21
-310.39110823035759
 31
0.0
  0
LINE
  8
DETAIL
  6
CONTINUOUS
 62
     5
 10
175.08794584144329
 20
-310.39110823035759
 30
0.0
 11
175.15096637418159
 21
-310.30742096815879
 31
0.0
  0
LINE
  8
DETAIL
  6
CONTINUOUS
 62
     5
 10
175.15096637418159
 20
-310.30742096815879
 30
0.0
 11
175.21113561545579
 21
-310.22215446374571
 31
0.0
  0
LINE
  8
DETAIL
  6
CONTINUOUS
 62
     5
 10
175.21113561545579
 20
-310.22215446374571
 30
0.0
 11
175.21113561545579
 21
-310.22215446374571
 31
0.0
  0
LINE
  8
DETAIL
  6
CONTINUOUS
 62
     5
 10
175.21113561545579
 20
-310.22215446374571
 30
0.0
 11
175.2693700820129
 21
-310.13439319502191
 31
0.0
  0
LINE
  8
DETAIL
  6
CONTINUOUS
 62
     5
 10
175.2693700820129
 20
-310.13439319502191
 30
0.0
 11
175.32462768490061
 21
-310.04652083241012
 31
0.0
  0
LINE
  8
DETAIL
  6
CONTINUOUS
 62
     5
 10
175.32462768490061
 20
-310.04652083241012
 30
0.0
 11
175.32462768490061
 21
-310.04652083241012
 31
0.0
  0
LINE
  8
DETAIL
  6
CONTINUOUS
 62
     5
 10
175.32462768490061
 20
-310.04652083241012
 30
0.0
 11
175.37644881276859
 21
-309.95947056217238
 31
0.0
  0
LINE
  8
DETAIL
  6
CONTINUOUS
 62
     5
 10
175.37644881276859
 20
-309.95947056217238
 30
0.0
 11
175.42866237036671
 21
-309.86507444140852
 31
0.0
  0
LINE
  8
DETAIL
  6
CONTINUOUS
 62
     5
 10
175.42866237036671
 20
-309.86507444140852
 30
0.0
 11
175.42866237036671
 21
-309.86507444140852
 31
0.0
  0
LINE
  8
DETAIL
  6
CONTINUOUS
 62
     5
 10
175.42866237036671
 20
-309.86507444140852
 30
0.0
 11
175.48237052679471
 21
-309.76116557596077
 31
0.0
  0
LINE
  8
DETAIL
  6
CONTINUOUS
 62
     5
 10
175.48237052679471
 20
-309.76116557596077
 30
0.0
 11
175.52347999244259
 21
-309.67868239579911
 31
0.0
  0
LINE
  8
DETAIL
  6
CONTINUOUS
 62
     5
 10
175.52347999244259
 20
-309.67868239579911
 30
0.0
 11
175.52347999244259
 21
-309.67868239579911
 31
0.0
  0
LINE
  8
DETAIL
  6
CONTINUOUS
 62
     5
 10
175.52347999244259
 20
-309.67868239579911
 30
0.0
 11
175.5402875540475
 21
-309.64388987075472
 31
0.0
  0
LINE
  8
DETAIL
  6
CONTINUOUS
 62
     5
 10
175.5402875540475
 20
-309.64388987075472
 30
0.0
 11
175.5458457624425
 21
-309.63125380597762
 31
0.0
  0
LINE
  8
DETAIL
  6
CONTINUOUS
 62
     5
 10
175.5458457624425
 20
-309.63125380597762
 30
0.0
 11
175.5458457624425
 21
-309.63125380597762
 31
0.0
  0
LINE
  8
DETAIL
  6
CONTINUOUS
 62
     5
 10
175.5458457624425
 20
-309.63125380597762
 30
0.0
 11
175.5553297991332
 21
-309.61042275610288
 31
0.0
  0
LINE
  8
DETAIL
  6
CONTINUOUS
 62
     5
 10
175.5553297991332
 20
-309.61042275610288
 30
0.0
 11
175.5676496042262
 21
-309.58357543840089
 31
0.0
  0
LINE
  8
DETAIL
  6
CONTINUOUS
 62
     5
 10
175.5676496042262
 20
-309.58357543840089
 30
0.0
 11
175.5676496042262
 21
-309.58357543840089
 31
0.0
  0
LINE
  8
DETAIL
  6
CONTINUOUS
 62
     5
 10
175.5676496042262
 20
-309.58357543840089
 30
0.0
 11
175.5787392264084
 21
-309.55884524818418
 31
0.0
  0
LINE
  8
DETAIL
  6
CONTINUOUS
 62
     5
 10
175.5787392264084
 20
-309.55884524818418
 30
0.0
 11
175.58889439008999
 21
-309.53565413031879
 31
0.0
  0
LINE
  8
DETAIL
  6
CONTINUOUS
 62
     5
 10
175.58889439008999
 20
-309.53565413031879
 30
0.0
 11
175.58889439008999
 21
-309.53565413031879
 31
0.0
  0
LINE
  8
DETAIL
  6
CONTINUOUS
 62
     5
 10
175.58889439008999
 20
-309.53565413031879
 30
0.0
 11
175.59920587323899
 21
-309.51182507684808
 31
0.0
  0
LINE
  8
DETAIL
  6
CONTINUOUS
 62
     5
 10
175.59920587323899
 20
-309.51182507684808
 30
0.0
 11
175.60958299232911
 21
-309.4874967189773
 31
0.0
  0
LINE
  8
DETAIL
  6
CONTINUOUS
 62
     5
 10
175.60958299232911
 20
-309.4874967189773
 30
0.0
 11
175.60958299232911
 21
-309.4874967189773
 31
0.0
  0
LINE
  8
DETAIL
  6
CONTINUOUS
 62
     5
 10
175.60958299232911
 20
-309.4874967189773
 30
0.0
 11
175.61973074102389
 21
-309.46324882115209
 31
0.0
  0
LINE
  8
DETAIL
  6
CONTINUOUS
 62
     5
 10
175.61973074102389
 20
-309.46324882115209
 30
0.0
 11
175.6297182832391
 21
-309.43911004162442
 31
0.0
  0
LINE
  8
DETAIL
  6
CONTINUOUS
 62
     5
 10
173.60535295796231
 20
-310.19551578259222
 30
0.0
 11
173.66198528476329
 21
-310.27639744792651
 31
0.0
  0
LINE
  8
DETAIL
  6
CONTINUOUS
 62
     5
 10
173.66198528476329
 20
-310.27639744792651
 30
0.0
 11
173.71990298153921
 21
-310.35621982384168
 31
0.0
  0
LINE
  8
DETAIL
  6
CONTINUOUS
 62
     5
 10
173.71990298153921
 20
-310.35621982384168
 30
0.0
 11
173.71990298153921
 21
-310.35621982384168
 31
0.0
  0
LINE
  8
DETAIL
  6
CONTINUOUS
 62
     5
 10
173.71990298153921
 20
-310.35621982384168
 30
0.0
 11
173.78022711809581
 21
-310.43419703881892
 31
0.0
  0
LINE
  8
DETAIL
  6
CONTINUOUS
 62
     5
 10
173.78022711809581
 20
-310.43419703881892
 30
0.0
 11
173.84342156356061
 21
-310.5106368929512
 31
0.0
  0
LINE
  8
DETAIL
  6
CONTINUOUS
 62
     5
 10
173.84342156356061
 20
-310.5106368929512
 30
0.0
 11
173.84342156356061
 21
-310.5106368929512
 31
0.0
  0
LINE
  8
DETAIL
  6
CONTINUOUS
 62
     5
 10
173.84342156356061
 20
-310.5106368929512
 30
0.0
 11
173.9093275284433
 21
-310.58566789866398
 31
0.0
  0
LINE
  8
DETAIL
  6
CONTINUOUS
 62
     5
 10
173.9093275284433
 20
-310.58566789866398
 30
0.0
 11
173.9759527894613
 21
-310.65760774611522
 31
0.0
  0
LINE
  8
DETAIL
  6
CONTINUOUS
 62
     5
 10
173.9759527894613
 20
-310.65760774611522
 30
0.0
 11
173.9759527894613
 21
-310.65760774611522
 31
0.0
  0
LINE
  8
DETAIL
  6
CONTINUOUS
 62
     5
 10
173.9759527894613
 20
-310.65760774611522
 30
0.0
 11
174.04284449884591
 21
-310.72585882426188
 31
0.0
  0
LINE
  8
DETAIL
  6
CONTINUOUS
 62
     5
 10
174.04284449884591
 20
-310.72585882426188
 30
0.0
 11
174.1175407446764
 21
-310.79597313952922
 31
0.0
  0
LINE
  8
DETAIL
  6
CONTINUOUS
 62
     5
 10
174.1175407446764
 20
-310.79597313952922
 30
0.0
 11
174.1175407446764
 21
-310.79597313952922
 31
0.0
  0
LINE
  8
DETAIL
  6
CONTINUOUS
 62
     5
 10
174.1175407446764
 20
-310.79597313952922
 30
0.0
 11
174.2020447715943
 21
-310.86934319080888
 31
0.0
  0
LINE
  8
DETAIL
  6
CONTINUOUS
 62
     5
 10
174.2020447715943
 20
-310.86934319080888
 30
0.0
 11
174.26822951464081
 21
-310.92457382938909
 31
0.0
  0
LINE
  8
DETAIL
  6
CONTINUOUS
 62
     5
 10
174.26822951464081
 20
-310.92457382938909
 30
0.0
 11
174.26822951464081
 21
-310.92457382938909
 31
0.0
  0
LINE
  8
DETAIL
  6
CONTINUOUS
 62
     5
 10
174.26822951464081
 20
-310.92457382938909
 30
0.0
 11
174.2920897890007
 21
-310.94385814008677
 31
0.0
  0
LINE
  8
DETAIL
  6
CONTINUOUS
 62
     5
 10
174.2920897890007
 20
-310.94385814008677
 30
0.0
 11
174.29623824003491
 21
-310.94652978942639
 31
0.0
  0
LINE
  8
DETAIL
  6
CONTINUOUS
 62
     5
 10
174.29623824003491
 20
-310.94652978942639
 30
0.0
 11
174.29623824003491
 21
-310.94652978942639
 31
0.0
  0
LINE
  8
DETAIL
  6
CONTINUOUS
 62
     5
 10
174.29623824003491
 20
-310.94652978942639
 30
0.0
 11
174.3077006438028
 21
-310.95515941677053
 31
0.0
  0
LINE
  8
DETAIL
  6
CONTINUOUS
 62
     5
 10
174.3077006438028
 20
-310.95515941677053
 30
0.0
 11
174.3245374689875
 21
-310.96812497111682
 31
0.0
  0
LINE
  8
DETAIL
  6
CONTINUOUS
 62
     5
 10
174.3245374689875
 20
-310.96812497111682
 30
0.0
 11
174.3245374689875
 21
-310.96812497111682
 31
0.0
  0
LINE
  8
DETAIL
  6
CONTINUOUS
 62
     5
 10
174.3245374689875
 20
-310.96812497111682
 30
0.0
 11
174.33950688600939
 21
-310.979377160377
 31
0.0
  0
LINE
  8
DETAIL
  6
CONTINUOUS
 62
     5
 10
174.33950688600939
 20
-310.979377160377
 30
0.0
 11
174.35312317962189
 21
-310.98935041847238
 31
0.0
  0
LINE
  8
DETAIL
  6
CONTINUOUS
 62
     5
 10
174.35312317962189
 20
-310.98935041847238
 30
0.0
 11
174.35312317962189
 21
-310.98935041847238
 31
0.0
  0
LINE
  8
DETAIL
  6
CONTINUOUS
 62
     5
 10
174.35312317962189
 20
-310.98935041847238
 30
0.0
 11
174.3673248756738
 21
-310.9996645574073
 31
0.0
  0
LINE
  8
DETAIL
  6
CONTINUOUS
 62
     5
 10
174.3673248756738
 20
-310.9996645574073
 30
0.0
 11
174.38199135006019
 21
-311.01019717550662
 31
0.0
  0
LINE
  8
DETAIL
  6
CONTINUOUS
 62
     5
 10
174.38199135006019
 20
-311.01019717550662
 30
0.0
 11
174.38199135006019
 21
-311.01019717550662
 31
0.0
  0
LINE
  8
DETAIL
  6
CONTINUOUS
 62
     5
 10
174.38199135006019
 20
-311.01019717550662
 30
0.0
 11
174.39660731255751
 21
-311.02051159985172
 31
0.0
  0
LINE
  8
DETAIL
  6
CONTINUOUS
 62
     5
 10
174.39660731255751
 20
-311.02051159985172
 30
0.0
 11
174.41113795842529
 21
-311.03065628623119
 31
0.0
  0
LINE
  8
DETAIL
  6
CONTINUOUS
 62
     5
 10
173.17747479165141
 20
-312.6403157578095
 30
0.0
 11
173.17164169475399
 21
-312.64031351921739
 31
0.0
  0
LINE
  8
DETAIL
  6
CONTINUOUS
 62
     5
 10
173.17164169475399
 20
-312.64031351921739
 30
0.0
 11
173.16561674147081
 21
-312.64029352211401
 31
0.0
  0
LINE
  8
DETAIL
  6
CONTINUOUS
 62
     5
 10
173.16561674147081
 20
-312.64029352211401
 30
0.0
 11
173.16561674147081
 21
-312.64029352211401
 31
0.0
  0
LINE
  8
DETAIL
  6
CONTINUOUS
 62
     5
 10
173.16561674147081
 20
-312.64029352211401
 30
0.0
 11
173.1593999838623
 21
-312.64024885215241
 31
0.0
  0
LINE
  8
DETAIL
  6
CONTINUOUS
 62
     5
 10
173.1593999838623
 20
-312.64024885215241
 30
0.0
 11
173.15375910777141
 21
-312.64021597165419
 31
0.0
  0
LINE
  8
DETAIL
  6
CONTINUOUS
 62
     5
 10
173.15375910777141
 20
-312.64021597165419
 30
0.0
 11
173.15375910777141
 21
-312.64021597165419
 31
0.0
  0
LINE
  8
DETAIL
  6
CONTINUOUS
 62
     5
 10
173.15375910777141
 20
-312.64021597165419
 30
0.0
 11
173.148886050828
 21
-312.64020571190957
 31
0.0
  0
LINE
  8
DETAIL
  6
CONTINUOUS
 62
     5
 10
173.148886050828
 20
-312.64020571190957
 30
0.0
 11
173.1419021240238
 21
-312.6400830034238
 31
0.0
  0
LINE
  8
DETAIL
  6
CONTINUOUS
 62
     5
 10
173.1419021240238
 20
-312.6400830034238
 30
0.0
 11
173.1419021240238
 21
-312.6400830034238
 31
0.0
  0
LINE
  8
DETAIL
  6
CONTINUOUS
 62
     5
 10
173.1419021240238
 20
-312.6400830034238
 30
0.0
 11
173.13203969988291
 21
-312.63981135812418
 31
0.0
  0
LINE
  8
DETAIL
  6
CONTINUOUS
 62
     5
 10
173.13203969988291
 20
-312.63981135812418
 30
0.0
 11
173.1300460236985
 21
-312.63989451441648
 31
0.0
  0
LINE
  8
DETAIL
  6
CONTINUOUS
 62
     5
 10
173.1300460236985
 20
-312.63989451441648
 30
0.0
 11
173.1300460236985
 21
-312.63989451441648
 31
0.0
  0
LINE
  8
DETAIL
  6
CONTINUOUS
 62
     5
 10
173.1300460236985
 20
-312.63989451441648
 30
0.0
 11
173.13879984284679
 21
-312.64046751604451
 31
0.0
  0
LINE
  8
DETAIL
  6
CONTINUOUS
 62
     5
 10
173.13879984284679
 20
-312.64046751604451
 30
0.0
 11
173.11819104026679
 21
-312.63965040162719
 31
0.0
  0
LINE
  8
DETAIL
  6
CONTINUOUS
 62
     5
 10
173.11819104026679
 20
-312.63965040162719
 30
0.0
 11
173.11819104026679
 21
-312.63965040162719
 31
0.0
  0
LINE
  8
DETAIL
  6
CONTINUOUS
 62
     5
 10
173.11819104026679
 20
-312.63965040162719
 30
0.0
 11
173.0343436673152
 21
-312.63545929735318
 31
0.0
  0
LINE
  8
DETAIL
  6
CONTINUOUS
 62
     5
 10
173.0343436673152
 20
-312.63545929735318
 30
0.0
 11
172.92130731345571
 21
-312.62750968482459
 31
0.0
  0
LINE
  8
DETAIL
  6
CONTINUOUS
 62
     5
 10
172.92130731345571
 20
-312.62750968482459
 30
0.0
 11
172.92130731345571
 21
-312.62750968482459
 31
0.0
  0
LINE
  8
DETAIL
  6
CONTINUOUS
 62
     5
 10
172.92130731345571
 20
-312.62750968482459
 30
0.0
 11
172.8193652337751
 21
-312.61583357621248
 31
0.0
  0
LINE
  8
DETAIL
  6
CONTINUOUS
 62
     5
 10
172.8193652337751
 20
-312.61583357621248
 30
0.0
 11
172.72580980774239
 21
-312.60052975056323
 31
0.0
  0
LINE
  8
DETAIL
  6
CONTINUOUS
 62
     5
 10
172.72580980774239
 20
-312.60052975056323
 30
0.0
 11
172.72580980774239
 21
-312.60052975056323
 31
0.0
  0
LINE
  8
DETAIL
  6
CONTINUOUS
 62
     5
 10
172.72580980774239
 20
-312.60052975056323
 30
0.0
 11
172.63001986440949
 21
-312.58168843677572
 31
0.0
  0
LINE
  8
DETAIL
  6
CONTINUOUS
 62
     5
 10
172.63001986440949
 20
-312.58168843677572
 30
0.0
 11
172.53271090677941
 21
-312.55929889629061
 31
0.0
  0
LINE
  8
DETAIL
  6
CONTINUOUS
 62
     5
 10
172.53271090677941
 20
-312.55929889629061
 30
0.0
 11
172.53271090677941
 21
-312.55929889629061
 31
0.0
  0
LINE
  8
DETAIL
  6
CONTINUOUS
 62
     5
 10
172.53271090677941
 20
-312.55929889629061
 30
0.0
 11
172.4368436512959
 21
-312.53340942442293
 31
0.0
  0
LINE
  8
DETAIL
  6
CONTINUOUS
 62
     5
 10
172.4368436512959
 20
-312.53340942442293
 30
0.0
 11
172.34302299421859
 21
-312.50440541945301
 31
0.0
  0
LINE
  8
DETAIL
  6
CONTINUOUS
 62
     5
 10
172.34302299421859
 20
-312.50440541945301
 30
0.0
 11
172.34302299421859
 21
-312.50440541945301
 31
0.0
  0
LINE
  8
DETAIL
  6
CONTINUOUS
 62
     5
 10
172.34302299421859
 20
-312.50440541945301
 30
0.0
 11
172.25078652845809
 21
-312.47244469430291
 31
0.0
  0
LINE
  8
DETAIL
  6
CONTINUOUS
 62
     5
 10
172.25078652845809
 20
-312.47244469430291
 30
0.0
 11
172.1577584537126
 21
-312.43643761749792
 31
0.0
  0
LINE
  8
DETAIL
  6
CONTINUOUS
 62
     5
 10
172.1577584537126
 20
-312.43643761749792
 30
0.0
 11
172.1577584537126
 21
-312.43643761749792
 31
0.0
  0
LINE
  8
DETAIL
  6
CONTINUOUS
 62
     5
 10
172.1577584537126
 20
-312.43643761749792
 30
0.0
 11
172.06211328725351
 21
-312.39543695212211
 31
0.0
  0
LINE
  8
DETAIL
  6
CONTINUOUS
 62
     5
 10
172.06211328725351
 20
-312.39543695212211
 30
0.0
 11
171.96614020984859
 21
-312.35031248389419
 31
0.0
  0
LINE
  8
DETAIL
  6
CONTINUOUS
 62
     5
 10
171.96614020984859
 20
-312.35031248389419
 30
0.0
 11
171.96614020984859
 21
-312.35031248389419
 31
0.0
  0
LINE
  8
DETAIL
  6
CONTINUOUS
 62
     5
 10
171.96614020984859
 20
-312.35031248389419
 30
0.0
 11
171.87247704091709
 21
-312.30214760082453
 31
0.0
  0
LINE
  8
DETAIL
  6
CONTINUOUS
 62
     5
 10
171.87247704091709
 20
-312.30214760082453
 30
0.0
 11
171.7810414909782
 21
-312.25106307745801
 31
0.0
  0
LINE
  8
DETAIL
  6
CONTINUOUS
 62
     5
 10
171.7810414909782
 20
-312.25106307745801
 30
0.0
 11
171.7810414909782
 21
-312.25106307745801
 31
0.0
  0
LINE
  8
DETAIL
  6
CONTINUOUS
 62
     5
 10
171.7810414909782
 20
-312.25106307745801
 30
0.0
 11
171.69119644164809
 21
-312.19695109707868
 31
0.0
  0
LINE
  8
DETAIL
  6
CONTINUOUS
 62
     5
 10
171.69119644164809
 20
-312.19695109707868
 30
0.0
 11
171.60280556783391
 21
-312.13975209139647
 31
0.0
  0
LINE
  8
DETAIL
  6
CONTINUOUS
 62
     5
 10
171.60280556783391
 20
-312.13975209139647
 30
0.0
 11
171.60280556783391
 21
-312.13975209139647
 31
0.0
  0
LINE
  8
DETAIL
  6
CONTINUOUS
 62
     5
 10
171.60280556783391
 20
-312.13975209139647
 30
0.0
 11
171.5160369766991
 21
-312.07961095916988
 31
0.0
  0
LINE
  8
DETAIL
  6
CONTINUOUS
 62
     5
 10
171.5160369766991
 20
-312.07961095916988
 30
0.0
 11
171.43177571114731
 21
-312.01744221891721
 31
0.0
  0
LINE
  8
DETAIL
  6
CONTINUOUS
 62
     5
 10
171.43177571114731
 20
-312.01744221891721
 30
0.0
 11
171.43177571114731
 21
-312.01744221891721
 31
0.0
  0
LINE
  8
DETAIL
  6
CONTINUOUS
 62
     5
 10
171.43177571114731
 20
-312.01744221891721
 30
0.0
 11
171.35024391395481
 21
-311.9535711122287
 31
0.0
  0
LINE
  8
DETAIL
  6
CONTINUOUS
 62
     5
 10
171.35024391395481
 20
-311.9535711122287
 30
0.0
 11
171.26829519165091
 21
-311.88519615322718
 31
0.0
  0
LINE
  8
DETAIL
  6
CONTINUOUS
 62
     5
 10
171.26829519165091
 20
-311.88519615322718
 30
0.0
 11
171.26829519165091
 21
-311.88519615322718
 31
0.0
  0
LINE
  8
DETAIL
  6
CONTINUOUS
 62
     5
 10
171.26829519165091
 20
-311.88519615322718
 30
0.0
 11
171.183319481529
 21
-311.80992685430277
 31
0.0
  0
LINE
  8
DETAIL
  6
CONTINUOUS
 62
     5
 10
171.183319481529
 20
-311.80992685430277
 30
0.0
 11
171.09822058018631
 21
-311.73014344838123
 31
0.0
  0
LINE
  8
DETAIL
  6
CONTINUOUS
 62
     5
 10
171.09822058018631
 20
-311.73014344838123
 30
0.0
 11
171.09822058018631
 21
-311.73014344838123
 31
0.0
  0
LINE
  8
DETAIL
  6
CONTINUOUS
 62
     5
 10
171.09822058018631
 20
-311.73014344838123
 30
0.0
 11
171.01637893445999
 21
-311.64868870825939
 31
0.0
  0
LINE
  8
DETAIL
  6
CONTINUOUS
 62
     5
 10
171.01637893445999
 20
-311.64868870825939
 30
0.0
 11
170.93756773284341
 21
-311.56548484566622
 31
0.0
  0
LINE
  8
DETAIL
  6
CONTINUOUS
 62
     5
 10
170.93756773284341
 20
-311.56548484566622
 30
0.0
 11
170.93756773284341
 21
-311.56548484566622
 31
0.0
  0
LINE
  8
DETAIL
  6
CONTINUOUS
 62
     5
 10
170.93756773284341
 20
-311.56548484566622
 30
0.0
 11
170.8608792949818
 21
-311.47993166530449
 31
0.0
  0
LINE
  8
DETAIL
  6
CONTINUOUS
 62
     5
 10
170.8608792949818
 20
-311.47993166530449
 30
0.0
 11
170.7862897234746
 21
-311.39225990483118
 31
0.0
  0
LINE
  8
DETAIL
  6
CONTINUOUS
 62
     5
 10
170.7862897234746
 20
-311.39225990483118
 30
0.0
 11
170.7862897234746
 21
-311.39225990483118
 31
0.0
  0
LINE
  8
DETAIL
  6
CONTINUOUS
 62
     5
 10
170.7862897234746
 20
-311.39225990483118
 30
0.0
 11
170.71401409829161
 21
-311.30280724245239
 31
0.0
  0
LINE
  8
DETAIL
  6
CONTINUOUS
 62
     5
 10
170.71401409829161
 20
-311.30280724245239
 30
0.0
 11
170.64433962593279
 21
-311.21150818562609
 31
0.0
  0
LINE
  8
DETAIL
  6
CONTINUOUS
 62
     5
 10
170.64433962593279
 20
-311.21150818562609
 30
0.0
 11
170.64433962593279
 21
-311.21150818562609
 31
0.0
  0
LINE
  8
DETAIL
  6
CONTINUOUS
 62
     5
 10
170.64433962593279
 20
-311.21150818562609
 30
0.0
 11
170.57727847226261
 21
-311.11839188663208
 31
0.0
  0
LINE
  8
DETAIL
  6
CONTINUOUS
 62
     5
 10
170.57727847226261
 20
-311.11839188663208
 30
0.0
 11
170.5116705140708
 21
-311.02426924779883
 31
0.0
  0
LINE
  8
DETAIL
  6
CONTINUOUS
 62
     5
 10
179.05532274986001
 20
-309.43610399533048
 30
0.0
 11
179.03616878268511
 21
-309.4995021328192
 31
0.0
  0
LINE
  8
DETAIL
  6
CONTINUOUS
 62
     5
 10
179.03616878268511
 20
-309.4995021328192
 30
0.0
 11
179.01655551098591
 21
-309.56288007261003
 31
0.0
  0
LINE
  8
DETAIL
  6
CONTINUOUS
 62
     5
 10
179.01655551098591
 20
-309.56288007261003
 30
0.0
 11
179.01655551098591
 21
-309.56288007261003
 31
0.0
  0
LINE
  8
DETAIL
  6
CONTINUOUS
 62
     5
 10
179.01655551098591
 20
-309.56288007261003
 30
0.0
 11
178.99615763177269
 21
-309.62613387646769
 31
0.0
  0
LINE
  8
DETAIL
  6
CONTINUOUS
 62
     5
 10
178.99615763177269
 20
-309.62613387646769
 30
0.0
 11
178.97518584818729
 21
-309.68882464401639
 31
0.0
  0
LINE
  8
DETAIL
  6
CONTINUOUS
 62
     5
 10
178.97518584818729
 20
-309.68882464401639
 30
0.0
 11
178.97518584818729
 21
-309.68882464401639
 31
0.0
  0
LINE
  8
DETAIL
  6
CONTINUOUS
 62
     5
 10
178.97518584818729
 20
-309.68882464401639
 30
0.0
 11
178.9537711030201
 21
-309.75086115450091
 31
0.0
  0
LINE
  8
DETAIL
  6
CONTINUOUS
 62
     5
 10
178.9537711030201
 20
-309.75086115450091
 30
0.0
 11
178.93118929152479
 21
-309.81387786778549
 31
0.0
  0
LINE
  8
DETAIL
  6
CONTINUOUS
 62
     5
 10
178.93118929152479
 20
-309.81387786778549
 30
0.0
 11
178.93118929152479
 21
-309.81387786778549
 31
0.0
  0
LINE
  8
DETAIL
  6
CONTINUOUS
 62
     5
 10
178.93118929152479
 20
-309.81387786778549
 30
0.0
 11
178.90722359307409
 21
-309.8782987238053
 31
0.0
  0
LINE
  8
DETAIL
  6
CONTINUOUS
 62
     5
 10
178.90722359307409
 20
-309.8782987238053
 30
0.0
 11
178.8845413710601
 21
-309.9379799021533
 31
0.0
  0
LINE
  8
DETAIL
  6
CONTINUOUS
 62
     5
 10
178.8845413710601
 20
-309.9379799021533
 30
0.0
 11
178.8845413710601
 21
-309.9379799021533
 31
0.0
  0
LINE
  8
DETAIL
  6
CONTINUOUS
 62
     5
 10
178.8845413710601
 20
-309.9379799021533
 30
0.0
 11
178.86386061274521
 21
-309.99127198252432
 31
0.0
  0
LINE
  8
DETAIL
  6
CONTINUOUS
 62
     5
 10
178.86386061274521
 20
-309.99127198252432
 30
0.0
 11
178.83521761685481
 21
-310.06107090535511
 31
0.0
  0
LINE
  8
DETAIL
  6
CONTINUOUS
 62
     5
 10
178.83521761685481
 20
-310.06107090535511
 30
0.0
 11
178.83521761685481
 21
-310.06107090535511
 31
0.0
  0
LINE
  8
DETAIL
  6
CONTINUOUS
 62
     5
 10
178.83521761685481
 20
-310.06107090535511
 30
0.0
 11
178.790008278366
 21
-310.16664191289169
 31
0.0
  0
LINE
  8
DETAIL
  6
CONTINUOUS
 62
     5
 10
178.790008278366
 20
-310.16664191289169
 30
0.0
 11
178.7357485658014
 21
-310.28818209386259
 31
0.0
  0
LINE
  8
DETAIL
  6
CONTINUOUS
 62
     5
 10
178.7357485658014
 20
-310.28818209386259
 30
0.0
 11
178.7357485658014
 21
-310.28818209386259
 31
0.0
  0
LINE
  8
DETAIL
  6
CONTINUOUS
 62
     5
 10
178.7357485658014
 20
-310.28818209386259
 30
0.0
 11
178.68152797908269
 21
-310.40236508187422
 31
0.0
  0
LINE
  8
DETAIL
  6
CONTINUOUS
 62
     5
 10
178.68152797908269
 20
-310.40236508187422
 30
0.0
 11
178.62661007019159
 21
-310.5108388435508
 31
0.0
  0
LINE
  8
DETAIL
  6
CONTINUOUS
 62
     5
 10
178.62661007019159
 20
-310.5108388435508
 30
0.0
 11
178.62661007019159
 21
-310.5108388435508
 31
0.0
  0
LINE
  8
DETAIL
  6
CONTINUOUS
 62
     5
 10
178.62661007019159
 20
-310.5108388435508
 30
0.0
 11
178.56850901152779
 21
-310.61975785403678
 31
0.0
  0
LINE
  8
DETAIL
  6
CONTINUOUS
 62
     5
 10
178.56850901152779
 20
-310.61975785403678
 30
0.0
 11
178.50756740510661
 21
-310.72832828953523
 31
0.0
  0
LINE
  8
DETAIL
  6
CONTINUOUS
 62
     5
 10
178.50756740510661
 20
-310.72832828953523
 30
0.0
 11
178.50756740510661
 21
-310.72832828953523
 31
0.0
  0
LINE
  8
DETAIL
  6
CONTINUOUS
 62
     5
 10
178.50756740510661
 20
-310.72832828953523
 30
0.0
 11
178.444463017717
 21
-310.83472396719958
 31
0.0
  0
LINE
  8
DETAIL
  6
CONTINUOUS
 62
     5
 10
178.444463017717
 20
-310.83472396719958
 30
0.0
 11
178.3783858456259
 21
-310.93993756693021
 31
0.0
  0
LINE
  8
DETAIL
  6
CONTINUOUS
 62
     5
 10
178.3783858456259
 20
-310.93993756693021
 30
0.0
 11
178.3783858456259
 21
-310.93993756693021
 31
0.0
  0
LINE
  8
DETAIL
  6
CONTINUOUS
 62
     5
 10
178.3783858456259
 20
-310.93993756693021
 30
0.0
 11
178.30893460558741
 21
-311.04458469630367
 31
0.0
  0
LINE
  8
DETAIL
  6
CONTINUOUS
 62
     5
 10
178.30893460558741
 20
-311.04458469630367
 30
0.0
 11
178.2388306668295
 21
-311.14495381085231
 31
0.0
  0
LINE
  8
DETAIL
  6
CONTINUOUS
 62
     5
 10
178.2388306668295
 20
-311.14495381085231
 30
0.0
 11
178.2388306668295
 21
-311.14495381085231
 31
0.0
  0
LINE
  8
DETAIL
  6
CONTINUOUS
 62
     5
 10
178.2388306668295
 20
-311.14495381085231
 30
0.0
 11
178.17045739633801
 21
-311.23782464265219
 31
0.0
  0
LINE
  8
DETAIL
  6
CONTINUOUS
 62
     5
 10
178.17045739633801
 20
-311.23782464265219
 30
0.0
 11
178.10172349965981
 21
-311.32626918198889
 31
0.0
  0
LINE
  8
DETAIL
  6
CONTINUOUS
 62
     5
 10
178.10172349965981
 20
-311.32626918198889
 30
0.0
 11
178.10172349965981
 21
-311.32626918198889
 31
0.0
  0
LINE
  8
DETAIL
  6
CONTINUOUS
 62
     5
 10
178.10172349965981
 20
-311.32626918198889
 30
0.0
 11
178.03008259164289
 21
-311.41393447331188
 31
0.0
  0
LINE
  8
DETAIL
  6
CONTINUOUS
 62
     5
 10
178.03008259164289
 20
-311.41393447331188
 30
0.0
 11
177.95564258577679
 21
-311.50047551951661
 31
0.0
  0
LINE
  8
DETAIL
  6
CONTINUOUS
 62
     5
 10
177.95564258577679
 20
-311.50047551951661
 30
0.0
 11
177.95564258577679
 21
-311.50047551951661
 31
0.0
  0
LINE
  8
DETAIL
  6
CONTINUOUS
 62
     5
 10
177.95564258577679
 20
-311.50047551951661
 30
0.0
 11
177.8790577895592
 21
-311.58477181897462
 31
0.0
  0
LINE
  8
DETAIL
  6
CONTINUOUS
 62
     5
 10
177.8790577895592
 20
-311.58477181897462
 30
0.0
 11
177.80051378787931
 21
-311.66659289351747
 31
0.0
  0
LINE
  8
DETAIL
  6
CONTINUOUS
 62
     5
 10
177.80051378787931
 20
-311.66659289351747
 30
0.0
 11
177.80051378787931
 21
-311.66659289351747
 31
0.0
  0
LINE
  8
DETAIL
  6
CONTINUOUS
 62
     5
 10
177.80051378787931
 20
-311.66659289351747
 30
0.0
 11
177.7198841329224
 21
-311.74603875777052
 31
0.0
  0
LINE
  8
DETAIL
  6
CONTINUOUS
 62
     5
 10
177.7198841329224
 20
-311.74603875777052
 30
0.0
 11
177.63626296866519
 21
-311.82364137407131
 31
0.0
  0
LINE
  8
DETAIL
  6
CONTINUOUS
 62
     5
 10
177.63626296866519
 20
-311.82364137407131
 30
0.0
 11
177.63626296866519
 21
-311.82364137407131
 31
0.0
  0
LINE
  8
DETAIL
  6
CONTINUOUS
 62
     5
 10
177.63626296866519
 20
-311.82364137407131
 30
0.0
 11
177.5494461758924
 21
-311.89938623810781
 31
0.0
  0
LINE
  8
DETAIL
  6
CONTINUOUS
 62
     5
 10
177.5494461758924
 20
-311.89938623810781
 30
0.0
 11
177.46281599083321
 21
-311.9706410312599
 31
0.0
  0
LINE
  8
DETAIL
  6
CONTINUOUS
 62
     5
 10
177.46281599083321
 20
-311.9706410312599
 30
0.0
 11
177.46281599083321
 21
-311.9706410312599
 31
0.0
  0
LINE
  8
DETAIL
  6
CONTINUOUS
 62
     5
 10
177.46281599083321
 20
-311.9706410312599
 30
0.0
 11
177.37927466375001
 21
-312.03522156465738
 31
0.0
  0
LINE
  8
DETAIL
  6
CONTINUOUS
 62
     5
 10
177.37927466375001
 20
-312.03522156465738
 30
0.0
 11
177.29621814559101
 21
-312.09535398274602
 31
0.0
  0
LINE
  8
DETAIL
  6
CONTINUOUS
 62
     5
 10
177.29621814559101
 20
-312.09535398274602
 30
0.0
 11
177.29621814559101
 21
-312.09535398274602
 31
0.0
  0
LINE
  8
DETAIL
  6
CONTINUOUS
 62
     5
 10
177.29621814559101
 20
-312.09535398274602
 30
0.0
 11
177.21050023132241
 21
-312.15364116390242
 31
0.0
  0
LINE
  8
DETAIL
  6
CONTINUOUS
 62
     5
 10
177.21050023132241
 20
-312.15364116390242
 30
0.0
 11
177.1223123912896
 21
-312.20978258890528
 31
0.0
  0
LINE
  8
DETAIL
  6
CONTINUOUS
 62
     5
 10
177.1223123912896
 20
-312.20978258890528
 30
0.0
 11
177.1223123912896
 21
-312.20978258890528
 31
0.0
  0
LINE
  8
DETAIL
  6
CONTINUOUS
 62
     5
 10
177.1223123912896
 20
-312.20978258890528
 30
0.0
 11
177.03254409336139
 21
-312.26291912213293
 31
0.0
  0
LINE
  8
DETAIL
  6
CONTINUOUS
 62
     5
 10
177.03254409336139
 20
-312.26291912213293
 30
0.0
 11
176.94153912011231
 21
-312.31286055996111
 31
0.0
  0
LINE
  8
DETAIL
  6
CONTINUOUS
 62
     5
 10
176.94153912011231
 20
-312.31286055996111
 30
0.0
 11
176.94153912011231
 21
-312.31286055996111
 31
0.0
  0
LINE
  8
DETAIL
  6
CONTINUOUS
 62
     5
 10
176.94153912011231
 20
-312.31286055996111
 30
0.0
 11
176.84921609924251
 21
-312.35964084916799
 31
0.0
  0
LINE
  8
DETAIL
  6
CONTINUOUS
 62
     5
 10
176.84921609924251
 20
-312.35964084916799
 30
0.0
 11
176.7543387242421
 21
-312.40352160613952
 31
0.0
  0
LINE
  8
DETAIL
  6
CONTINUOUS
 62
     5
 10
176.7543387242421
 20
-312.40352160613952
 30
0.0
 11
176.7543387242421
 21
-312.40352160613952
 31
0.0
  0
LINE
  8
DETAIL
  6
CONTINUOUS
 62
     5
 10
176.7543387242421
 20
-312.40352160613952
 30
0.0
 11
176.65667331058179
 21
-312.44442646205448
 31
0.0
  0
LINE
  8
DETAIL
  6
CONTINUOUS
 62
     5
 10
176.65667331058179
 20
-312.44442646205448
 30
0.0
 11
176.56115159586179
 21
-312.4806994376645
 31
0.0
  0
LINE
  8
DETAIL
  6
CONTINUOUS
 62
     5
 10
176.56115159586179
 20
-312.4806994376645
 30
0.0
 11
176.56115159586179
 21
-312.4806994376645
 31
0.0
  0
LINE
  8
DETAIL
  6
CONTINUOUS
 62
     5
 10
176.56115159586179
 20
-312.4806994376645
 30
0.0
 11
176.47197859054509
 21
-312.51102861281169
 31
0.0
  0
LINE
  8
DETAIL
  6
CONTINUOUS
 62
     5
 10
176.47197859054509
 20
-312.51102861281169
 30
0.0
 11
176.38528697441461
 21
-312.53705791413972
 31
0.0
  0
LINE
  8
DETAIL
  6
CONTINUOUS
 62
     5
 10
176.38528697441461
 20
-312.53705791413972
 30
0.0
 11
176.38528697441461
 21
-312.53705791413972
 31
0.0
  0
LINE
  8
DETAIL
  6
CONTINUOUS
 62
     5
 10
176.38528697441461
 20
-312.53705791413972
 30
0.0
 11
176.2964583476211
 21
-312.56065009813238
 31
0.0
  0
LINE
  8
DETAIL
  6
CONTINUOUS
 62
     5
 10
176.2964583476211
 20
-312.56065009813238
 30
0.0
 11
176.2059423224616
 21
-312.58158739383822
 31
0.0
  0
LINE
  8
DETAIL
  6
CONTINUOUS
 62
     5
 10
176.2059423224616
 20
-312.58158739383822
 30
0.0
 11
176.2059423224616
 21
-312.58158739383822
 31
0.0
  0
LINE
  8
DETAIL
  6
CONTINUOUS
 62
     5
 10
176.2059423224616
 20
-312.58158739383822
 30
0.0
 11
176.11511603942151
 21
-312.59930109321681
 31
0.0
  0
LINE
  8
DETAIL
  6
CONTINUOUS
 62
     5
 10
176.11511603942151
 20
-312.59930109321681
 30
0.0
 11
176.02399873959101
 21
-312.61389926731431
 31
0.0
  0
LINE
  8
DETAIL
  6
CONTINUOUS
 62
     5
 10
176.02399873959101
 20
-312.61389926731431
 30
0.0
 11
176.02399873959101
 21
-312.61389926731431
 31
0.0
  0
LINE
  8
DETAIL
  6
CONTINUOUS
 62
     5
 10
176.02399873959101
 20
-312.61389926731431
 30
0.0
 11
175.93236108556951
 21
-312.62550253472108
 31
0.0
  0
LINE
  8
DETAIL
  6
CONTINUOUS
 62
     5
 10
175.93236108556951
 20
-312.62550253472108
 30
0.0
 11
175.8403373253901
 21
-312.63360492512021
 31
0.0
  0
LINE
  8
DETAIL
  6
CONTINUOUS
 62
     5
 10
175.8403373253901
 20
-312.63360492512021
 30
0.0
 11
175.8403373253901
 21
-312.63360492512021
 31
0.0
  0
LINE
  8
DETAIL
  6
CONTINUOUS
 62
     5
 10
175.8403373253901
 20
-312.63360492512021
 30
0.0
 11
175.74812849285991
 21
-312.63800121510332
 31
0.0
  0
LINE
  8
DETAIL
  6
CONTINUOUS
 62
     5
 10
175.74812849285991
 20
-312.63800121510332
 30
0.0
 11
175.65583917944659
 21
-312.6403157578095
 31
0.0
  0
LINE
  8
DETAIL
  6
CONTINUOUS
 62
     5
 10
171.12698856927821
 20
-310.19551578259222
 30
0.0
 11
171.1835614814793
 21
-310.2763524075333
 31
0.0
  0
LINE
  8
DETAIL
  6
CONTINUOUS
 62
     5
 10
171.1835614814793
 20
-310.2763524075333
 30
0.0
 11
171.24153859292261
 21
-310.35621982385487
 31
0.0
  0
LINE
  8
DETAIL
  6
CONTINUOUS
 62
     5
 10
171.24153859292261
 20
-310.35621982385487
 30
0.0
 11
171.24153859292261
 21
-310.35621982385487
 31
0.0
  0
LINE
  8
DETAIL
  6
CONTINUOUS
 62
     5
 10
171.24153859292261
 20
-310.35621982385487
 30
0.0
 11
171.30204097342431
 21
-310.434332160042
 31
0.0
  0
LINE
  8
DETAIL
  6
CONTINUOUS
 62
     5
 10
171.30204097342431
 20
-310.434332160042
 30
0.0
 11
171.36505717509499
 21
-310.51063689300167
 31
0.0
  0
LINE
  8
DETAIL
  6
CONTINUOUS
 62
     5
 10
171.36505717509499
 20
-310.51063689300167
 30
0.0
 11
171.36505717509499
 21
-310.51063689300167
 31
0.0
  0
LINE
  8
DETAIL
  6
CONTINUOUS
 62
     5
 10
171.36505717509499
 20
-310.51063689300167
 30
0.0
 11
171.4303095791781
 21
-310.58517245436292
 31
0.0
  0
LINE
  8
DETAIL
  6
CONTINUOUS
 62
     5
 10
171.4303095791781
 20
-310.58517245436292
 30
0.0
 11
171.4975884011545
 21
-310.65760774622692
 31
0.0
  0
LINE
  8
DETAIL
  6
CONTINUOUS
 62
     5
 10
171.4975884011545
 20
-310.65760774622692
 30
0.0
 11
171.4975884011545
 21
-310.65760774622692
 31
0.0
  0
LINE
  8
DETAIL
  6
CONTINUOUS
 62
     5
 10
171.4975884011545
 20
-310.65760774622692
 30
0.0
 11
171.566916110253
 21
-310.72770548073532
 31
0.0
  0
LINE
  8
DETAIL
  6
CONTINUOUS
 62
     5
 10
171.566916110253
 20
-310.72770548073532
 30
0.0
 11
171.63917635646001
 21
-310.79597313972431
 31
0.0
  0
LINE
  8
DETAIL
  6
CONTINUOUS
 62
     5
 10
171.63917635646001
 20
-310.79597313972431
 30
0.0
 11
171.63917635646001
 21
-310.79597313972431
 31
0.0
  0
LINE
  8
DETAIL
  6
CONTINUOUS
 62
     5
 10
171.63917635646001
 20
-310.79597313972431
 30
0.0
 11
171.7145899456352
 21
-310.86245201014202
 31
0.0
  0
LINE
  8
DETAIL
  6
CONTINUOUS
 62
     5
 10
171.7145899456352
 20
-310.86245201014202
 30
0.0
 11
171.78986512637059
 21
-310.92457382968718
 31
0.0
  0
LINE
  8
DETAIL
  6
CONTINUOUS
 62
     5
 10
171.78986512637059
 20
-310.92457382968718
 30
0.0
 11
171.78986512637059
 21
-310.92457382968718
 31
0.0
  0
LINE
  8
DETAIL
  6
CONTINUOUS
 62
     5
 10
171.78986512637059
 20
-310.92457382968718
 30
0.0
 11
171.86215960487641
 21
-310.98019297261038
 31
0.0
  0
LINE
  8
DETAIL
  6
CONTINUOUS
 62
     5
 10
171.86215960487641
 20
-310.98019297261038
 30
0.0
 11
171.93394147510551
 21
-311.03146390861122
 31
0.0
  0
LINE
  8
DETAIL
  6
CONTINUOUS
 62
     5
 10
171.93394147510551
 20
-311.03146390861122
 30
0.0
 11
171.93394147510551
 21
-311.03146390861122
 31
0.0
  0
LINE
  8
DETAIL
  6
CONTINUOUS
 62
     5
 10
171.93394147510551
 20
-311.03146390861122
 30
0.0
 11
172.00823565951609
 21
-311.08091512542438
 31
0.0
  0
LINE
  8
DETAIL
  6
CONTINUOUS
 62
     5
 10
172.00823565951609
 20
-311.08091512542438
 30
0.0
 11
172.08498400684741
 21
-311.12827108747069
 31
0.0
  0
LINE
  8
DETAIL
  6
CONTINUOUS
 62
     5
 10
172.08498400684741
 20
-311.12827108747069
 30
0.0
 11
172.08498400684741
 21
-311.12827108747069
 31
0.0
  0
LINE
  8
DETAIL
  6
CONTINUOUS
 62
     5
 10
172.08498400684741
 20
-311.12827108747069
 30
0.0
 11
172.16335139118971
 21
-311.17268747687882
 31
0.0
  0
LINE
  8
DETAIL
  6
CONTINUOUS
 62
     5
 10
172.16335139118971
 20
-311.17268747687882
 30
0.0
 11
172.2424778617619
 21
-311.21384886992121
 31
0.0
  0
LINE
  8
DETAIL
  6
CONTINUOUS
 62
     5
 10
172.2424778617619
 20
-311.21384886992121
 30
0.0
 11
172.2424778617619
 21
-311.21384886992121
 31
0.0
  0
LINE
  8
DETAIL
  6
CONTINUOUS
 62
     5
 10
172.2424778617619
 20
-311.21384886992121
 30
0.0
 11
172.32229285486599
 21
-311.25174417808938
 31
0.0
  0
LINE
  8
DETAIL
  6
CONTINUOUS
 62
     5
 10
172.32229285486599
 20
-311.25174417808938
 30
0.0
 11
172.40590818001351
 21
-311.28705075961881
 31
0.0
  0
LINE
  8
DETAIL
  6
CONTINUOUS
 62
     5
 10
172.40590818001351
 20
-311.28705075961881
 30
0.0
 11
172.40590818001351
 21
-311.28705075961881
 31
0.0
  0
LINE
  8
DETAIL
  6
CONTINUOUS
 62
     5
 10
172.40590818001351
 20
-311.28705075961881
 30
0.0
 11
172.49405507302751
 21
-311.31979741415108
 31
0.0
  0
LINE
  8
DETAIL
  6
CONTINUOUS
 62
     5
 10
172.49405507302751
 20
-311.31979741415108
 30
0.0
 11
172.57476010176779
 21
-311.34673026021892
 31
0.0
  0
LINE
  8
DETAIL
  6
CONTINUOUS
 62
     5
 10
172.57476010176779
 20
-311.34673026021892
 30
0.0
 11
172.57476010176779
 21
-311.34673026021892
 31
0.0
  0
LINE
  8
DETAIL
  6
CONTINUOUS
 62
     5
 10
172.57476010176779
 20
-311.34673026021892
 30
0.0
 11
172.6378363477321
 21
-311.36531603158733
 31
0.0
  0
LINE
  8
DETAIL
  6
CONTINUOUS
 62
     5
 10
172.6378363477321
 20
-311.36531603158733
 30
0.0
 11
172.69294761493759
 21
-311.37918660406888
 31
0.0
  0
LINE
  8
DETAIL
  6
CONTINUOUS
 62
     5
 10
172.69294761493759
 20
-311.37918660406888
 30
0.0
 11
172.69294761493759
 21
-311.37918660406888
 31
0.0
  0
LINE
  8
DETAIL
  6
CONTINUOUS
 62
     5
 10
172.69294761493759
 20
-311.37918660406888
 30
0.0
 11
172.7516169957911
 21
-311.39241536159318
 31
0.0
  0
LINE
  8
DETAIL
  6
CONTINUOUS
 62
     5
 10
172.7516169957911
 20
-311.39241536159318
 30
0.0
 11
172.81295401374669
 21
-311.40467657851258
 31
0.0
  0
LINE
  8
DETAIL
  6
CONTINUOUS
 62
     5
 10
172.81295401374669
 20
-311.40467657851258
 30
0.0
 11
172.81295401374669
 21
-311.40467657851258
 31
0.0
  0
LINE
  8
DETAIL
  6
CONTINUOUS
 62
     5
 10
172.81295401374669
 20
-311.40467657851258
 30
0.0
 11
172.87379622383699
 21
-311.41485592444661
 31
0.0
  0
LINE
  8
DETAIL
  6
CONTINUOUS
 62
     5
 10
172.87379622383699
 20
-311.41485592444661
 30
0.0
 11
172.93430687636521
 21
-311.42308375966007
 31
0.0
  0
LINE
  8
DETAIL
  6
CONTINUOUS
 62
     5
 10
172.93430687636521
 20
-311.42308375966007
 30
0.0
 11
172.93430687636521
 21
-311.42308375966007
 31
0.0
  0
LINE
  8
DETAIL
  6
CONTINUOUS
 62
     5
 10
172.93430687636521
 20
-311.42308375966007
 30
0.0
 11
172.99525834242041
 21
-311.42965670382841
 31
0.0
  0
LINE
  8
DETAIL
  6
CONTINUOUS
 62
     5
 10
172.99525834242041
 20
-311.42965670382841
 30
0.0
 11
173.05653378096301
 21
-311.43429172362198
 31
0.0
  0
LINE
  8
DETAIL
  6
CONTINUOUS
 62
     5
 10
173.05653378096301
 20
-311.43429172362198
 30
0.0
 11
173.05653378096301
 21
-311.43429172362198
 31
0.0
  0
LINE
  8
DETAIL
  6
CONTINUOUS
 62
     5
 10
173.05653378096301
 20
-311.43429172362198
 30
0.0
 11
173.1178518362326
 21
-311.43682935280322
 31
0.0
  0
LINE
  8
DETAIL
  6
CONTINUOUS
 62
     5
 10
173.1178518362326
 20
-311.43682935280322
 30
0.0
 11
173.17916230571021
 21
-311.43818404650688
 31
0.0
  0
LINE
  8
DETAIL
  6
CONTINUOUS
 62
     5
 10
176.5769583620648
 20
-309.43610399533048
 30
0.0
 11
176.5578043948899
 21
-309.4995021328192
 31
0.0
  0
LINE
  8
DETAIL
  6
CONTINUOUS
 62
     5
 10
176.5578043948899
 20
-309.4995021328192
 30
0.0
 11
176.5381911231907
 21
-309.56288007261003
 31
0.0
  0
LINE
  8
DETAIL
  6
CONTINUOUS
 62
     5
 10
176.5381911231907
 20
-309.56288007261003
 30
0.0
 11
176.5381911231907
 21
-309.56288007261003
 31
0.0
  0
LINE
  8
DETAIL
  6
CONTINUOUS
 62
     5
 10
176.5381911231907
 20
-309.56288007261003
 30
0.0
 11
176.51779324397751
 21
-309.62613387646769
 31
0.0
  0
LINE
  8
DETAIL
  6
CONTINUOUS
 62
     5
 10
176.51779324397751
 20
-309.62613387646769
 30
0.0
 11
176.49682146039211
 21
-309.68882464401639
 31
0.0
  0
LINE
  8
DETAIL
  6
CONTINUOUS
 62
     5
 10
176.49682146039211
 20
-309.68882464401639
 30
0.0
 11
176.49682146039211
 21
-309.68882464401639
 31
0.0
  0
LINE
  8
DETAIL
  6
CONTINUOUS
 62
     5
 10
176.49682146039211
 20
-309.68882464401639
 30
0.0
 11
176.47540671522509
 21
-309.75086115450091
 31
0.0
  0
LINE
  8
DETAIL
  6
CONTINUOUS
 62
     5
 10
176.47540671522509
 20
-309.75086115450091
 30
0.0
 11
176.45282490372941
 21
-309.81387786778549
 31
0.0
  0
LINE
  8
DETAIL
  6
CONTINUOUS
 62
     5
 10
176.45282490372941
 20
-309.81387786778549
 30
0.0
 11
176.45282490372941
 21
-309.81387786778549
 31
0.0
  0
LINE
  8
DETAIL
  6
CONTINUOUS
 62
     5
 10
176.45282490372941
 20
-309.81387786778549
 30
0.0
 11
176.428859205279
 21
-309.8782987238053
 31
0.0
  0
LINE
  8
DETAIL
  6
CONTINUOUS
 62
     5
 10
176.428859205279
 20
-309.8782987238053
 30
0.0
 11
176.40617698326491
 21
-309.9379799021533
 31
0.0
  0
LINE
  8
DETAIL
  6
CONTINUOUS
 62
     5
 10
176.40617698326491
 20
-309.9379799021533
 30
0.0
 11
176.40617698326491
 21
-309.9379799021533
 31
0.0
  0
LINE
  8
DETAIL
  6
CONTINUOUS
 62
     5
 10
176.40617698326491
 20
-309.9379799021533
 30
0.0
 11
176.38549622495029
 21
-309.99127198252432
 31
0.0
  0
LINE
  8
DETAIL
  6
CONTINUOUS
 62
     5
 10
176.38549622495029
 20
-309.99127198252432
 30
0.0
 11
176.35685322905991
 21
-310.06107090535511
 31
0.0
  0
LINE
  8
DETAIL
  6
CONTINUOUS
 62
     5
 10
176.35685322905991
 20
-310.06107090535511
 30
0.0
 11
176.35685322905991
 21
-310.06107090535511
 31
0.0
  0
LINE
  8
DETAIL
  6
CONTINUOUS
 62
     5
 10
176.35685322905991
 20
-310.06107090535511
 30
0.0
 11
176.3116438905711
 21
-310.16664191289169
 31
0.0
  0
LINE
  8
DETAIL
  6
CONTINUOUS
 62
     5
 10
176.3116438905711
 20
-310.16664191289169
 30
0.0
 11
176.25738417800471
 21
-310.28818209386259
 31
0.0
  0
LINE
  8
DETAIL
  6
CONTINUOUS
 62
     5
 10
176.25738417800471
 20
-310.28818209386259
 30
0.0
 11
176.25738417800471
 21
-310.28818209386259
 31
0.0
  0
LINE
  8
DETAIL
  6
CONTINUOUS
 62
     5
 10
176.25738417800471
 20
-310.28818209386259
 30
0.0
 11
176.20316359128299
 21
-310.40236508187422
 31
0.0
  0
LINE
  8
DETAIL
  6
CONTINUOUS
 62
     5
 10
176.20316359128299
 20
-310.40236508187422
 30
0.0
 11
176.14824568238581
 21
-310.5108388435508
 31
0.0
  0
LINE
  8
DETAIL
  6
CONTINUOUS
 62
     5
 10
176.14824568238581
 20
-310.5108388435508
 30
0.0
 11
176.14824568238581
 21
-310.5108388435508
 31
0.0
  0
LINE
  8
DETAIL
  6
CONTINUOUS
 62
     5
 10
176.14824568238581
 20
-310.5108388435508
 30
0.0
 11
176.0901446237115
 21
-310.61975785403678
 31
0.0
  0
LINE
  8
DETAIL
  6
CONTINUOUS
 62
     5
 10
176.0901446237115
 20
-310.61975785403678
 30
0.0
 11
176.02920301727499
 21
-310.72832828953523
 31
0.0
  0
LINE
  8
DETAIL
  6
CONTINUOUS
 62
     5
 10
176.02920301727499
 20
-310.72832828953523
 30
0.0
 11
176.02920301727499
 21
-310.72832828953523
 31
0.0
  0
LINE
  8
DETAIL
  6
CONTINUOUS
 62
     5
 10
176.02920301727499
 20
-310.72832828953523
 30
0.0
 11
175.96609862986421
 21
-310.83472396719958
 31
0.0
  0
LINE
  8
DETAIL
  6
CONTINUOUS
 62
     5
 10
175.96609862986421
 20
-310.83472396719958
 30
0.0
 11
175.90002145774429
 21
-310.93993756693021
 31
0.0
  0
LINE
  8
DETAIL
  6
CONTINUOUS
 62
     5
 10
175.90002145774429
 20
-310.93993756693021
 30
0.0
 11
175.90002145774429
 21
-310.93993756693021
 31
0.0
  0
LINE
  8
DETAIL
  6
CONTINUOUS
 62
     5
 10
175.90002145774429
 20
-310.93993756693021
 30
0.0
 11
175.83057021766879
 21
-311.04458469630367
 31
0.0
  0
LINE
  8
DETAIL
  6
CONTINUOUS
 62
     5
 10
175.83057021766879
 20
-311.04458469630367
 30
0.0
 11
175.76046627886581
 21
-311.14495381085231
 31
0.0
  0
LINE
  8
DETAIL
  6
CONTINUOUS
 62
     5
 10
175.76046627886581
 20
-311.14495381085231
 30
0.0
 11
175.76046627886581
 21
-311.14495381085231
 31
0.0
  0
LINE
  8
DETAIL
  6
CONTINUOUS
 62
     5
 10
175.76046627886581
 20
-311.14495381085231
 30
0.0
 11
175.69209300832361
 21
-311.23782464265219
 31
0.0
  0
LINE
  8
DETAIL
  6
CONTINUOUS
 62
     5
 10
175.69209300832361
 20
-311.23782464265219
 30
0.0
 11
175.62335911158891
 21
-311.32626918198889
 31
0.0
  0
LINE
  8
DETAIL
  6
CONTINUOUS
 62
     5
 10
175.62335911158891
 20
-311.32626918198889
 30
0.0
 11
175.62335911158891
 21
-311.32626918198889
 31
0.0
  0
LINE
  8
DETAIL
  6
CONTINUOUS
 62
     5
 10
175.62335911158891
 20
-311.32626918198889
 30
0.0
 11
175.5517182035104
 21
-311.41393447331188
 31
0.0
  0
LINE
  8
DETAIL
  6
CONTINUOUS
 62
     5
 10
175.5517182035104
 20
-311.41393447331188
 30
0.0
 11
175.47727819757921
 21
-311.50047551951661
 31
0.0
  0
LINE
  8
DETAIL
  6
CONTINUOUS
 62
     5
 10
175.47727819757921
 20
-311.50047551951661
 30
0.0
 11
175.47727819757921
 21
-311.50047551951661
 31
0.0
  0
LINE
  8
DETAIL
  6
CONTINUOUS
 62
     5
 10
175.47727819757921
 20
-311.50047551951661
 30
0.0
 11
175.4006934012948
 21
-311.58477181897462
 31
0.0
  0
LINE
  8
DETAIL
  6
CONTINUOUS
 62
     5
 10
175.4006934012948
 20
-311.58477181897462
 30
0.0
 11
175.32214939954909
 21
-311.66659289351747
 31
0.0
  0
LINE
  8
DETAIL
  6
CONTINUOUS
 62
     5
 10
175.32214939954909
 20
-311.66659289351747
 30
0.0
 11
175.32214939954909
 21
-311.66659289351747
 31
0.0
  0
LINE
  8
DETAIL
  6
CONTINUOUS
 62
     5
 10
175.32214939954909
 20
-311.66659289351747
 30
0.0
 11
175.2415197445284
 21
-311.74603875777052
 31
0.0
  0
LINE
  8
DETAIL
  6
CONTINUOUS
 62
     5
 10
175.2415197445284
 20
-311.74603875777052
 30
0.0
 11
175.1578985802112
 21
-311.82364137407131
 31
0.0
  0
LINE
  8
DETAIL
  6
CONTINUOUS
 62
     5
 10
175.1578985802112
 20
-311.82364137407131
 30
0.0
 11
175.1578985802112
 21
-311.82364137407131
 31
0.0
  0
LINE
  8
DETAIL
  6
CONTINUOUS
 62
     5
 10
175.1578985802112
 20
-311.82364137407131
 30
0.0
 11
175.07108178738369
 21
-311.89938623810781
 31
0.0
  0
LINE
  8
DETAIL
  6
CONTINUOUS
 62
     5
 10
175.07108178738369
 20
-311.89938623810781
 30
0.0
 11
174.98445160227831
 21
-311.9706410312599
 31
0.0
  0
LINE
  8
DETAIL
  6
CONTINUOUS
 62
     5
 10
174.98445160227831
 20
-311.9706410312599
 30
0.0
 11
174.98445160227831
 21
-311.9706410312599
 31
0.0
  0
LINE
  8
DETAIL
  6
CONTINUOUS
 62
     5
 10
174.98445160227831
 20
-311.9706410312599
 30
0.0
 11
174.90091027515919
 21
-312.03522156465738
 31
0.0
  0
LINE
  8
DETAIL
  6
CONTINUOUS
 62
     5
 10
174.90091027515919
 20
-312.03522156465738
 30
0.0
 11
174.81785375697291
 21
-312.09535398274602
 31
0.0
  0
LINE
  8
DETAIL
  6
CONTINUOUS
 62
     5
 10
174.81785375697291
 20
-312.09535398274602
 30
0.0
 11
174.81785375697291
 21
-312.09535398274602
 31
0.0
  0
LINE
  8
DETAIL
  6
CONTINUOUS
 62
     5
 10
174.81785375697291
 20
-312.09535398274602
 30
0.0
 11
174.7321358426826
 21
-312.15364116390242
 31
0.0
  0
LINE
  8
DETAIL
  6
CONTINUOUS
 62
     5
 10
174.7321358426826
 20
-312.15364116390242
 30
0.0
 11
174.64394800263341
 21
-312.20978258890528
 31
0.0
  0
LINE
  8
DETAIL
  6
CONTINUOUS
 62
     5
 10
174.64394800263341
 20
-312.20978258890528
 30
0.0
 11
174.64394800263341
 21
-312.20978258890528
 31
0.0
  0
LINE
  8
DETAIL
  6
CONTINUOUS
 62
     5
 10
174.64394800263341
 20
-312.20978258890528
 30
0.0
 11
174.5541797046935
 21
-312.26291912213293
 31
0.0
  0
LINE
  8
DETAIL
  6
CONTINUOUS
 62
     5
 10
174.5541797046935
 20
-312.26291912213293
 30
0.0
 11
174.46317473143679
 21
-312.31286055996111
 31
0.0
  0
LINE
  8
DETAIL
  6
CONTINUOUS
 62
     5
 10
174.46317473143679
 20
-312.31286055996111
 30
0.0
 11
174.46317473143679
 21
-312.31286055996111
 31
0.0
  0
LINE
  8
DETAIL
  6
CONTINUOUS
 62
     5
 10
174.46317473143679
 20
-312.31286055996111
 30
0.0
 11
174.37085171056219
 21
-312.35964084916799
 31
0.0
  0
LINE
  8
DETAIL
  6
CONTINUOUS
 62
     5
 10
174.37085171056219
 20
-312.35964084916799
 30
0.0
 11
174.2759743355592
 21
-312.40352160613952
 31
0.0
  0
LINE
  8
DETAIL
  6
CONTINUOUS
 62
     5
 10
174.2759743355592
 20
-312.40352160613952
 30
0.0
 11
174.2759743355592
 21
-312.40352160613952
 31
0.0
  0
LINE
  8
DETAIL
  6
CONTINUOUS
 62
     5
 10
174.2759743355592
 20
-312.40352160613952
 30
0.0
 11
174.17830892189801
 21
-312.44442646205448
 31
0.0
  0
LINE
  8
DETAIL
  6
CONTINUOUS
 62
     5
 10
174.17830892189801
 20
-312.44442646205448
 30
0.0
 11
174.0827872071778
 21
-312.4806994376645
 31
0.0
  0
LINE
  8
DETAIL
  6
CONTINUOUS
 62
     5
 10
174.0827872071778
 20
-312.4806994376645
 30
0.0
 11
174.0827872071778
 21
-312.4806994376645
 31
0.0
  0
LINE
  8
DETAIL
  6
CONTINUOUS
 62
     5
 10
174.0827872071778
 20
-312.4806994376645
 30
0.0
 11
173.9936142018619
 21
-312.51102861281169
 31
0.0
  0
LINE
  8
DETAIL
  6
CONTINUOUS
 62
     5
 10
173.9936142018619
 20
-312.51102861281169
 30
0.0
 11
173.9069225857377
 21
-312.53705791413972
 31
0.0
  0
LINE
  8
DETAIL
  6
CONTINUOUS
 62
     5
 10
173.9069225857377
 20
-312.53705791413972
 30
0.0
 11
173.9069225857377
 21
-312.53705791413972
 31
0.0
  0
LINE
  8
DETAIL
  6
CONTINUOUS
 62
     5
 10
173.9069225857377
 20
-312.53705791413972
 30
0.0
 11
173.81809395896099
 21
-312.56065009813238
 31
0.0
  0
LINE
  8
DETAIL
  6
CONTINUOUS
 62
     5
 10
173.81809395896099
 20
-312.56065009813238
 30
0.0
 11
173.72757793383471
 21
-312.58158739383822
 31
0.0
  0
LINE
  8
DETAIL
  6
CONTINUOUS
 62
     5
 10
173.72757793383471
 20
-312.58158739383822
 30
0.0
 11
173.72757793383471
 21
-312.58158739383822
 31
0.0
  0
LINE
  8
DETAIL
  6
CONTINUOUS
 62
     5
 10
173.72757793383471
 20
-312.58158739383822
 30
0.0
 11
173.6367516508495
 21
-312.59930109321681
 31
0.0
  0
LINE
  8
DETAIL
  6
CONTINUOUS
 62
     5
 10
173.6367516508495
 20
-312.59930109321681
 30
0.0
 11
173.54563435109901
 21
-312.61389926731431
 31
0.0
  0
LINE
  8
DETAIL
  6
CONTINUOUS
 62
     5
 10
173.54563435109901
 20
-312.61389926731431
 30
0.0
 11
173.54563435109901
 21
-312.61389926731431
 31
0.0
  0
LINE
  8
DETAIL
  6
CONTINUOUS
 62
     5
 10
173.54563435109901
 20
-312.61389926731431
 30
0.0
 11
173.4539966971877
 21
-312.62550253472108
 31
0.0
  0
LINE
  8
DETAIL
  6
CONTINUOUS
 62
     5
 10
173.4539966971877
 20
-312.62550253472108
 30
0.0
 11
173.36197293716111
 21
-312.63360492512021
 31
0.0
  0
LINE
  8
DETAIL
  6
CONTINUOUS
 62
     5
 10
173.36197293716111
 20
-312.63360492512021
 30
0.0
 11
173.36197293716111
 21
-312.63360492512021
 31
0.0
  0
LINE
  8
DETAIL
  6
CONTINUOUS
 62
     5
 10
173.36197293716111
 20
-312.63360492512021
 30
0.0
 11
173.2697641048336
 21
-312.63800121510332
 31
0.0
  0
LINE
  8
DETAIL
  6
CONTINUOUS
 62
     5
 10
173.2697641048336
 20
-312.63800121510332
 30
0.0
 11
173.17747479165141
 21
-312.6403157578095
 31
0.0
  0
LINE
  8
DETAIL
  6
CONTINUOUS
 62
     5
 10
3.1425825844883089
 20
-175.246277050609
 30
0.0
 11
3.1064598043768679
 21
-175.28624320547209
 31
0.0
  0
LINE
  8
DETAIL
  6
CONTINUOUS
 62
     5
 10
3.1064598043768679
 20
-175.28624320547209
 30
0.0
 11
3.06972083816845
 21
-175.32689723989941
 31
0.0
  0
LINE
  8
DETAIL
  6
CONTINUOUS
 62
     5
 10
3.06972083816845
 20
-175.32689723989941
 30
0.0
 11
3.06972083816845
 21
-175.32689723989941
 31
0.0
  0
LINE
  8
DETAIL
  6
CONTINUOUS
 62
     5
 10
3.06972083816845
 20
-175.32689723989941
 30
0.0
 11
3.0323673886960019
 21
-175.36824069305271
 31
0.0
  0
LINE
  8
DETAIL
  6
CONTINUOUS
 62
     5
 10
3.0323673886960019
 20
-175.36824069305271
 30
0.0
 11
2.996872714512961
 21
-175.4075297424836
 31
0.0
  0
LINE
  8
DETAIL
  6
CONTINUOUS
 62
     5
 10
2.996872714512961
 20
-175.4075297424836
 30
0.0
 11
2.996872714512961
 21
-175.4075297424836
 31
0.0
  0
LINE
  8
DETAIL
  6
CONTINUOUS
 62
     5
 10
2.996872714512961
 20
-175.4075297424836
 30
0.0
 11
2.9638547082683999
 21
-175.44407805068539
 31
0.0
  0
LINE
  8
DETAIL
  6
CONTINUOUS
 62
     5
 10
2.9638547082683999
 20
-175.44407805068539
 30
0.0
 11
2.924038243276982
 21
-175.4881745815353
 31
0.0
  0
LINE
  8
DETAIL
  6
CONTINUOUS
 62
     5
 10
2.924038243276982
 20
-175.4881745815353
 30
0.0
 11
2.924038243276982
 21
-175.4881745815353
 31
0.0
  0
LINE
  8
DETAIL
  6
CONTINUOUS
 62
     5
 10
2.924038243276982
 20
-175.4881745815353
 30
0.0
 11
2.8749500684239142
 21
-175.54256316327749
 31
0.0
  0
LINE
  8
DETAIL
  6
CONTINUOUS
 62
     5
 10
2.8749500684239142
 20
-175.54256316327749
 30
0.0
 11
2.8512174542161119
 21
-175.56883178023011
 31
0.0
  0
LINE
  8
DETAIL
  6
CONTINUOUS
 62
     5
 10
2.8512174542161119
 20
-175.56883178023011
 30
0.0
 11
2.8512174542161119
 21
-175.56883178023011
 31
0.0
  0
LINE
  8
DETAIL
  6
CONTINUOUS
 62
     5
 10
2.8512174542161119
 20
-175.56883178023011
 30
0.0
 11
2.8621155347781269
 21
-175.55669147430919
 31
0.0
  0
LINE
  8
DETAIL
  6
CONTINUOUS
 62
     5
 10
2.8621155347781269
 20
-175.55669147430919
 30
0.0
 11
2.7784103770854931
 21
-175.64950136174301
 31
0.0
  0
LINE
  8
DETAIL
  6
CONTINUOUS
 62
     5
 10
2.7784103770854931
 20
-175.64950136174301
 30
0.0
 11
2.7784103770854931
 21
-175.64950136174301
 31
0.0
  0
LINE
  8
DETAIL
  6
CONTINUOUS
 62
     5
 10
2.7784103770854931
 20
-175.64950136174301
 30
0.0
 11
2.490891865615481
 21
-175.9684701586641
 31
0.0
  0
LINE
  8
DETAIL
  6
CONTINUOUS
 62
     5
 10
-105.6488011289424
 20
-272.38363892777159
 30
0.0
 11
-105.6488011289424
 21
-267.77715091708041
 31
0.0
  0
LINE
  8
DETAIL
  6
CONTINUOUS
 62
     5
 10
-78.224659618051192
 20
-272.38363892777159
 30
0.0
 11
-78.224659618051192
 21
-267.77715091708041
 31
0.0
  0
LINE
  8
DETAIL
  6
CONTINUOUS
 62
     5
 10
2.5035260924961449
 20
-260.36671368094488
 30
0.0
 11
-2.503526093385176
 21
-260.36671368094488
 31
0.0
  0
LINE
  8
DETAIL
  6
CONTINUOUS
 62
     5
 10
-2.503526093385176
 20
-260.36671368094488
 30
0.0
 11
-2.503526093385176
 21
-267.77715091708041
 31
0.0
  0
LINE
  8
DETAIL
  6
CONTINUOUS
 62
     5
 10
2.5035260924961449
 20
-260.36671368094488
 30
0.0
 11
2.5035260924961449
 21
-267.77715091708041
 31
0.0
  0
CIRCLE
  8
DETAIL
  6
CONTINUOUS
 62
     5
 10
-0.0000000000001137
 20
-284.40056417459772
 30
0.0
 40
3.004231311706635
  0
LINE
  8
BASIS
  6
DASHDOT
 62
     6
 10
0.0
 20
-381.40861144070402
 30
0.0
 11
0.0
 21
66.141618639261651
 31
0.0
  0
TEXT
  8
ETC
  6
CONTINUOUS
 62
    61
 10
426.8974487803107
 20
198.46473179572689
 30
0.0
 40
40.0
  1
EWG-60FTA2-Q
 41
0.9
  0
ARC
  8
DETAIL
  6
CONTINUOUS
 62
     5
 10
-198.63727477654899
 20
-205.09599980826951
 30
0.0
 40
107.7697636619833
 50
177.97266088002351
 51
255.50591031903571
  0
ARC
  8
DETAIL
  6
CONTINUOUS
 62
     5
 10
-191.05313569584911
 20
-203.88029174068529
 30
0.0
 40
111.0681816461201
 50
178.66029240313409
 51
251.8725885470142
  0
ARC
  8
DETAIL
  6
CONTINUOUS
 62
     5
 10
-205.63273584986021
 20
-204.67808226567939
 30
0.0
 40
69.633055928675773
 50
177.2057455280918
 51
253.32303383672561
  0
ARC
  8
DETAIL
  6
CONTINUOUS
 62
     5
 10
-289.49261466682577
 20
-7.1002690974301004
 30
0.0
 40
2.931219635758056
 50
199.07404118168751
 51
263.75679371544669
  0
ARC
  8
DETAIL
  6
CONTINUOUS
 62
     5
 10
-302.56441624688517
 20
-9.2989664462575092
 30
0.0
 40
10.37597213100309
 50
6.868120203923473
 51
37.348721660086511
  0
ARC
  8
DETAIL
  6
CONTINUOUS
 62
     5
 10
-289.54220946485287
 20
-8.1483459172261519
 30
0.0
 40
6.3777881209362297
 50
193.43887784115549
 51
267.58113224485788
  0
ARC
  8
DETAIL
  6
CONTINUOUS
 62
     5
 10
-301.32313712040201
 20
-10.06194669379556
 30
0.0
 40
5.5944278253350124
 50
4.422117854320728
 51
62.332685788273473
  0
ARC
  8
DETAIL
  6
CONTINUOUS
 62
     5
 10
-339.26063795031951
 20
-8.3688460630663712
 30
0.0
 40
6.1527375182774531
 50
195.00412963048831
 51
268.90079280990221
  0
ARC
  8
DETAIL
  6
CONTINUOUS
 62
     5
 10
-351.42337276569373
 20
-10.37912032492545
 30
0.0
 40
6.2337514023928327
 50
3.8392900830884171
 51
57.55392202334248
  0
ARC
  8
DETAIL
  6
CONTINUOUS
 62
     5
 10
-335.95996064647619
 20
-41.813261283919687
 30
0.0
 40
21.875715805444681
 50
28.89270677542514
 51
84.781781222128245
  0
ARC
  8
DETAIL
  6
CONTINUOUS
 62
     5
 10
-378.00452366244281
 20
-70.164885630096705
 30
0.0
 40
72.525736644336831
 50
8.8363249445271528
 51
32.456252278590057
  0
ARC
  8
DETAIL
  6
CONTINUOUS
 62
     5
 10
198.63727477654899
 20
-205.09599980826951
 30
0.0
 40
107.7697636619833
 50
284.49408968096401
 51
2.027339119976479
  0
ARC
  8
DETAIL
  6
CONTINUOUS
 62
     5
 10
191.05313569584911
 20
-203.88029174068529
 30
0.0
 40
111.0681816461201
 50
288.12741145298531
 51
1.3397075968659129
  0
ARC
  8
DETAIL
  6
CONTINUOUS
 62
     5
 10
205.63273584986021
 20
-204.67808226567939
 30
0.0
 40
69.633055928675773
 50
286.67696616327441
 51
2.7942544719081628
  0
ARC
  8
DETAIL
  6
CONTINUOUS
 62
     5
 10
289.49261466682577
 20
-7.1002690974301004
 30
0.0
 40
2.931219635758056
 50
276.24320628455331
 51
340.92595881831249
  0
ARC
  8
DETAIL
  6
CONTINUOUS
 62
     5
 10
302.58306664363772
 20
-9.3037866222002776
 30
0.0
 40
10.395065425252691
 50
142.69815518472871
 51
173.1177954894122
  0
ARC
  8
DETAIL
  6
CONTINUOUS
 62
     5
 10
289.54220946484918
 20
-8.1483459172261519
 30
0.0
 40
6.3777881209362297
 50
272.41886775514212
 51
346.56112215884451
  0
ARC
  8
DETAIL
  6
CONTINUOUS
 62
     5
 10
301.32313712039831
 20
-10.06194669379556
 30
0.0
 40
5.5944278253350124
 50
117.66731421172651
 51
175.5778821456793
  0
ARC
  8
DETAIL
  6
CONTINUOUS
 62
     5
 10
339.26063795031951
 20
-8.3688460630663712
 30
0.0
 40
6.1527375182774531
 50
271.09920719009779
 51
344.99587036951169
  0
ARC
  8
DETAIL
  6
CONTINUOUS
 62
     5
 10
351.42337276569009
 20
-10.37912032492545
 30
0.0
 40
6.2337514023928327
 50
122.44607797665751
 51
176.1607099169116
  0
ARC
  8
DETAIL
  6
CONTINUOUS
 62
     5
 10
335.95996064647619
 20
-41.813261283919687
 30
0.0
 40
21.875715805444681
 50
95.218218777871769
 51
151.1072932245749
  0
ARC
  8
DETAIL
  6
CONTINUOUS
 62
     5
 10
378.00452366243923
 20
-70.164885630096705
 30
0.0
 40
72.525736644336831
 50
147.54374772140989
 51
171.16367505547291
  0
ARC
  8
DETAIL
  6
CONTINUOUS
 62
     5
 10
-204.26396553665839
 20
-36.966799058901763
 30
0.0
 40
195.10624320502771
 50
249.14749062153979
 51
281.74831776608812
  0
ARC
  8
DETAIL
  6
CONTINUOUS
 62
     5
 10
-310.7886675049196
 20
990.75612879401342
 30
0.0
 40
1227.4857746683881
 50
276.8428583714263
 51
281.1540188072828
  0
ARC
  8
DETAIL
  6
CONTINUOUS
 62
     5
 10
92.602689185806753
 20
-94.350970090222646
 30
0.0
 40
204.30905029599279
 50
203.32536291933349
 51
215.6895022888269
  0
ARC
  8
DETAIL
  6
CONTINUOUS
 62
     5
 10
31.98563360505068
 20
-51.683436577388868
 30
0.0
 40
179.67508293286789
 50
286.30054194280871
 51
296.8344107606049
  0
ARC
  8
DETAIL
  6
CONTINUOUS
 62
     5
 10
31.98563360505068
 20
-51.683436577388868
 30
0.0
 40
179.67508293286789
 50
311.00120122810762
 51
316.55149141601112
  0
ARC
  8
DETAIL
  6
CONTINUOUS
 62
     5
 10
215.28071469774221
 20
5.3323793484954081
 30
0.0
 40
240.16668802912761
 50
236.12464301730901
 51
258.8514970197445
  0
ARC
  8
DETAIL
  6
CONTINUOUS
 62
     5
 10
174.576120867805
 20
-216.71840884809629
 30
0.0
 40
14.74375384643132
 50
247.12062125772391
 51
284.96248325013812
  0
ARC
  8
DETAIL
  6
CONTINUOUS
 62
     5
 10
175.21690916638181
 20
-227.25566401246101
 30
0.0
 40
4.932880172011922
 50
310.8567582709025
 51
14.08651742475285
  0
ARC
  8
DETAIL
  6
CONTINUOUS
 62
     5
 10
92.305884290573886
 20
-249.91113142145471
 30
0.0
 40
90.882478173037356
 50
15.21807275661623
 51
28.720624989238871
  0
ARC
  8
DETAIL
  6
CONTINUOUS
 62
     5
 10
2.6551673305111758
 20
-381.64992735125747
 30
0.0
 40
243.82233247866009
 50
46.006861710899621
 51
57.83631537528894
  0
ARC
  8
OUTLINE
  6
CONTINUOUS
 62
     3
 10
-198.63727477654899
 20
-205.09599980826951
 30
0.0
 40
107.7697636619833
 50
177.97266088002351
 51
255.50591031903571
  0
ARC
  8
OUTLINE
  6
CONTINUOUS
 62
     3
 10
-339.26063795031951
 20
-8.3688460630664281
 30
0.0
 40
6.1527375182774531
 50
195.00412963048831
 51
268.90079280990221
  0
ARC
  8
OUTLINE
  6
CONTINUOUS
 62
     3
 10
-335.95996064647619
 20
-41.813261283919687
 30
0.0
 40
21.875715805444681
 50
28.89270677542514
 51
84.781781222128245
  0
ARC
  8
OUTLINE
  6
CONTINUOUS
 62
     3
 10
-378.00452366244281
 20
-70.164885630096705
 30
0.0
 40
72.525736644336831
 50
8.8363249445271528
 51
32.456252278590057
  0
ARC
  8
OUTLINE
  6
CONTINUOUS
 62
     3
 10
198.63727477654899
 20
-205.09599980826951
 30
0.0
 40
107.7697636619833
 50
284.49408968096401
 51
2.027339119976479
  0
ARC
  8
OUTLINE
  6
CONTINUOUS
 62
     3
 10
339.26063795031951
 20
-8.3688460630664281
 30
0.0
 40
6.1527375182774531
 50
271.09920719009779
 51
344.99587036951169
  0
ARC
  8
OUTLINE
  6
CONTINUOUS
 62
     3
 10
335.95996064647619
 20
-41.813261283919687
 30
0.0
 40
21.875715805444681
 50
95.218218777871769
 51
151.1072932245749
  0
ARC
  8
OUTLINE
  6
CONTINUOUS
 62
     3
 10
378.00452366243923
 20
-70.164885630096705
 30
0.0
 40
72.525736644336831
 50
147.54374772140989
 51
171.16367505547291
  0
LINE
  8
DETAIL
  6
CONTINUOUS
 62
     5
 10
-40.0564174897181
 20
-307.43300423160832
 30
0.0
 11
-40.0564174897181
 21
-286.65524581271632
 31
0.0
  0
LINE
  8
DETAIL
  6
CONTINUOUS
 62
     5
 10
40.056417488829076
 20
-286.65524581271632
 30
0.0
 11
40.056417488829076
 21
-307.43300423160832
 31
0.0
  0
LINE
  8
DETAIL
  6
CONTINUOUS
 62
     5
 10
35.049365302947542
 20
-312.4400564174897
 30
0.0
 11
-35.049365303836566
 21
-312.4400564174897
 31
0.0
  0
ARC
  8
DETAIL
  6
CONTINUOUS
 62
     5
 10
-35.049365303836566
 20
-307.43300423160832
 30
0.0
 40
5.0070521858813768
 50
180.0
 51
270.0
  0
ARC
  8
DETAIL
  6
CONTINUOUS
 62
     5
 10
-35.049365303836566
 20
-286.65524581271632
 30
0.0
 40
5.0070521858812107
 50
100.6151078506975
 51
180.0
  0
ARC
  8
DETAIL
  6
CONTINUOUS
 62
     5
 10
0.0
 20
-473.66713681211559
 30
0.0
 40
195.27503526093079
 50
79.384892149302559
 51
100.6151078506975
  0
ARC
  8
DETAIL
  6
CONTINUOUS
 62
     5
 10
35.049365302947542
 20
-286.65524581271632
 30
0.0
 40
5.0070521858814914
 50
0.0
 51
79.384892149302559
  0
ARC
  8
DETAIL
  6
CONTINUOUS
 62
     5
 10
35.049365302947542
 20
-307.43300423160832
 30
0.0
 40
5.0070521858813208
 50
270.0
 51
0.0
  0
LINE
  8
DETAIL
  6
CONTINUOUS
 62
     5
 10
81.414668547249789
 20
-220.0572485932596
 30
0.0
 11
81.414668547249789
 21
-189.2486674411204
 31
0.0
  0
ARC
  8
DETAIL
  6
CONTINUOUS
 62
     5
 10
72.101551480959202
 20
-189.24866742512151
 30
0.0
 40
9.3131170662904648
 50
0.0
 51
80.293859942794271
  0
LINE
  8
DETAIL
  6
CONTINUOUS
 62
     5
 10
71.553467510995688
 20
-177.95063469705221
 30
0.0
 11
73.671696553187729
 21
-180.06886383612601
 31
0.0
  0
LINE
  8
DETAIL
  6
CONTINUOUS
 62
     5
 10
81.414668547249789
 20
-220.0572485932596
 30
0.0
 11
82.416078984781507
 21
-221.05865903079169
 31
0.0
  0
ENDSEC
  0
EOF
