  0
SECTION
  2
HEADER
  9
$ACADVER
  1
AC1009
  9
$DWGCODEPAGE
  3
dos932
  9
$INSBASE
 10
0.0
 20
0.0
 30
0.0
  9
$EXTMIN
 10
-495.785505750433
 20
-490.9057500666313
 30
-0.0030518622057798
  9
$EXTMAX
 10
1016.49628841143
 20
746.6125570314616
 30
100.014103207793
  9
$LIMMIN
 10
-2970.0
 20
-2100.0
  9
$LIMMAX
 10
2970.0
 20
2100.0
  9
$ORTHOMODE
 70
     0
  9
$REGENMODE
 70
     1
  9
$FILLMODE
 70
     1
  9
$QTEXTMODE
 70
     0
  9
$MIRRTEXT
 70
     0
  9
$DRAGMODE
 70
     2
  9
$LTSCALE
 40
20.0
  9
$OSMODE
 70
    37
  9
$ATTMODE
 70
     1
  9
$TEXTSIZE
 40
64.0
  9
$TRACEWID
 40
0.05
  9
$TEXTSTYLE
  7
STANDARD
  9
$CLAYER
  8
0
  9
$CELTYPE
  6
CONTINUOUS
  9
$CECOLOR
 62
     7
  9
$DIMSCALE
 40
1.0
  9
$DIMASZ
 40
12.0
  9
$DIMEXO
 40
20.0
  9
$DIMDLI
 40
200.0
  9
$DIMRND
 40
0.0
  9
$DIMDLE
 40
0.0
  9
$DIMEXE
 40
20.0
  9
$DIMTP
 40
0.0
  9
$DIMTM
 40
0.0
  9
$DIMTXT
 40
64.0
  9
$DIMCEN
 40
0.09
  9
$DIMTSZ
 40
0.0
  9
$DIMTOL
 70
     0
  9
$DIMLIM
 70
     0
  9
$DIMTIH
 70
     0
  9
$DIMTOH
 70
     0
  9
$DIMSE1
 70
     0
  9
$DIMSE2
 70
     0
  9
$DIMTAD
 70
     1
  9
$DIMZIN
 70
     8
  9
$DIMBLK
  1

  9
$DIMASO
 70
     1
  9
$DIMSHO
 70
     0
  9
$DIMPOST
  1

  9
$DIMAPOST
  1

  9
$DIMALT
 70
     0
  9
$DIMALTD
 70
     2
  9
$DIMALTF
 40
25.4
  9
$DIMLFAC
 40
1.0
  9
$DIMTOFL
 70
     1
  9
$DIMTVP
 40
0.0
  9
$DIMTIX
 70
     1
  9
$DIMSOXD
 70
     0
  9
$DIMSAH
 70
     0
  9
$DIMBLK1
  1

  9
$DIMBLK2
  1

  9
$DIMSTYLE
  2
STANDARD
  9
$DIMCLRD
 70
     7
  9
$DIMCLRE
 70
     7
  9
$DIMCLRT
 70
     7
  9
$DIMTFAC
 40
1.0
  9
$DIMGAP
 40
25.0
  9
$LUNITS
 70
     2
  9
$LUPREC
 70
     4
  9
$SKETCHINC
 40
0.1
  9
$FILLETRAD
 40
3.0
  9
$AUNITS
 70
     1
  9
$AUPREC
 70
     3
  9
$MENU
  1
ACAD
  9
$ELEVATION
 40
0.0
  9
$PELEVATION
 40
0.0
  9
$THICKNESS
 40
50.0
  9
$LIMCHECK
 70
     0
  9
$CHAMFERA
 40
0.0
  9
$CHAMFERB
 40
0.0
  9
$SKPOLY
 70
     0
  9
$TDCREATE
 40
2453019.623010359
  9
$TDUPDATE
 40
2457485.558557627
  9
$TDINDWG
 40
2.9577936343
  9
$TDUSRTIMER
 40
2.9577936343
  9
$USRTIMER
 70
     1
  9
$ANGBASE
 50
0.0
  9
$ANGDIR
 70
     0
  9
$PDMODE
 70
     3
  9
$PDSIZE
 40
-2.0
  9
$PLINEWID
 40
0.0
  9
$COORDS
 70
     1
  9
$SPLFRAME
 70
     0
  9
$SPLINETYPE
 70
     6
  9
$SPLINESEGS
 70
     8
  9
$ATTDIA
 70
     0
  9
$ATTREQ
 70
     1
  9
$HANDLING
 70
     1
  9
$HANDSEED
  5
3CCCAA
  9
$SURFTAB1
 70
     6
  9
$SURFTAB2
 70
     6
  9
$SURFTYPE
 70
     6
  9
$SURFU
 70
     6
  9
$SURFV
 70
     6
  9
$UCSNAME
  2

  9
$UCSORG
 10
0.0
 20
0.0
 30
0.0
  9
$UCSXDIR
 10
1.0
 20
0.0
 30
0.0
  9
$UCSYDIR
 10
0.0
 20
1.0
 30
0.0
  9
$PUCSNAME
  2

  9
$PUCSORG
 10
0.0
 20
0.0
 30
0.0
  9
$PUCSXDIR
 10
1.0
 20
0.0
 30
0.0
  9
$PUCSYDIR
 10
0.0
 20
1.0
 30
0.0
  9
$USERI1
 70
     0
  9
$USERI2
 70
     0
  9
$USERI3
 70
     0
  9
$USERI4
 70
     0
  9
$USERI5
 70
     0
  9
$USERR1
 40
20.0
  9
$USERR2
 40
0.0
  9
$USERR3
 40
0.0
  9
$USERR4
 40
0.0
  9
$USERR5
 40
0.0
  9
$WORLDVIEW
 70
     1
  9
$SHADEDGE
 70
     3
  9
$SHADEDIF
 70
    70
  9
$TILEMODE
 70
     1
  9
$MAXACTVP
 70
    48
  9
$PLIMCHECK
 70
     0
  9
$PEXTMIN
 10
-1.000000000000000E+20
 20
-1.000000000000000E+20
 30
-1.000000000000000E+20
  9
$PEXTMAX
 10
1.000000000000000E+20
 20
1.000000000000000E+20
 30
1.000000000000000E+20
  9
$PLIMMIN
 10
0.0
 20
0.0
  9
$PLIMMAX
 10
12.0
 20
9.0
  9
$UNITMODE
 70
     0
  9
$VISRETAIN
 70
     0
  9
$PLINEGEN
 70
     0
  9
$PSLTSCALE
 70
     0
  0
ENDSEC
  0
SECTION
  2
TABLES
  0
TABLE
  2
VPORT
 70
     1
  0
VPORT
  2
*ACTIVE
 70
     0
 10
0.0
 20
0.0
 11
1.0
 21
1.0
 12
260.3553913304988
 22
127.8534034824152
 13
0.0
 23
0.0
 14
1.0
 24
1.0
 15
0.0
 25
0.0
 16
0.0
 26
0.0
 36
1.0
 17
0.0
 27
0.0
 37
0.0
 40
1316.568646347681
 41
1.155907429963459
 42
50.0
 43
0.0
 44
0.0
 50
0.0
 51
0.0
 71
     0
 72
  1000
 73
     1
 74
     0
 75
     0
 76
     0
 77
     0
 78
     0
  0
ENDTAB
  0
TABLE
  2
LTYPE
 70
     2
  0
LTYPE
  2
CONTINUOUS
 70
     0
  3
実線
 72
    65
 73
     0
 40
0.0
  0
LTYPE
  2
DASHDOT
 70
     0
  3
____ _ ____ _ ____ _ ____ _ ____ _ ____ _ ____
 72
    65
 73
     4
 40
5.5
 49
4.0
 49
-0.6
 49
0.3
 49
-0.6
  0
ENDTAB
  0
TABLE
  2
LAYER
 70
    12
  0
LAYER
  2
0
 70
     0
 62
     7
  6
CONTINUOUS
  0
LAYER
  2
BASIS
 70
     0
 62
     6
  6
DASHDOT
  0
LAYER
  2
OUTLINE
 70
     0
 62
     3
  6
CONTINUOUS
  0
LAYER
  2
DETAIL
 70
     0
 62
     5
  6
CONTINUOUS
  0
LAYER
  2
SIZE
 70
     0
 62
    30
  6
CONTINUOUS
  0
LAYER
  2
ARRANGE
 70
     0
 62
     1
  6
CONTINUOUS
  0
LAYER
  2
DEFPOINTS
 70
     0
 62
     7
  6
CONTINUOUS
  0
LAYER
  2
ETC
 70
     0
 62
    61
  6
CONTINUOUS
  0
LAYER
  2
FIX
 70
     0
 62
    11
  6
CONTINUOUS
  0
LAYER
  2
NOTE
 70
     0
 62
     4
  6
CONTINUOUS
  0
LAYER
  2
SERVICESPACE
 70
     0
 62
     2
  6
DASHDOT
  0
LAYER
  2
SYMBOLLINE
 70
     0
 62
    15
  6
CONTINUOUS
  0
ENDTAB
  0
TABLE
  2
STYLE
 70
     1
  0
STYLE
  2
STANDARD
 70
     0
 40
64.0
 41
0.9
 50
0.0
 71
     0
 42
64.0
  3
SIMPLEX.shx
  4
BIGFONT.shx
  0
ENDTAB
  0
TABLE
  2
VIEW
 70
     1
  0
VIEW
  2
ALL
 70
     0
 40
4282.619807999999
 10
0.0
 20
41.309904
 41
5940.0
 11
0.0
 21
0.0
 31
1.0
 12
0.0
 22
0.0
 32
0.0
 42
50.0
 43
0.0
 44
0.0
 50
0.0
 71
     0
  0
ENDTAB
  0
TABLE
  2
UCS
 70
     0
  0
ENDTAB
  0
TABLE
  2
APPID
 70
    15
  0
APPID
  2
ACAD
 70
     0
  0
APPID
  2
AUTOCAD_POSTSCRIPT_FIGURE
 70
     0
  0
APPID
  2
ACAD_EXEMPT_FROM_CAD_STAND
 70
     0
  0
APPID
  2
ACAD_PSEXT
 70
     0
  0
APPID
  2
ACAUTHENVIRON
 70
     0
  0
APPID
  2
GENIUS_GENOENT_13
 70
     0
  0
APPID
  2
GENIUS_GENCFG_13
 70
     0
  0
APPID
  2
GENIUS_GENCFG0_13
 70
     0
  0
APPID
  2
GENIUS_GENCFG1_13
 70
     0
  0
APPID
  2
GENIUS_GENCFG2_13
 70
     0
  0
APPID
  2
GENIUS_GENCFG3_13
 70
     0
  0
APPID
  2
GENIUS_GENCFG4_13
 70
     0
  0
APPID
  2
GENIUS_GEVCFG0_13
 70
     0
  0
APPID
  2
CONTENTBLOCKICON
 70
     0
  0
APPID
  2
CONTENTBLOCKDESCRIPTION
 70
     0
  0
ENDTAB
  0
TABLE
  2
DIMSTYLE
 70
     1
  0
DIMSTYLE
  2
STANDARD
 70
     0
  3

  4

  5
ORIGIN
  6

  7

 40
1.0
 41
12.0
 42
20.0
 43
200.0
 44
20.0
 45
0.0
 46
0.0
 47
0.0
 48
0.0
140
64.0
141
0.09
142
0.0
143
25.4
144
1.0
145
0.0
146
1.0
147
25.0
 71
     0
 72
     0
 73
     0
 74
     0
 75
     0
 76
     0
 77
     1
 78
     8
170
     0
171
     2
172
     1
173
     0
174
     1
175
     0
176
     7
177
     7
178
     7
  0
ENDTAB
  0
ENDSEC
  0
SECTION
  2
BLOCKS
  0
BLOCK
  8
0
  2
$MODEL_SPACE
 70
     0
 10
0.0
 20
0.0
 30
0.0
  3
$MODEL_SPACE
  1

  0
ENDBLK
  5
3CCC82
  8
0
  0
BLOCK
 67
     1
  8
0
  2
$PAPER_SPACE
 70
     0
 10
0.0
 20
0.0
 30
0.0
  3
$PAPER_SPACE
  1

  0
ENDBLK
  5
3CCC84
 67
     1
  8
0
  0
BLOCK
  8
0
  2
_ORIGIN
 70
     0
 10
0.0
 20
0.0
 30
0.0
  3
_ORIGIN
  1

  0
CIRCLE
  5
3CCAB9
  8
0
  6
CONTINUOUS
 62
     7
 10
0.0
 20
0.0
 30
0.0
 40
0.5
  0
LINE
  5
3CCABA
  8
0
  6
CONTINUOUS
 62
     7
 10
0.0
 20
0.0
 30
0.0
 11
-1.0
 21
0.0
 31
0.0
  0
ENDBLK
  5
3CCABB
  8
0
  0
ENDSEC
  0
SECTION
  2
ENTITIES
  0
POINT
  5
3CCABC
  8
ARRANGE
  6
CONTINUOUS
 62
     1
 39
50.0
 10
-0.1298786489767281
 20
0.3318794186411651
 30
0.0
  0
CIRCLE
  5
3CCABD
  8
ARRANGE
  6
CONTINUOUS
 62
     1
 10
0.0
 20
0.0
 30
0.0
 40
39.99999999999999
  0
TEXT
  5
3CCABE
  8
ETC
  6
CONTINUOUS
 62
    61
 10
393.5407076780349
 20
682.8384203121811
 30
0.0
 40
64.0
  1
EWG-60FTA_4
 41
0.9
  0
TEXT
  5
3CCABF
  8
ETC
  6
CONTINUOUS
 62
    61
 10
389.3547136780346
 20
564.88311029735
 30
0.0
 40
64.0
  1
産業扇
 41
0.9
  0
TEXT
  5
3CCAC0
  8
NOTE
  6
CONTINUOUS
 62
     4
 10
111.0790630754721
 20
-469.0507228485105
 30
0.0
 40
64.0
  1
4-φ14
 41
0.9
  0
LINE
  5
3CCAC1
  8
SIZE
  6
CONTINUOUS
 62
    30
 10
-10.14398302162818
 20
368.7225705334791
 30
0.0
 11
-10.14398302162818
 21
455.3263422691261
 31
0.0
  0
LINE
  5
3CCAC2
  8
SIZE
  6
CONTINUOUS
 62
    30
 10
-0.1298786489768418
 20
373.8297637633805
 30
0.0
 11
-0.1298786489768418
 21
455.3263422691261
 31
0.0
  0
LINE
  5
3CCAC3
  8
SIZE
  6
CONTINUOUS
 62
    30
 10
-22.14398302162818
 20
435.3263422691261
 30
0.0
 11
-34.14398302162818
 21
435.3263422691261
 31
0.0
  0
LINE
  5
3CCAC4
  8
SIZE
  6
CONTINUOUS
 62
    30
 10
11.87012135102316
 20
435.3263422691261
 30
0.0
 11
157.2095544719467
 21
435.3263422691261
 31
0.0
  0
LINE
  5
3CCAC5
  8
SIZE
  6
CONTINUOUS
 62
    30
 10
-10.14398302162818
 20
435.3263422691261
 30
0.0
 11
-0.1298786489768418
 21
435.3263422691261
 31
0.0
  0
CIRCLE
  5
3CCAC6
  8
SIZE
  6
CONTINUOUS
 62
    30
 10
-10.14398302162818
 20
435.3263422691261
 30
0.0
 40
6.0
  0
LINE
  5
3CCAC7
  8
SIZE
  6
CONTINUOUS
 62
    30
 10
-10.14398302162818
 20
435.3263422691261
 30
0.0
 11
-22.14398302162818
 21
435.3263422691261
 31
0.0
  0
CIRCLE
  5
3CCAC8
  8
SIZE
  6
CONTINUOUS
 62
    30
 10
-0.1298786489768418
 20
435.3263422691261
 30
0.0
 40
6.0
  0
LINE
  5
3CCAC9
  8
SIZE
  6
CONTINUOUS
 62
    30
 10
-0.1298786489768418
 20
435.3263422691261
 30
0.0
 11
11.87012135102316
 21
435.3263422691261
 31
0.0
  0
TEXT
  5
3CCACA
  8
SIZE
  6
CONTINUOUS
 62
    30
 10
32.09526875766092
 20
460.3263422691261
 30
0.0
 40
64.0
  1
10
 41
0.9
 72
     1
 11
91.0666973290895
 21
460.3263422691261
 31
0.0
  0
POINT
  5
3CCACB
  8
DEFPOINTS
  6
CONTINUOUS
 62
    30
 10
-10.14398302162818
 20
348.7225705334791
 30
0.0
  0
POINT
  5
3CCACC
  8
DEFPOINTS
  6
CONTINUOUS
 62
    30
 10
-0.1298786489768418
 20
353.8297637633806
 30
0.0
  0
POINT
  5
3CCACD
  8
DEFPOINTS
  6
CONTINUOUS
 62
    30
 10
-0.1298786489768418
 20
435.3263422691261
 30
0.0
  0
LINE
  5
3CCACE
  8
SIZE
  6
CONTINUOUS
 62
    30
 10
-20.15808739427985
 20
358.7084661608274
 30
0.0
 11
-20.15808739427985
 21
455.3263422691261
 31
0.0
  0
LINE
  5
3CCACF
  8
SIZE
  6
CONTINUOUS
 62
    30
 10
-10.14398302162818
 20
368.7225705334791
 30
0.0
 11
-10.14398302162818
 21
455.3263422691261
 31
0.0
  0
LINE
  5
3CCAD0
  8
SIZE
  6
CONTINUOUS
 62
    30
 10
1.856016978371827
 20
435.3263422691261
 30
0.0
 11
13.85601697837182
 21
435.3263422691261
 31
0.0
  0
LINE
  5
3CCAD1
  8
SIZE
  6
CONTINUOUS
 62
    30
 10
-32.15808739427985
 20
435.3263422691261
 30
0.0
 11
-234.661243903638
 21
435.3263422691261
 31
0.0
  0
LINE
  5
3CCAD2
  8
SIZE
  6
CONTINUOUS
 62
    30
 10
-10.14398302162818
 20
435.3263422691261
 30
0.0
 11
-20.15808739427985
 21
435.3263422691261
 31
0.0
  0
CIRCLE
  5
3CCAD3
  8
SIZE
  6
CONTINUOUS
 62
    30
 10
-10.14398302162818
 20
435.3263422691261
 30
0.0
 40
6.0
  0
LINE
  5
3CCAD4
  8
SIZE
  6
CONTINUOUS
 62
    30
 10
-10.14398302162818
 20
435.3263422691261
 30
0.0
 11
1.856016978371827
 21
435.3263422691261
 31
0.0
  0
CIRCLE
  5
3CCAD5
  8
SIZE
  6
CONTINUOUS
 62
    30
 10
-20.15808739427985
 20
435.3263422691261
 30
0.0
 40
6.0
  0
LINE
  5
3CCAD6
  8
SIZE
  6
CONTINUOUS
 62
    30
 10
-20.15808739427985
 20
435.3263422691261
 30
0.0
 11
-32.15808739427985
 21
435.3263422691261
 31
0.0
  0
TEXT
  5
3CCAD7
  8
SIZE
  6
CONTINUOUS
 62
    30
 10
-227.4898153322095
 20
460.3263422691261
 30
0.0
 40
64.0
  1
10
 41
0.9
 72
     1
 11
-168.5183867607809
 21
460.3263422691261
 31
0.0
  0
POINT
  5
3CCAD8
  8
DEFPOINTS
  6
CONTINUOUS
 62
    30
 10
-20.15808739427985
 20
338.7084661608274
 30
0.0
  0
POINT
  5
3CCAD9
  8
DEFPOINTS
  6
CONTINUOUS
 62
    30
 10
-10.14398302162818
 20
348.7225705334791
 30
0.0
  0
POINT
  5
3CCADA
  8
DEFPOINTS
  6
CONTINUOUS
 62
    30
 10
-10.14398302162818
 20
435.3263422691261
 30
0.0
  0
LINE
  5
3CCADB
  8
SIZE
  6
CONTINUOUS
 62
    30
 10
18.37012135102304
 20
355.3318779293348
 30
0.0
 11
352.0055777664651
 21
355.3318779293348
 31
0.0
  0
LINE
  5
3CCADC
  8
SIZE
  6
CONTINUOUS
 62
    30
 10
18.36769808769531
 20
-354.6681205495663
 30
0.0
 11
352.005577766465
 21
-354.6681205495663
 31
0.0
  0
LINE
  5
3CCADD
  8
SIZE
  6
CONTINUOUS
 62
    30
 10
332.0055777664651
 20
343.3318779293348
 30
0.0
 11
332.005577766465
 21
-342.6681205495663
 31
0.0
  0
CIRCLE
  5
3CCADE
  8
SIZE
  6
CONTINUOUS
 62
    30
 10
332.0055777664651
 20
355.3318779293348
 30
0.0
 40
6.0
  0
LINE
  5
3CCADF
  8
SIZE
  6
CONTINUOUS
 62
    30
 10
332.0055777664651
 20
355.3318779293348
 30
0.0
 11
332.0055777664651
 21
343.3318779293348
 31
0.0
  0
CIRCLE
  5
3CCAE0
  8
SIZE
  6
CONTINUOUS
 62
    30
 10
332.005577766465
 20
-354.6681205495663
 30
0.0
 40
6.0
  0
LINE
  5
3CCAE1
  8
SIZE
  6
CONTINUOUS
 62
    30
 10
332.005577766465
 20
-354.6681205495663
 30
0.0
 11
332.005577766465
 21
-342.6681205495663
 31
0.0
  0
TEXT
  5
3CCAE2
  8
SIZE
  6
CONTINUOUS
 62
    30
 10
307.0055777664651
 20
-88.7564583256263
 30
0.0
 40
64.0
  1
710
 50
90.0
 41
0.9
 72
     1
 11
307.0055777664651
 21
-6.470744039912006
 31
0.0
  0
POINT
  5
3CCAE3
  8
DEFPOINTS
  6
CONTINUOUS
 62
    30
 10
-1.629878648976955
 20
355.3318779293348
 30
0.0
  0
POINT
  5
3CCAE4
  8
DEFPOINTS
  6
CONTINUOUS
 62
    30
 10
-1.632301912304683
 20
-354.6681205495663
 30
0.0
  0
POINT
  5
3CCAE5
  8
DEFPOINTS
  6
CONTINUOUS
 62
    30
 10
332.005577766465
 20
-354.6681205495663
 30
0.0
  0
LINE
  5
3CCAE6
  8
SIZE
  6
CONTINUOUS
 62
    30
 10
44.80712794297222
 20
325.7902715204891
 30
0.0
 11
224.6739677243085
 21
325.7902715204889
 31
0.0
  0
LINE
  5
3CCAE7
  8
SIZE
  6
CONTINUOUS
 62
    30
 10
44.80712794297222
 20
-325.1265126832066
 30
0.0
 11
224.6739677243083
 21
-325.1265126832067
 31
0.0
  0
LINE
  5
3CCAE8
  8
SIZE
  6
CONTINUOUS
 62
    30
 10
204.6739677243085
 20
313.7902715204889
 30
0.0
 11
204.6739677243084
 21
-313.1265126832067
 31
0.0
  0
CIRCLE
  5
3CCAE9
  8
SIZE
  6
CONTINUOUS
 62
    30
 10
204.6739677243085
 20
325.7902715204889
 30
0.0
 40
6.0
  0
LINE
  5
3CCAEA
  8
SIZE
  6
CONTINUOUS
 62
    30
 10
204.6739677243085
 20
325.7902715204889
 30
0.0
 11
204.6739677243085
 21
313.7902715204889
 31
0.0
  0
CIRCLE
  5
3CCAEB
  8
SIZE
  6
CONTINUOUS
 62
    30
 10
204.6739677243083
 20
-325.1265126832067
 30
0.0
 40
6.0
  0
LINE
  5
3CCAEC
  8
SIZE
  6
CONTINUOUS
 62
    30
 10
204.6739677243083
 20
-325.1265126832067
 30
0.0
 11
204.6739677243083
 21
-313.1265126832067
 31
0.0
  0
TEXT
  5
3CCAED
  8
SIZE
  6
CONTINUOUS
 62
    30
 10
179.6739677243084
 20
-83.3252634385017
 30
0.0
 40
64.0
  1
650
 50
90.0
 41
0.9
 72
     1
 11
179.6739677243084
 21
0.3318794186411651
 31
0.0
  0
POINT
  5
3CCAEE
  8
DEFPOINTS
  6
CONTINUOUS
 62
    30
 10
24.80712794297221
 20
325.7902715204891
 30
0.0
  0
POINT
  5
3CCAEF
  8
DEFPOINTS
  6
CONTINUOUS
 62
    30
 10
24.80712794297221
 20
-325.1265126832066
 30
0.0
  0
POINT
  5
3CCAF0
  8
DEFPOINTS
  6
CONTINUOUS
 62
    30
 10
204.6739677243083
 20
-325.1265126832067
 30
0.0
  0
CIRCLE
  5
3CCAF1
  8
FIX
  6
CONTINUOUS
 62
    11
 39
50.0
 10
-0.1298786489768418
 20
-325.1265126832063
 30
0.0
 40
7.0
  0
CIRCLE
  5
3CCAF2
  8
FIX
  6
CONTINUOUS
 62
    11
 39
50.0
 10
-0.1298786489767281
 20
325.7902715204891
 30
0.0
 40
7.0
  0
LINE
  5
3CCAF3
  8
SIZE
  6
CONTINUOUS
 62
    30
 10
-0.1298786489768418
 20
373.8297637633805
 30
0.0
 11
-0.1298786489768418
 21
590.237389231791
 31
0.0
  0
LINE
  5
3CCAF4
  8
SIZE
  6
CONTINUOUS
 62
    30
 10
-119.532429520927
 20
370.3408497997555
 30
0.0
 11
-119.532429520927
 21
590.237389231791
 31
0.0
  0
LINE
  5
3CCAF5
  8
SIZE
  6
CONTINUOUS
 62
    30
 10
-107.532429520927
 20
570.237389231791
 30
0.0
 11
-12.12987864897684
 21
570.237389231791
 31
0.0
  0
LINE
  5
3CCAF6
  8
SIZE
  6
CONTINUOUS
 62
    30
 10
-0.1298786489768418
 20
570.237389231791
 30
0.0
 11
193.2095544719466
 21
570.237389231791
 31
0.0
  0
CIRCLE
  5
3CCAF7
  8
SIZE
  6
CONTINUOUS
 62
    30
 10
-119.532429520927
 20
570.237389231791
 30
0.0
 40
6.0
  0
LINE
  5
3CCAF8
  8
SIZE
  6
CONTINUOUS
 62
    30
 10
-119.532429520927
 20
570.237389231791
 30
0.0
 11
-107.532429520927
 21
570.237389231791
 31
0.0
  0
CIRCLE
  5
3CCAF9
  8
SIZE
  6
CONTINUOUS
 62
    30
 10
-0.1298786489768418
 20
570.237389231791
 30
0.0
 40
6.0
  0
LINE
  5
3CCAFA
  8
SIZE
  6
CONTINUOUS
 62
    30
 10
-0.1298786489768418
 20
570.237389231791
 30
0.0
 11
-12.12987864897684
 21
570.237389231791
 31
0.0
  0
TEXT
  5
3CCAFB
  8
SIZE
  6
CONTINUOUS
 62
    30
 10
21.46669732908953
 20
595.237389231791
 30
0.0
 40
64.0
  1
119
 41
0.9
 72
     1
 11
106.495268757661
 21
595.237389231791
 31
0.0
  0
POINT
  5
3CCAFC
  8
DEFPOINTS
  6
CONTINUOUS
 62
    30
 10
-0.1298786489768418
 20
353.8297637633806
 30
0.0
  0
POINT
  5
3CCAFD
  8
DEFPOINTS
  6
CONTINUOUS
 62
    30
 10
-119.532429520927
 20
350.3408497997555
 30
0.0
  0
POINT
  5
3CCAFE
  8
DEFPOINTS
  6
CONTINUOUS
 62
    30
 10
-119.532429520927
 20
570.237389231791
 30
0.0
  0
LINE
  5
3CCAFF
  8
SIZE
  6
CONTINUOUS
 62
    30
 10
-0.1298786489768418
 20
373.8297637633805
 30
0.0
 11
-0.1298786489768418
 21
670.4184950829281
 31
0.0
  0
LINE
  5
3CCB00
  8
SIZE
  6
CONTINUOUS
 62
    30
 10
-347.8186711267682
 20
-23.17068289907229
 30
0.0
 11
-347.8186711267682
 21
670.4184950829281
 31
0.0
  0
LINE
  5
3CCB01
  8
SIZE
  6
CONTINUOUS
 62
    30
 10
-12.12987864897684
 20
650.4184950829281
 30
0.0
 11
-335.8186711267682
 21
650.4184950829281
 31
0.0
  0
CIRCLE
  5
3CCB02
  8
SIZE
  6
CONTINUOUS
 62
    30
 10
-0.1298786489768418
 20
650.4184950829281
 30
0.0
 40
6.0
  0
LINE
  5
3CCB03
  8
SIZE
  6
CONTINUOUS
 62
    30
 10
-0.1298786489768418
 20
650.4184950829281
 30
0.0
 11
-12.12987864897684
 21
650.4184950829281
 31
0.0
  0
CIRCLE
  5
3CCB04
  8
SIZE
  6
CONTINUOUS
 62
    30
 10
-347.8186711267682
 20
650.4184950829281
 30
0.0
 40
6.0
  0
LINE
  5
3CCB05
  8
SIZE
  6
CONTINUOUS
 62
    30
 10
-347.8186711267682
 20
650.4184950829281
 30
0.0
 11
-335.8186711267682
 21
650.4184950829281
 31
0.0
  0
TEXT
  5
3CCB06
  8
SIZE
  6
CONTINUOUS
 62
    30
 10
-256.2599891735868
 20
675.4184950829281
 30
0.0
 40
64.0
  1
347
 41
0.9
 72
     1
 11
-173.9742748878725
 21
675.4184950829281
 31
0.0
  0
POINT
  5
3CCB07
  8
DEFPOINTS
  6
CONTINUOUS
 62
    30
 10
-0.1298786489768418
 20
353.8297637633806
 30
0.0
  0
POINT
  5
3CCB08
  8
DEFPOINTS
  6
CONTINUOUS
 62
    30
 10
-347.8186711267682
 20
-43.17068289907228
 30
0.0
  0
POINT
  5
3CCB09
  8
DEFPOINTS
  6
CONTINUOUS
 62
    30
 10
-347.8186711267682
 20
650.4184950829281
 30
0.0
  0
TEXT
  5
3CCB0A
  8
NOTE
  6
CONTINUOUS
 62
     4
 10
-379.0026062322118
 20
-438.1215460938805
 30
0.0
 40
64.0
  1
EL
 41
0.9
 72
     2
 11
-283.0026062322118
 21
-438.1215460938805
 31
0.0
  0
LINE
  5
3CCB0B
  8
SIZE
  6
CONTINUOUS
 62
    30
 10
-354.0065590093479
 20
81.61495063440043
 30
0.0
 11
-416.0975457500278
 21
81.61495063440043
 31
0.0
  0
LINE
  5
3CCB0C
  8
SIZE
  6
CONTINUOUS
 62
    30
 10
-354.0065590093479
 20
-81.61495063440049
 30
0.0
 11
-416.0975457500278
 21
-81.61495063440049
 31
0.0
  0
LINE
  5
3CCB0D
  8
SIZE
  6
CONTINUOUS
 62
    30
 10
-396.0975457500278
 20
69.61495063440043
 30
0.0
 11
-396.0975457500278
 21
-69.61495063440049
 31
0.0
  0
CIRCLE
  5
3CCB0E
  8
SIZE
  6
CONTINUOUS
 62
    30
 10
-396.0975457500278
 20
81.61495063440043
 30
0.0
 40
6.0
  0
LINE
  5
3CCB0F
  8
SIZE
  6
CONTINUOUS
 62
    30
 10
-396.0975457500278
 20
81.61495063440043
 30
0.0
 11
-396.0975457500278
 21
69.61495063440043
 31
0.0
  0
CIRCLE
  5
3CCB10
  8
SIZE
  6
CONTINUOUS
 62
    30
 10
-396.0975457500278
 20
-81.61495063440049
 30
0.0
 40
6.0
  0
LINE
  5
3CCB11
  8
SIZE
  6
CONTINUOUS
 62
    30
 10
-396.0975457500278
 20
-81.61495063440049
 30
0.0
 11
-396.0975457500278
 21
-69.61495063440049
 31
0.0
  0
TEXT
  5
3CCB12
  8
SIZE
  6
CONTINUOUS
 62
    30
 10
-431.7642124166944
 20
-106.9714285714286
 30
0.0
 40
64.0
  1
φ163
 50
90.0
 41
0.9
 72
     1
 11
-431.7642124166944
 21
-0.0000000000000568
 31
0.0
  0
POINT
  5
3CCB13
  8
DEFPOINTS
  6
CONTINUOUS
 62
    30
 10
-334.0065590093479
 20
81.61495063440043
 30
0.0
  0
POINT
  5
3CCB14
  8
DEFPOINTS
  6
CONTINUOUS
 62
    30
 10
-334.0065590093479
 20
-81.61495063440054
 30
0.0
  0
POINT
  5
3CCB15
  8
DEFPOINTS
  6
CONTINUOUS
 62
    30
 10
-396.0975457500278
 20
-81.61495063440049
 30
0.0
  0
LINE
  5
3CCB16
  8
DETAIL
  6
CONTINUOUS
 62
     4
 10
-124.3442071250587
 20
-309.9536271605101
 30
0.0
 11
-119.2921411703074
 21
-306.33958110673
 31
0.0
  0
LINE
  5
3CCB17
  8
DETAIL
  6
CONTINUOUS
 62
     4
 10
-119.2921411703074
 20
-306.33958110673
 30
0.0
 11
-121.8603270787176
 21
-311.9954736472442
 31
0.0
  0
LINE
  5
3CCB18
  8
DETAIL
  6
CONTINUOUS
 62
     4
 10
-119.2921411703074
 20
-306.33958110673
 30
0.0
 11
-126.9123930334689
 21
-315.6095197010242
 31
0.0
  0
LINE
  5
3CCB19
  8
NOTE
  6
CONTINUOUS
 62
     4
 10
-126.9123930334689
 20
-315.6095197010242
 30
0.0
 11
-248.6533917614461
 21
-463.7058822467345
 31
0.0
  0
LINE
  5
3CCB1A
  8
NOTE
  6
CONTINUOUS
 62
     4
 10
-248.6533917614461
 20
-463.7058822467345
 30
0.0
 11
-383.8208831731116
 21
-463.8104639711769
 31
0.0
  0
LINE
  5
3CCB1B
  8
DETAIL
  6
CONTINUOUS
 62
     4
 10
1.816754201643676
 20
-331.0252684702245
 30
0.0
 11
-0.1298786489770692
 21
-325.126512683206
 31
0.0
  0
LINE
  5
3CCB1C
  8
DETAIL
  6
CONTINUOUS
 62
     4
 10
-0.1298786489770692
 20
-325.126512683206
 30
0.0
 11
4.505338976453118
 21
-329.2616616351667
 31
0.0
  0
LINE
  5
3CCB1D
  8
DETAIL
  6
CONTINUOUS
 62
     4
 10
-0.1298786489770692
 20
-325.126512683206
 30
0.0
 11
6.451971827073919
 21
-335.1604174221852
 31
0.0
  0
LINE
  5
3CCB1E
  8
NOTE
  6
CONTINUOUS
 62
     4
 10
6.451971827073919
 20
-335.1604174221852
 30
0.0
 11
103.7478561197362
 21
-483.4861258288961
 31
0.0
  0
LINE
  5
3CCB1F
  8
NOTE
  6
CONTINUOUS
 62
     4
 10
103.7478561197362
 20
-483.4861258288961
 30
0.0
 11
393.8821525779094
 21
-483.0542919240352
 31
0.0
  0
LINE
  5
3CCB20
  8
NOTE
  6
CONTINUOUS
 62
     4
 10
24.80712794297221
 20
-325.1265126832066
 30
0.0
 11
-49.61863893516886
 21
-325.1265126832066
 31
0.0
  0
LINE
  5
3CCB21
  8
NOTE
  6
CONTINUOUS
 62
     4
 10
24.80712794297221
 20
325.7902715204891
 30
0.0
 11
-49.61863893516886
 21
325.7902715204891
 31
0.0
  0
LINE
  5
3CCB22
  8
DETAIL
  6
CONTINUOUS
 62
     5
 10
-3.134109960683645
 20
-351.9957686879972
 30
0.0
 11
-6.538905447580646
 21
-351.9957686879972
 31
0.0
  0
LINE
  5
3CCB23
  8
DETAIL
  6
CONTINUOUS
 62
     5
 10
-5.237071878878169
 20
-348.8258277617572
 30
0.0
 11
-3.134109960683645
 21
-348.8258277617572
 31
0.0
  0
LINE
  5
3CCB24
  8
DETAIL
  6
CONTINUOUS
 62
     5
 10
-13.57624005796365
 20
-342.0064921318934
 30
0.0
 11
-16.55300981934352
 21
-341.9816643162342
 31
0.0
  0
LINE
  5
3CCB25
  8
DETAIL
  6
CONTINUOUS
 62
     5
 10
-20.15808739339173
 20
-336.9746121294637
 30
0.0
 11
-20.65879261260193
 21
-336.9746121294637
 31
0.0
  0
LINE
  5
3CCB26
  8
DETAIL
  6
CONTINUOUS
 62
     5
 10
-14.65032998918855
 20
-312.1212269619182
 30
0.0
 11
-18.20875987439672
 21
-312.1212269619182
 31
0.0
  0
LINE
  5
3CCB27
  8
DETAIL
  6
CONTINUOUS
 62
     5
 10
-14.65032998918855
 20
-309.2304040338797
 30
0.0
 11
-18.20875987439672
 21
-309.2304040338797
 31
0.0
  0
LINE
  5
3CCB28
  8
DETAIL
  6
CONTINUOUS
 62
     5
 10
-14.65032998918855
 20
-306.33958110673
 30
0.0
 11
-201.413376533321
 21
-306.33958110673
 31
0.0
  0
LINE
  5
3CCB29
  8
DETAIL
  6
CONTINUOUS
 62
     5
 10
-201.413376533321
 20
-302.0909564410495
 30
0.0
 11
-14.65032998918855
 21
-302.0909564410495
 31
0.0
  0
LINE
  5
3CCB2A
  8
DETAIL
  6
CONTINUOUS
 62
     5
 10
-5.237071878878169
 20
-299.2585399978551
 30
0.0
 11
-3.134109960683645
 21
-299.2585399978551
 31
0.0
  0
LINE
  5
3CCB2B
  8
DETAIL
  6
CONTINUOUS
 62
     5
 10
-6.538905447580646
 20
-287.9288742224109
 30
0.0
 11
-3.134109960683645
 21
-287.9288742224109
 31
0.0
  0
LINE
  5
3CCB2C
  8
DETAIL
  6
CONTINUOUS
 62
     5
 10
-14.65032998918855
 20
-275.1830002262583
 30
0.0
 11
-201.413376533321
 21
-275.1830002262583
 31
0.0
  0
LINE
  5
3CCB2D
  8
DETAIL
  6
CONTINUOUS
 62
     5
 10
-345.3160563640685
 20
71.55347121828811
 30
0.0
 11
-343.2219303923482
 21
73.64759720511847
 31
0.0
  0
LINE
  5
3CCB2E
  8
DETAIL
  6
CONTINUOUS
 62
     5
 10
-14.65032998918855
 20
-258.1885015644252
 30
0.0
 11
-10.1439830216284
 21
-258.1885015644252
 31
0.0
  0
LINE
  5
3CCB2F
  8
DETAIL
  6
CONTINUOUS
 62
     5
 10
-16.55300981934352
 20
-246.1507316781824
 30
0.0
 11
-13.14821433333532
 21
-246.1507316781824
 31
0.0
  0
LINE
  5
3CCB30
  8
DETAIL
  6
CONTINUOUS
 62
     5
 10
-345.8167615823902
 20
-38.48772171111489
 30
0.0
 11
-345.8167615823902
 21
-47.90097982142532
 31
0.0
  0
LINE
  5
3CCB31
  8
DETAIL
  6
CONTINUOUS
 62
     5
 10
-345.3160563640685
 20
-71.55347121917703
 30
0.0
 11
-345.3160563640685
 21
71.55347121828811
 31
0.0
  0
LINE
  5
3CCB32
  8
DETAIL
  6
CONTINUOUS
 62
     5
 10
-343.2219303923482
 20
-73.64759720511847
 30
0.0
 11
-343.2219303923482
 21
73.64759720511847
 31
0.0
  0
LINE
  5
3CCB33
  8
DETAIL
  6
CONTINUOUS
 62
     5
 10
-313.5713455039981
 20
-137.6939330669957
 30
0.0
 11
-313.5713455039981
 21
-129.4942144195633
 31
0.0
  0
LINE
  5
3CCB34
  8
DETAIL
  6
CONTINUOUS
 62
     5
 10
-313.5713455039981
 20
-129.4584759887749
 30
0.0
 11
-313.5713455039981
 21
137.6939245538219
 31
0.0
  0
LINE
  5
3CCB35
  8
DETAIL
  6
CONTINUOUS
 62
     5
 10
-345.3160563640685
 20
-71.55347121917703
 30
0.0
 11
-343.2219303923482
 21
-73.64759720511847
 31
0.0
  0
LINE
  5
3CCB36
  8
DETAIL
  6
CONTINUOUS
 62
     5
 10
-312.5699350664665
 20
-138.194640338505
 30
0.0
 11
-312.5699350664665
 21
-137.6939351201834
 31
0.0
  0
LINE
  5
3CCB37
  8
DETAIL
  6
CONTINUOUS
 62
     5
 10
-309.4032089084038
 20
229.8063043794352
 30
0.0
 11
-309.5657037547596
 21
-225.6157124614675
 31
0.0
  0
LINE
  5
3CCB38
  8
DETAIL
  6
CONTINUOUS
 62
     5
 10
-261.7722053668185
 20
60.82044459743282
 30
0.0
 11
-261.397861723434
 21
61.4688268064864
 31
0.0
  0
LINE
  5
3CCB39
  8
DETAIL
  6
CONTINUOUS
 62
     5
 10
-271.5121071401051
 20
-224.951953624185
 30
0.0
 11
-271.5121071401051
 21
225.6157124614674
 31
0.0
  0
LINE
  5
3CCB3A
  8
DETAIL
  6
CONTINUOUS
 62
     5
 10
-267.9070295660574
 20
105.6488011280535
 30
0.0
 11
-267.9070295660574
 21
-105.6488011280535
 31
0.0
  0
LINE
  5
3CCB3B
  8
DETAIL
  6
CONTINUOUS
 62
     5
 10
-261.397861723434
 20
74.48716248995584
 30
0.0
 11
-261.397861723434
 21
61.4688268064864
 31
0.0
  0
LINE
  5
3CCB3C
  8
DETAIL
  6
CONTINUOUS
 62
     5
 10
-261.397861723434
 20
-61.4688268064864
 30
0.0
 11
-261.397861723434
 21
-74.48716248995589
 31
0.0
  0
LINE
  5
3CCB3D
  8
DETAIL
  6
CONTINUOUS
 62
     5
 10
-259.6954639804295
 20
-71.23257856953296
 30
0.0
 11
-259.6954639804295
 21
-64.72341072690932
 31
0.0
  0
LINE
  5
3CCB3E
  8
DETAIL
  6
CONTINUOUS
 62
     5
 10
-259.6954639804295
 20
64.72341072690926
 30
0.0
 11
-259.6954639804295
 21
71.23257856953296
 31
0.0
  0
LINE
  5
3CCB3F
  8
DETAIL
  6
CONTINUOUS
 62
     5
 10
-309.5657037547596
 20
-138.194640338505
 30
0.0
 11
-312.5699350664665
 21
-138.194640338505
 31
0.0
  0
LINE
  5
3CCB40
  8
DETAIL
  6
CONTINUOUS
 62
     5
 10
-313.5713455039981
 20
-137.6939351201834
 30
0.0
 11
-309.5657037547596
 21
-137.6939351201834
 31
0.0
  0
LINE
  5
3CCB41
  8
DETAIL
  6
CONTINUOUS
 62
     5
 10
-261.7722053668185
 20
-60.82044459743282
 30
0.0
 11
-261.397861723434
 21
-61.4688268064864
 31
0.0
  0
LINE
  5
3CCB42
  8
DETAIL
  6
CONTINUOUS
 62
     5
 10
-227.8506120763393
 20
102.8482962858055
 30
0.0
 11
-227.8506120763393
 21
-102.8482838520209
 31
0.0
  0
LINE
  5
3CCB43
  8
DETAIL
  6
CONTINUOUS
 62
     5
 10
-261.9792371457845
 20
-75.49413426005464
 30
0.0
 11
-261.397861723434
 21
-74.48716248995589
 31
0.0
  0
LINE
  5
3CCB44
  8
DETAIL
  6
CONTINUOUS
 62
     5
 10
-267.9070295660574
 20
-102.8483640267774
 30
0.0
 11
-227.8506120763393
 21
-102.8483640267774
 31
0.0
  0
LINE
  5
3CCB45
  8
DETAIL
  6
CONTINUOUS
 62
     5
 10
-221.1885376797686
 20
82.4160789847815
 30
0.0
 11
-221.1885376797686
 21
-82.41607898478156
 31
0.0
  0
LINE
  5
3CCB46
  8
DETAIL
  6
CONTINUOUS
 62
     5
 10
-220.1871272422368
 20
81.41466854724968
 30
0.0
 11
-220.1871272422368
 21
-81.41466854724962
 31
0.0
  0
LINE
  5
3CCB47
  8
DETAIL
  6
CONTINUOUS
 62
     5
 10
-267.9070295660574
 20
-88.0901213280352
 30
0.0
 11
-227.8506120763393
 21
-88.0901213280352
 31
0.0
  0
LINE
  5
3CCB48
  8
DETAIL
  6
CONTINUOUS
 62
     5
 10
-227.8506120763393
 20
-82.41607898478156
 30
0.0
 11
-221.1885376797686
 21
-82.41607898478156
 31
0.0
  0
LINE
  5
3CCB49
  8
DETAIL
  6
CONTINUOUS
 62
     5
 10
-334.0065591533376
 20
-81.61495063440049
 30
0.0
 11
-313.5713455039981
 21
-81.61495063440049
 31
0.0
  0
LINE
  5
3CCB4A
  8
DETAIL
  6
CONTINUOUS
 62
     5
 10
-220.1871272422368
 20
-81.41466854724962
 30
0.0
 11
-189.3785460740985
 21
-81.41466854724962
 31
0.0
  0
LINE
  5
3CCB4B
  8
DETAIL
  6
CONTINUOUS
 62
     5
 10
-267.9070295660574
 20
-75.49413426005464
 30
0.0
 11
-261.9792371457845
 21
-75.49413426005464
 31
0.0
  0
LINE
  5
3CCB4C
  8
DETAIL
  6
CONTINUOUS
 62
     5
 10
-267.9070295660574
 20
-71.73606445458228
 30
0.0
 11
-261.9792371457845
 21
-71.73606445458228
 31
0.0
  0
LINE
  5
3CCB4D
  8
DETAIL
  6
CONTINUOUS
 62
     5
 10
-259.6954639804295
 20
-71.23257856953296
 30
0.0
 11
-261.397861723434
 21
-71.23257856953296
 31
0.0
  0
LINE
  5
3CCB4E
  8
DETAIL
  6
CONTINUOUS
 62
     5
 10
-259.6954639804295
 20
-65.15114039175529
 30
0.0
 11
-227.8506120763393
 21
-65.15114039175529
 31
0.0
  0
LINE
  5
3CCB4F
  8
DETAIL
  6
CONTINUOUS
 62
     5
 10
-259.6954639804295
 20
-64.72341072690932
 30
0.0
 11
-261.397861723434
 21
-64.72341072690932
 31
0.0
  0
LINE
  5
3CCB50
  8
DETAIL
  6
CONTINUOUS
 62
     5
 10
-267.9070295660574
 20
-64.21992484274881
 30
0.0
 11
-261.9792371457845
 21
-64.21992484274881
 31
0.0
  0
LINE
  5
3CCB51
  8
DETAIL
  6
CONTINUOUS
 62
     5
 10
-180.1987424851031
 20
73.67169655229884
 30
0.0
 11
-180.1987424851031
 21
-73.67169655229895
 31
0.0
  0
LINE
  5
3CCB52
  8
DETAIL
  6
CONTINUOUS
 62
     5
 10
-178.0805133460294
 20
71.55346751099569
 30
0.0
 11
-178.0805133460294
 21
-71.55346751099563
 31
0.0
  0
LINE
  5
3CCB53
  8
DETAIL
  6
CONTINUOUS
 62
     5
 10
-18.20875987439672
 20
280.9646460814466
 30
0.0
 11
-18.65597173753827
 21
280.1900524121399
 31
0.0
  0
LINE
  5
3CCB54
  8
DETAIL
  6
CONTINUOUS
 62
     5
 10
-148.9394733510992
 20
18.02539176329686
 30
0.0
 11
-147.9380632939846
 21
19.02680224349228
 31
0.0
  0
LINE
  5
3CCB55
  8
DETAIL
  6
CONTINUOUS
 62
     5
 10
-220.1871272422368
 20
-81.41466854724962
 30
0.0
 11
-221.1885376797686
 21
-82.41607898478156
 31
0.0
  0
LINE
  5
3CCB56
  8
DETAIL
  6
CONTINUOUS
 62
     5
 10
-267.9070295660574
 20
-60.82044459743282
 30
0.0
 11
-227.8506120763393
 21
-60.82044459743282
 31
0.0
  0
LINE
  5
3CCB57
  8
DETAIL
  6
CONTINUOUS
 62
     5
 10
-345.8167615823902
 20
-47.90097982142532
 30
0.0
 11
-345.3160563640685
 21
-47.90097982142532
 31
0.0
  0
LINE
  5
3CCB58
  8
DETAIL
  6
CONTINUOUS
 62
     5
 10
-267.9070295660574
 20
-40.81329848408046
 30
0.0
 11
-227.8506120763393
 21
-40.81329848408046
 31
0.0
  0
LINE
  5
3CCB59
  8
DETAIL
  6
CONTINUOUS
 62
     5
 10
-345.8167615823902
 20
-38.48772171111489
 30
0.0
 11
-345.3160563640685
 21
-38.48772171111489
 31
0.0
  0
LINE
  5
3CCB5A
  8
DETAIL
  6
CONTINUOUS
 62
     5
 10
-261.9792371457845
 20
75.49413426005458
 30
0.0
 11
-261.397861723434
 21
74.48716248995584
 31
0.0
  0
LINE
  5
3CCB5B
  8
DETAIL
  6
CONTINUOUS
 62
     5
 10
-18.20875987439672
 20
-312.1212269619182
 30
0.0
 11
-18.65597173753827
 21
-311.3466332926114
 31
0.0
  0
LINE
  5
3CCB5C
  8
DETAIL
  6
CONTINUOUS
 62
     5
 10
-163.5600620058173
 20
14.55124148471879
 30
0.0
 11
-164.0951538983822
 21
20.66736980409939
 31
0.0
  0
LINE
  5
3CCB5D
  8
DETAIL
  6
CONTINUOUS
 62
     5
 10
-163.5600620058173
 20
-14.55124148471885
 30
0.0
 11
-163.5600620058173
 21
14.55124148471879
 31
0.0
  0
LINE
  5
3CCB5E
  8
DETAIL
  6
CONTINUOUS
 62
     5
 10
-161.0565359124323
 20
-13.01833568435842
 30
0.0
 11
-161.0565359124323
 21
13.01833568435837
 31
0.0
  0
LINE
  5
3CCB5F
  8
DETAIL
  6
CONTINUOUS
 62
     5
 10
-151.4429957149711
 20
14.01974612100127
 30
0.0
 11
-151.4429957149711
 21
-14.01974612100133
 31
0.0
  0
LINE
  5
3CCB60
  8
DETAIL
  6
CONTINUOUS
 62
     5
 10
-148.9394696224749
 20
-18.02508163152124
 30
0.0
 11
-148.9394696224749
 21
18.02508163152118
 31
0.0
  0
LINE
  5
3CCB61
  8
DETAIL
  6
CONTINUOUS
 62
     5
 10
-147.9380603724144
 20
-19.02679821177844
 30
0.0
 11
-147.9380603724144
 21
19.02679821177838
 31
0.0
  0
LINE
  5
3CCB62
  8
DETAIL
  6
CONTINUOUS
 62
     5
 10
-141.9295965615299
 20
23.0322833730146
 30
0.0
 11
-141.9295965615299
 21
-23.03228337301476
 31
0.0
  0
LINE
  5
3CCB63
  8
DETAIL
  6
CONTINUOUS
 62
     5
 10
-163.5600620058173
 20
-14.55124148471885
 30
0.0
 11
-164.0951538983822
 21
-20.66736980409945
 31
0.0
  0
LINE
  5
3CCB64
  8
DETAIL
  6
CONTINUOUS
 62
     5
 10
-178.0805133460294
 20
-71.55346751099563
 30
0.0
 11
-180.1987424851031
 21
-73.67169655229895
 31
0.0
  0
LINE
  5
3CCB65
  8
DETAIL
  6
CONTINUOUS
 62
     5
 10
-178.0805133460294
 20
-26.04432181885074
 30
0.0
 11
-168.6467593875579
 21
-25.21897529238624
 31
0.0
  0
LINE
  5
3CCB66
  8
DETAIL
  6
CONTINUOUS
 62
     5
 10
-267.9070295660574
 20
-25.1908949165255
 30
0.0
 11
-227.8506120763393
 21
-25.1908949165255
 31
0.0
  0
LINE
  5
3CCB67
  8
DETAIL
  6
CONTINUOUS
 62
     5
 10
-141.9295965615299
 20
-23.03244005612128
 30
0.0
 11
-133.9183130639419
 21
-23.03244005612128
 31
0.0
  0
LINE
  5
3CCB68
  8
DETAIL
  6
CONTINUOUS
 62
     5
 10
-147.9380593573753
 20
-19.02679830777168
 30
0.0
 11
-143.9324174357048
 21
-19.02679830777168
 31
0.0
  0
LINE
  5
3CCB69
  8
DETAIL
  6
CONTINUOUS
 62
     5
 10
-151.4429957149711
 20
-14.01974612100133
 30
0.0
 11
-148.9394696224749
 21
-14.01974612100133
 31
0.0
  0
LINE
  5
3CCB6A
  8
DETAIL
  6
CONTINUOUS
 62
     5
 10
-161.0565359124323
 20
-13.01833568435842
 30
0.0
 11
-163.5600620058173
 21
-13.01833568435842
 31
0.0
  0
LINE
  5
3CCB6B
  8
DETAIL
  6
CONTINUOUS
 62
     5
 10
-267.9070295660574
 20
-10.26200185510056
 30
0.0
 11
-227.8506120763393
 21
-10.26200185510056
 31
0.0
  0
LINE
  5
3CCB6C
  8
DETAIL
  6
CONTINUOUS
 62
     5
 10
-161.0565359124323
 20
-10.01410437265172
 30
0.0
 11
-151.4429957149711
 21
-10.01410437265172
 31
0.0
  0
LINE
  5
3CCB6D
  8
DETAIL
  6
CONTINUOUS
 62
     5
 10
-148.9394733510992
 20
-18.02539176329691
 30
0.0
 11
-147.9380632939846
 21
-19.02680224349234
 31
0.0
  0
LINE
  5
3CCB6E
  8
DETAIL
  6
CONTINUOUS
 62
     5
 10
-133.9183130639419
 20
-51.72046103278228
 30
0.0
 11
-133.9194800709272
 21
22.7277625085543
 31
0.0
  0
LINE
  5
3CCB6F
  8
DETAIL
  6
CONTINUOUS
 62
     5
 10
-119.5324295209275
 20
350.0089703811142
 30
0.0
 11
-119.5324295209275
 21
306.3395811067302
 31
0.0
  0
LINE
  5
3CCB70
  8
DETAIL
  6
CONTINUOUS
 62
     5
 10
-119.5324295209275
 20
275.1830002262583
 30
0.0
 11
-119.5324295209275
 21
-275.1830002262583
 31
0.0
  0
LINE
  5
3CCB71
  8
DETAIL
  6
CONTINUOUS
 62
     5
 10
-119.5324295209275
 20
-306.33958110673
 30
0.0
 11
-119.5324295209275
 21
-350.0089703811144
 31
0.0
  0
LINE
  5
3CCB72
  8
DETAIL
  6
CONTINUOUS
 62
     5
 10
-115.5267877716892
 20
350.0089703811142
 30
0.0
 11
-115.5267877716892
 21
306.3395811067302
 31
0.0
  0
LINE
  5
3CCB73
  8
DETAIL
  6
CONTINUOUS
 62
     5
 10
-115.5267877716892
 20
275.1830002262583
 30
0.0
 11
-115.5267877716892
 21
-275.1830002262583
 31
0.0
  0
LINE
  5
3CCB74
  8
DETAIL
  6
CONTINUOUS
 62
     5
 10
-115.5267877716892
 20
-306.33958110673
 30
0.0
 11
-115.5267877716892
 21
-350.0089703811144
 31
0.0
  0
LINE
  5
3CCB75
  8
DETAIL
  6
CONTINUOUS
 62
     5
 10
-161.0565359124323
 20
10.01410437265162
 30
0.0
 11
-151.4429957149711
 21
10.01410437265162
 31
0.0
  0
LINE
  5
3CCB76
  8
DETAIL
  6
CONTINUOUS
 62
     5
 10
-267.9070295660574
 20
10.26200185510049
 30
0.0
 11
-227.8506120763393
 21
10.26200185510049
 31
0.0
  0
LINE
  5
3CCB77
  8
DETAIL
  6
CONTINUOUS
 62
     5
 10
-161.0565359124323
 20
13.01833568435837
 30
0.0
 11
-163.5600620058173
 21
13.01833568435837
 31
0.0
  0
LINE
  5
3CCB78
  8
DETAIL
  6
CONTINUOUS
 62
     5
 10
-151.4429957149711
 20
14.01974612100127
 30
0.0
 11
-148.9394696224749
 21
14.01974612100127
 31
0.0
  0
LINE
  5
3CCB79
  8
DETAIL
  6
CONTINUOUS
 62
     5
 10
-147.9380593573753
 20
19.02679830777151
 30
0.0
 11
-143.9324174357048
 21
19.02679830777151
 31
0.0
  0
LINE
  5
3CCB7A
  8
DETAIL
  6
CONTINUOUS
 62
     5
 10
-141.9295965615299
 20
23.03244005612111
 30
0.0
 11
-133.9183130639419
 21
23.03244005612111
 31
0.0
  0
LINE
  5
3CCB7B
  8
DETAIL
  6
CONTINUOUS
 62
     5
 10
-220.1871272422368
 20
81.41466854724968
 30
0.0
 11
-221.1885376797686
 21
82.4160789847815
 31
0.0
  0
LINE
  5
3CCB7C
  8
DETAIL
  6
CONTINUOUS
 62
     5
 10
-133.9778444929775
 20
24.8043674015155
 30
0.0
 11
-133.9598769694466
 21
24.42534709613506
 31
0.0
  0
LINE
  5
3CCB7D
  8
DETAIL
  6
CONTINUOUS
 62
     5
 10
-133.9598769694466
 20
24.42534709613506
 30
0.0
 11
-133.9448583175992
 21
24.02911393279566
 31
0.0
  0
LINE
  5
3CCB7E
  8
DETAIL
  6
CONTINUOUS
 62
     5
 10
-133.9448583175992
 20
24.02911393279566
 30
0.0
 11
-133.9329505597188
 21
23.61386390170344
 31
0.0
  0
LINE
  5
3CCB7F
  8
DETAIL
  6
CONTINUOUS
 62
     5
 10
-133.9329505597188
 20
23.61386390170344
 30
0.0
 11
-133.9244059116895
 21
23.18003148670095
 31
0.0
  0
LINE
  5
3CCB80
  8
DETAIL
  6
CONTINUOUS
 62
     5
 10
-133.9244059116895
 20
23.18003148670095
 30
0.0
 11
-133.9194800709272
 21
22.7277625085543
 31
0.0
  0
LINE
  5
3CCB81
  8
DETAIL
  6
CONTINUOUS
 62
     5
 10
-267.9070295660574
 20
25.19089491652539
 30
0.0
 11
-227.8506120763393
 21
25.19089491652539
 31
0.0
  0
LINE
  5
3CCB82
  8
DETAIL
  6
CONTINUOUS
 62
     5
 10
-267.9070295660574
 20
40.81329848408041
 30
0.0
 11
-227.8506120763393
 21
40.81329848408041
 31
0.0
  0
LINE
  5
3CCB83
  8
DETAIL
  6
CONTINUOUS
 62
     5
 10
-178.0805133460294
 20
26.04432181885057
 30
0.0
 11
-168.6467593875579
 21
25.21897529238607
 31
0.0
  0
LINE
  5
3CCB84
  8
DETAIL
  6
CONTINUOUS
 62
     5
 10
-178.0805133460294
 20
71.55346751099569
 30
0.0
 11
-180.1987424851031
 21
73.67169655229884
 31
0.0
  0
LINE
  5
3CCB85
  8
DETAIL
  6
CONTINUOUS
 62
     5
 10
-267.9070295660574
 20
60.82044459743282
 30
0.0
 11
-227.8506120763393
 21
60.82044459743282
 31
0.0
  0
LINE
  5
3CCB86
  8
DETAIL
  6
CONTINUOUS
 62
     5
 10
-267.9070295660574
 20
64.2199248427487
 30
0.0
 11
-261.9792371457845
 21
64.2199248427487
 31
0.0
  0
LINE
  5
3CCB87
  8
DETAIL
  6
CONTINUOUS
 62
     5
 10
-259.6954639804295
 20
64.72341072690926
 30
0.0
 11
-261.397861723434
 21
64.72341072690926
 31
0.0
  0
LINE
  5
3CCB88
  8
DETAIL
  6
CONTINUOUS
 62
     5
 10
-259.6954639804295
 20
65.15114039175512
 30
0.0
 11
-227.8506120763393
 21
65.15114039175512
 31
0.0
  0
LINE
  5
3CCB89
  8
DETAIL
  6
CONTINUOUS
 62
     5
 10
-259.6954639804295
 20
71.23257856953296
 30
0.0
 11
-261.397861723434
 21
71.23257856953296
 31
0.0
  0
LINE
  5
3CCB8A
  8
DETAIL
  6
CONTINUOUS
 62
     5
 10
-267.9070295660574
 20
71.7360644536933
 30
0.0
 11
-261.9792371457845
 21
71.7360644536933
 31
0.0
  0
LINE
  5
3CCB8B
  8
DETAIL
  6
CONTINUOUS
 62
     5
 10
-267.9070295660574
 20
75.49413426005458
 30
0.0
 11
-261.9792371457845
 21
75.49413426005458
 31
0.0
  0
LINE
  5
3CCB8C
  8
DETAIL
  6
CONTINUOUS
 62
     5
 10
-271.5121071401051
 20
78.22465961805108
 30
0.0
 11
-267.9070295660574
 21
78.22465961805108
 31
0.0
  0
LINE
  5
3CCB8D
  8
DETAIL
  6
CONTINUOUS
 62
     5
 10
-220.1871272422368
 20
81.41466854724968
 30
0.0
 11
-189.3785460740985
 21
81.41466854724968
 31
0.0
  0
LINE
  5
3CCB8E
  8
DETAIL
  6
CONTINUOUS
 62
     5
 10
-334.0065590093479
 20
81.61495063440043
 30
0.0
 11
-313.5713455039981
 21
81.61495063440043
 31
0.0
  0
LINE
  5
3CCB8F
  8
DETAIL
  6
CONTINUOUS
 62
     5
 10
-227.8506120763393
 20
82.4160789847815
 30
0.0
 11
-221.1885376797686
 21
82.4160789847815
 31
0.0
  0
LINE
  5
3CCB90
  8
DETAIL
  6
CONTINUOUS
 62
     5
 10
-267.9070295660574
 20
88.09012132803502
 30
0.0
 11
-227.8506120763393
 21
88.09012132803502
 31
0.0
  0
LINE
  5
3CCB91
  8
DETAIL
  6
CONTINUOUS
 62
     5
 10
-267.9070295660574
 20
102.8483640267776
 30
0.0
 11
-227.8506120763393
 21
102.8483640267776
 31
0.0
  0
LINE
  5
3CCB92
  8
DETAIL
  6
CONTINUOUS
 62
     5
 10
-20.65879261260193
 20
-336.9746121294637
 30
0.0
 11
-20.65879261260193
 21
-328.5774755365753
 31
0.0
  0
LINE
  5
3CCB93
  8
DETAIL
  6
CONTINUOUS
 62
     5
 10
-20.15808739339173
 20
-338.3765867421862
 30
0.0
 11
-20.15808739339173
 21
-306.33958110673
 31
0.0
  0
LINE
  5
3CCB94
  8
DETAIL
  6
CONTINUOUS
 62
     5
 10
-20.15808739339173
 20
-275.1830002262583
 30
0.0
 11
-20.15808739339173
 21
275.1830002262583
 31
0.0
  0
LINE
  5
3CCB95
  8
DETAIL
  6
CONTINUOUS
 62
     5
 10
-20.15808739339173
 20
306.3395811067302
 30
0.0
 11
-20.15808739339173
 21
338.3765867421862
 31
0.0
  0
LINE
  5
3CCB96
  8
DETAIL
  6
CONTINUOUS
 62
     5
 10
-18.65597173753827
 20
-311.3466332926114
 30
0.0
 11
-18.65597173753827
 21
-306.33958110673
 31
0.0
  0
LINE
  5
3CCB97
  8
DETAIL
  6
CONTINUOUS
 62
     5
 10
-18.65597173753827
 20
270.1759480403771
 30
0.0
 11
-18.65597173753827
 21
280.1900524121399
 31
0.0
  0
LINE
  5
3CCB98
  8
DETAIL
  6
CONTINUOUS
 62
     5
 10
-14.65032998918855
 20
-295.2356511139783
 30
0.0
 11
-14.65032998918855
 21
-299.5555359481644
 31
0.0
  0
LINE
  5
3CCB99
  8
DETAIL
  6
CONTINUOUS
 62
     5
 10
-14.65032998918855
 20
-339.5085483027642
 30
0.0
 11
-14.65032998918855
 21
-299.5555359481644
 31
0.0
  0
LINE
  5
3CCB9A
  8
DETAIL
  6
CONTINUOUS
 62
     5
 10
-14.65032998918855
 20
-295.2356511139783
 30
0.0
 11
-14.65032998918855
 21
-258.1885015644252
 31
0.0
  0
LINE
  5
3CCB9B
  8
DETAIL
  6
CONTINUOUS
 62
     5
 10
-14.65032998918855
 20
258.1885015644253
 30
0.0
 11
-14.65032998918855
 21
295.2356511139786
 31
0.0
  0
LINE
  5
3CCB9C
  8
DETAIL
  6
CONTINUOUS
 62
     5
 10
-14.65032998918855
 20
295.2356511139786
 30
0.0
 11
-14.65032998918855
 21
299.5555359481644
 31
0.0
  0
LINE
  5
3CCB9D
  8
DETAIL
  6
CONTINUOUS
 62
     5
 10
-14.65032998918855
 20
299.5555359481644
 30
0.0
 11
-14.65032998918855
 21
339.508548302764
 31
0.0
  0
LINE
  5
3CCB9E
  8
DETAIL
  6
CONTINUOUS
 62
     5
 10
-10.1439830216284
 20
348.3906911139492
 30
0.0
 11
-10.1439830216284
 21
345.1809308988783
 31
0.0
  0
LINE
  5
3CCB9F
  8
DETAIL
  6
CONTINUOUS
 62
     5
 10
-10.1439830216284
 20
-284.323796648363
 30
0.0
 11
-10.14398302162836
 21
-289.2775017006909
 31
0.0
  0
LINE
  5
3CCBA0
  8
DETAIL
  6
CONTINUOUS
 62
     5
 10
-10.1439830216284
 20
-348.3906911139491
 30
0.0
 11
-10.14398302158074
 21
-344.5209418762591
 31
0.0
  0
LINE
  5
3CCBA1
  8
DETAIL
  6
CONTINUOUS
 62
     5
 10
-10.1439830216284
 20
-284.323796648363
 30
0.0
 11
-10.1439830216284
 21
284.3237966483632
 31
0.0
  0
LINE
  5
3CCBA2
  8
DETAIL
  6
CONTINUOUS
 62
     5
 10
-10.1439830216284
 20
284.3237966483632
 30
0.0
 11
-10.1439830216284
 21
289.9412605379733
 31
0.0
  0
LINE
  5
3CCBA3
  8
DETAIL
  6
CONTINUOUS
 62
     5
 10
-5.237071878878169
 20
-348.8258277617572
 30
0.0
 11
-5.237071878878169
 21
-298.855316633541
 31
0.0
  0
LINE
  5
3CCBA4
  8
DETAIL
  6
CONTINUOUS
 62
     5
 10
-5.237071878878263
 20
299.2585399978549
 30
0.0
 11
-5.237071878878169
 21
348.8258277617572
 31
0.0
  0
LINE
  5
3CCBA5
  8
DETAIL
  6
CONTINUOUS
 62
     5
 10
-3.134109960683645
 20
-353.4978843438504
 30
0.0
 11
-3.134109960683645
 21
353.4978843438504
 31
0.0
  0
LINE
  5
3CCBA6
  8
DETAIL
  6
CONTINUOUS
 62
     5
 10
-0.1298786489767281
 20
-353.4978843438504
 30
0.0
 11
-0.1298786489767281
 21
353.4978843438504
 31
0.0
  0
LINE
  5
3CCBA7
  8
DETAIL
  6
CONTINUOUS
 62
     5
 10
-309.5657037547596
 20
137.6939351201835
 30
0.0
 11
-313.5713455039981
 21
137.6939351201835
 31
0.0
  0
LINE
  5
3CCBA8
  8
DETAIL
  6
CONTINUOUS
 62
     5
 10
-13.14821433333532
 20
246.1507316781826
 30
0.0
 11
-16.55300981934352
 21
246.1507316781826
 31
0.0
  0
LINE
  5
3CCBA9
  8
DETAIL
  6
CONTINUOUS
 62
     5
 10
-18.20875987439672
 20
269.4013543710703
 30
0.0
 11
-18.65597173753827
 21
270.1759480403771
 31
0.0
  0
LINE
  5
3CCBAA
  8
DETAIL
  6
CONTINUOUS
 62
     5
 10
-14.65032998918855
 20
258.1885015644253
 30
0.0
 11
-10.1439830216284
 21
258.1885015644253
 31
0.0
  0
LINE
  5
3CCBAB
  8
DETAIL
  6
CONTINUOUS
 62
     5
 10
-14.65032998918855
 20
269.4013543710703
 30
0.0
 11
-18.20875987439672
 21
269.4013543710703
 31
0.0
  0
LINE
  5
3CCBAC
  8
DETAIL
  6
CONTINUOUS
 62
     5
 10
-14.65032998918855
 20
272.2921772991086
 30
0.0
 11
-18.20875987439672
 21
272.2921772991086
 31
0.0
  0
LINE
  5
3CCBAD
  8
DETAIL
  6
CONTINUOUS
 62
     5
 10
-201.413376533321
 20
275.1830002262583
 30
0.0
 11
-18.65597173753827
 21
275.1830002262583
 31
0.0
  0
LINE
  5
3CCBAE
  8
DETAIL
  6
CONTINUOUS
 62
     5
 10
-14.65032998918855
 20
278.0738231534081
 30
0.0
 11
-18.20875987439672
 21
278.0738231534081
 31
0.0
  0
LINE
  5
3CCBAF
  8
DETAIL
  6
CONTINUOUS
 62
     5
 10
-14.65032998918855
 20
280.9646460814466
 30
0.0
 11
-18.20875987439672
 21
280.9646460814466
 31
0.0
  0
LINE
  5
3CCBB0
  8
DETAIL
  6
CONTINUOUS
 62
     5
 10
-3.134109960683645
 20
287.9288742224107
 30
0.0
 11
-6.538905447580646
 21
287.9288742224107
 31
0.0
  0
LINE
  5
3CCBB1
  8
DETAIL
  6
CONTINUOUS
 62
     5
 10
-5.237071878878169
 20
299.2585399978549
 30
0.0
 11
-3.134109960683645
 21
299.2585399978549
 31
0.0
  0
LINE
  5
3CCBB2
  8
DETAIL
  6
CONTINUOUS
 62
     5
 10
-14.65032998918855
 20
302.0909564410493
 30
0.0
 11
-201.413376533321
 21
302.0909564410493
 31
0.0
  0
LINE
  5
3CCBB3
  8
DETAIL
  6
CONTINUOUS
 62
     5
 10
-201.413376533321
 20
306.3395811067302
 30
0.0
 11
-14.65032998918855
 21
306.3395811067302
 31
0.0
  0
LINE
  5
3CCBB4
  8
DETAIL
  6
CONTINUOUS
 62
     5
 10
-16.55300981934352
 20
341.9816643162342
 30
0.0
 11
-14.01707541536166
 21
341.9816643162342
 31
0.0
  0
LINE
  5
3CCBB5
  8
DETAIL
  6
CONTINUOUS
 62
     5
 10
-3.134109960683645
 20
348.8258277617572
 30
0.0
 11
-5.237071878878169
 21
348.8258277617572
 31
0.0
  0
LINE
  5
3CCBB6
  8
DETAIL
  6
CONTINUOUS
 62
     5
 10
-6.538905447580646
 20
351.995768687997
 30
0.0
 11
-3.134109960683645
 21
351.995768687997
 31
0.0
  0
ARC
  5
3CCBB7
  8
DETAIL
  6
CONTINUOUS
 62
     5
 10
-6.538905447580646
 20
-348.3906911139491
 30
0.0
 40
3.605077574047868
 50
180.0
 51
270.0
  0
ARC
  5
3CCBB8
  8
DETAIL
  6
CONTINUOUS
 62
     5
 10
-16.55300981934352
 20
-338.3765867421862
 30
0.0
 40
3.605077574047983
 50
180.0
 51
270.0
  0
ARC
  5
3CCBB9
  8
DETAIL
  6
CONTINUOUS
 62
     5
 10
-16.55300981934352
 20
-242.5456541041344
 30
0.0
 40
3.605077574047983
 50
180.0
 51
270.0
  0
ARC
  5
3CCBBA
  8
DETAIL
  6
CONTINUOUS
 62
     5
 10
-6.538905447580646
 20
-284.323796648363
 30
0.0
 40
3.605077574047868
 50
180.0
 51
270.0
  0
ARC
  5
3CCBBB
  8
DETAIL
  6
CONTINUOUS
 62
     5
 10
-13.14821433333532
 20
-249.1549629898891
 30
0.0
 40
3.004231311706576
 50
0.0
 51
90.0
  0
ARC
  5
3CCBBC
  8
DETAIL
  6
CONTINUOUS
 62
     5
 10
-117.5296086467526
 20
-350.0089703811144
 30
0.0
 40
2.002820874174859
 50
180.0
 51
0.0
  0
ARC
  5
3CCBBD
  8
DETAIL
  6
CONTINUOUS
 62
     5
 10
-1.631994304830187
 20
-353.4978843438504
 30
0.0
 40
1.502115655853345
 50
180.0
 51
0.0
  0
ARC
  5
3CCBBE
  8
DETAIL
  6
CONTINUOUS
 62
     5
 10
-334.0065590093479
 20
72.30183356810994
 30
0.0
 40
9.313117066290515
 50
90.0
 51
171.6915603378989
  0
ARC
  5
3CCBBF
  8
DETAIL
  6
CONTINUOUS
 62
     5
 10
-334.0065590093479
 20
-72.30183356811
 30
0.0
 40
9.313117066290525
 50
188.3084396621011
 51
270.0
  0
ARC
  5
3CCBC0
  8
DETAIL
  6
CONTINUOUS
 62
     5
 10
-189.3785460740985
 20
72.10155148095919
 30
0.0
 40
9.313117066290593
 50
9.7061400571993
 51
90.0
  0
ARC
  5
3CCBC1
  8
DETAIL
  6
CONTINUOUS
 62
     5
 10
-189.3785460740985
 20
-72.10155148095913
 30
0.0
 40
9.313117066290506
 50
270.0
 51
350.2938599428006
  0
ARC
  5
3CCBC2
  8
DETAIL
  6
CONTINUOUS
 62
     5
 10
-341.2878828799923
 20
-43.19435076582573
 30
0.0
 40
6.531699576572549
 50
133.8973981670924
 51
226.1026018329076
  0
ARC
  5
3CCBC3
  8
DETAIL
  6
CONTINUOUS
 62
     5
 10
-169.0831527390989
 20
20.23097645166951
 30
0.0
 40
5.007052185881519
 50
4.999999999999773
 51
85.0000000000003
  0
ARC
  5
3CCBC4
  8
DETAIL
  6
CONTINUOUS
 62
     5
 10
-169.0831527390989
 20
-20.23097645166968
 30
0.0
 40
5.007052185881449
 50
274.9999999999998
 51
355.0000000000002
  0
ARC
  5
3CCBC5
  8
DETAIL
  6
CONTINUOUS
 62
     5
 10
-143.9324174357048
 20
-21.02961918194649
 30
0.0
 40
2.002820874174909
 50
0.0000128350322641
 51
90.0
  0
ARC
  5
3CCBC6
  8
DETAIL
  6
CONTINUOUS
 62
     5
 10
-143.9324174357048
 20
21.02961918194632
 30
0.0
 40
2.002820874174802
 50
270.0
 51
359.9999871649677
  0
ARC
  5
3CCBC7
  8
DETAIL
  6
CONTINUOUS
 62
     5
 10
-6.538905447580646
 20
284.3237966483632
 30
0.0
 40
3.605077574047925
 50
90.0
 51
180.0
  0
ARC
  5
3CCBC8
  8
DETAIL
  6
CONTINUOUS
 62
     5
 10
-16.55300981934352
 20
338.3765867421862
 30
0.0
 40
3.605077574048039
 50
90.0
 51
180.0
  0
ARC
  5
3CCBC9
  8
DETAIL
  6
CONTINUOUS
 62
     5
 10
-16.55300981934352
 20
242.5456541041345
 30
0.0
 40
3.605077574048039
 50
90.0
 51
180.0
  0
ARC
  5
3CCBCA
  8
DETAIL
  6
CONTINUOUS
 62
     5
 10
-6.538905447580646
 20
348.3906911139492
 30
0.0
 40
3.605077574047983
 50
90.0
 51
180.0
  0
ARC
  5
3CCBCB
  8
DETAIL
  6
CONTINUOUS
 62
     5
 10
-13.14821433333532
 20
249.1549629898891
 30
0.0
 40
3.004231311706576
 50
270.0
 51
0.0
  0
ARC
  5
3CCBCC
  8
DETAIL
  6
CONTINUOUS
 62
     5
 10
-117.5296086467526
 20
350.0089703811142
 30
0.0
 40
2.002820874174802
 50
0.0
 51
180.0
  0
ARC
  5
3CCBCD
  8
DETAIL
  6
CONTINUOUS
 62
     5
 10
-1.631994304830187
 20
353.4978843438504
 30
0.0
 40
1.502115655853345
 50
0.0
 51
180.0
  0
LINE
  5
3CCBCE
  8
DETAIL
  6
CONTINUOUS
 62
     5
 10
-5.237071878878169
 20
-348.4226043974429
 30
0.0
 11
-5.238042341822393
 21
-348.3691161807801
 31
0.0
  0
LINE
  5
3CCBCF
  8
DETAIL
  6
CONTINUOUS
 62
     5
 10
-5.238042341822393
 20
-348.3691161807801
 30
0.0
 11
-5.239905781113293
 21
-348.315637773278
 31
0.0
  0
LINE
  5
3CCBD0
  8
DETAIL
  6
CONTINUOUS
 62
     5
 10
-5.239905781113293
 20
-348.315637773278
 30
0.0
 11
-5.239905781113293
 21
-348.315637773278
 31
0.0
  0
LINE
  5
3CCBD1
  8
DETAIL
  6
CONTINUOUS
 62
     5
 10
-5.239905781113293
 20
-348.315637773278
 30
0.0
 11
-5.243364301976499
 21
-348.2621863593826
 31
0.0
  0
LINE
  5
3CCBD2
  8
DETAIL
  6
CONTINUOUS
 62
     5
 10
-5.243364301976499
 20
-348.2621863593826
 30
0.0
 11
-5.248356525145482
 21
-348.2088086246715
 31
0.0
  0
LINE
  5
3CCBD3
  8
DETAIL
  6
CONTINUOUS
 62
     5
 10
-5.248356525145482
 20
-348.2088086246715
 30
0.0
 11
-5.248356525145482
 21
-348.2088086246715
 31
0.0
  0
LINE
  5
3CCBD4
  8
DETAIL
  6
CONTINUOUS
 62
     5
 10
-5.248356525145482
 20
-348.2088086246715
 30
0.0
 11
-5.254682023996565
 21
-348.1555543641238
 31
0.0
  0
LINE
  5
3CCBD5
  8
DETAIL
  6
CONTINUOUS
 62
     5
 10
-5.254682023996565
 20
-348.1555543641238
 30
0.0
 11
-5.262347666964388
 21
-348.1024563091879
 31
0.0
  0
LINE
  5
3CCBD6
  8
DETAIL
  6
CONTINUOUS
 62
     5
 10
-5.262347666964388
 20
-348.1024563091879
 30
0.0
 11
-5.262347666964388
 21
-348.1024563091879
 31
0.0
  0
LINE
  5
3CCBD7
  8
DETAIL
  6
CONTINUOUS
 62
     5
 10
-271.5121071401051
 20
-105.6488011280535
 30
0.0
 11
-267.9070295660574
 21
-105.6488011280535
 31
0.0
  0
LINE
  5
3CCBD8
  8
DETAIL
  6
CONTINUOUS
 62
     5
 10
-271.5121071401051
 20
-78.22465961805113
 30
0.0
 11
-267.9070295660574
 21
-78.22465961805113
 31
0.0
  0
ARC
  5
3CCBD9
  8
DETAIL
  6
CONTINUOUS
 62
     5
 10
-69.62776299341999
 20
-353.9985895630606
 30
0.0
 40
49.46967559913953
 50
105.5308765329988
 51
158.1134446232994
  0
ARC
  5
3CCBDA
  8
DETAIL
  6
CONTINUOUS
 62
     5
 10
-49.59955424811665
 20
-333.9703808177574
 30
0.0
 40
29.44146685472492
 50
0.0
 51
69.8123617111963
  0
ARC
  5
3CCBDB
  8
DETAIL
  6
CONTINUOUS
 62
     5
 10
-69.62776299341999
 20
353.9985895630606
 30
0.0
 40
49.46967559913956
 50
201.8865553767006
 51
254.4691234670012
  0
ARC
  5
3CCBDC
  8
DETAIL
  6
CONTINUOUS
 62
     5
 10
-49.59955424811665
 20
333.9703808177572
 30
0.0
 40
29.44146685472508
 50
290.1876382888037
 51
0.0
  0
LINE
  5
3CCBDD
  8
DETAIL
  6
CONTINUOUS
 62
     5
 10
-271.5121071401051
 20
105.6488011280535
 30
0.0
 11
-267.9070295660574
 21
105.6488011280535
 31
0.0
  0
LINE
  5
3CCBDE
  8
OUTLINE
  6
CONTINUOUS
 62
     3
 10
-6.538905447580873
 20
-351.9957686879972
 30
0.0
 11
-3.134109960683418
 21
-351.9957686879972
 31
0.0
  0
LINE
  5
3CCBDF
  8
DETAIL
  6
CONTINUOUS
 62
     3
 10
-16.55300982023278
 20
-341.9816643162342
 30
0.0
 11
-13.57624005796387
 21
-342.0064921318934
 31
0.0
  0
LINE
  5
3CCBE0
  8
OUTLINE
  6
CONTINUOUS
 62
     3
 10
-20.1580873942803
 20
-336.9746121294637
 30
0.0
 11
-20.65879261260216
 21
-336.9746121294637
 31
0.0
  0
LINE
  5
3CCBE1
  8
OUTLINE
  6
CONTINUOUS
 62
     3
 10
-201.4133765333215
 20
-306.33958110673
 30
0.0
 11
-39.43398107839823
 21
-306.33958110673
 31
0.0
  0
LINE
  5
3CCBE2
  8
OUTLINE
  6
CONTINUOUS
 62
     3
 10
-0.1298786489769555
 20
353.4978843438504
 30
0.0
 11
-0.1298786489769555
 21
-353.4978843438504
 31
0.0
  0
LINE
  5
3CCBE3
  8
OUTLINE
  6
CONTINUOUS
 62
     3
 10
-3.134109960683418
 20
353.4978843438504
 30
0.0
 11
-3.134109960683418
 21
351.995768687997
 31
0.0
  0
LINE
  5
3CCBE4
  8
OUTLINE
  6
CONTINUOUS
 62
     3
 10
-3.134109960683304
 20
-351.9957686879972
 30
0.0
 11
-3.134109960683418
 21
-353.4978843438504
 31
0.0
  0
LINE
  5
3CCBE5
  8
OUTLINE
  6
CONTINUOUS
 62
     3
 10
-10.14398302162886
 20
348.3906911139492
 30
0.0
 11
-10.14398302162886
 21
345.1809308988783
 31
0.0
  0
LINE
  5
3CCBE6
  8
DETAIL
  6
CONTINUOUS
 62
     3
 10
-10.1439830215812
 20
-344.5209418762591
 30
0.0
 11
-10.14398302162886
 21
-348.3906911139491
 31
0.0
  0
LINE
  5
3CCBE7
  8
OUTLINE
  6
CONTINUOUS
 62
     3
 10
-20.1580873942803
 20
338.3765867421862
 30
0.0
 11
-20.1580873942803
 21
333.9703808177572
 31
0.0
  0
LINE
  5
3CCBE8
  8
OUTLINE
  6
CONTINUOUS
 62
     3
 10
-20.1580873942803
 20
-336.9746121294637
 30
0.0
 11
-20.1580873942803
 21
-338.3765867421862
 31
0.0
  0
LINE
  5
3CCBE9
  8
OUTLINE
  6
CONTINUOUS
 62
     3
 10
-20.65879261260227
 20
-328.5636917696646
 30
0.0
 11
-20.65879261260216
 21
-336.9746121294637
 31
0.0
  0
LINE
  5
3CCBEA
  8
OUTLINE
  6
CONTINUOUS
 62
     3
 10
-312.5699350664665
 20
-138.194640338505
 30
0.0
 11
-309.5657037547599
 21
-138.194640338505
 31
0.0
  0
LINE
  5
3CCBEB
  8
OUTLINE
  6
CONTINUOUS
 62
     3
 10
-309.5657037547599
 20
-137.6939351201834
 30
0.0
 11
-313.5713455039983
 21
-137.6939351201834
 31
0.0
  0
LINE
  5
3CCBEC
  8
OUTLINE
  6
CONTINUOUS
 62
     3
 10
-115.5267877725778
 20
-350.0089703811144
 30
0.0
 11
-115.5267877725778
 21
-306.33958110673
 31
0.0
  0
LINE
  5
3CCBED
  8
OUTLINE
  6
CONTINUOUS
 62
     3
 10
-115.5267877725778
 20
306.3395811067302
 30
0.0
 11
-115.5267877725778
 21
350.0089703811142
 31
0.0
  0
LINE
  5
3CCBEE
  8
OUTLINE
  6
CONTINUOUS
 62
     3
 10
-119.5324295209277
 20
-350.0089703811144
 30
0.0
 11
-119.5324295209277
 21
-306.33958110673
 31
0.0
  0
LINE
  5
3CCBEF
  8
OUTLINE
  6
CONTINUOUS
 62
     3
 10
-119.5324295209277
 20
306.3395811067302
 30
0.0
 11
-119.5324295209277
 21
350.0089703811142
 31
0.0
  0
LINE
  5
3CCBF0
  8
OUTLINE
  6
CONTINUOUS
 62
     3
 10
-334.0065591533375
 20
-81.61495063440049
 30
0.0
 11
-313.5713455039983
 21
-81.61495063440049
 31
0.0
  0
LINE
  5
3CCBF1
  8
OUTLINE
  6
CONTINUOUS
 62
     3
 10
-345.8167615832792
 20
-47.90097982142532
 30
0.0
 11
-345.3160563640688
 21
-47.90097982142532
 31
0.0
  0
LINE
  5
3CCBF2
  8
OUTLINE
  6
CONTINUOUS
 62
     3
 10
-345.8167615832792
 20
-38.48772171111489
 30
0.0
 11
-345.3160563640688
 21
-38.48772171111489
 31
0.0
  0
LINE
  5
3CCBF3
  8
OUTLINE
  6
CONTINUOUS
 62
     3
 10
-309.5657037547599
 20
-225.6157124614675
 30
0.0
 11
-309.5657037547599
 21
-137.6939351201834
 31
0.0
  0
LINE
  5
3CCBF4
  8
OUTLINE
  6
CONTINUOUS
 62
     3
 10
-309.5657037547599
 20
137.6939351201835
 30
0.0
 11
-309.4032089084041
 21
229.8063043794352
 31
0.0
  0
LINE
  5
3CCBF5
  8
OUTLINE
  6
CONTINUOUS
 62
     3
 10
-312.5699350664665
 20
-138.194640338505
 30
0.0
 11
-312.5699350664665
 21
-137.6939351201834
 31
0.0
  0
LINE
  5
3CCBF6
  8
OUTLINE
  6
CONTINUOUS
 62
     3
 10
-313.5713455039983
 20
-137.6939330669957
 30
0.0
 11
-313.5713455039983
 21
-81.61495063440049
 31
0.0
  0
LINE
  5
3CCBF7
  8
OUTLINE
  6
CONTINUOUS
 62
     3
 10
-313.5713455039983
 20
81.61495063440043
 30
0.0
 11
-313.5713455039983
 21
137.6939245538219
 31
0.0
  0
LINE
  5
3CCBF8
  8
OUTLINE
  6
CONTINUOUS
 62
     3
 10
-345.3160563640688
 20
-71.55347121917708
 30
0.0
 11
-343.2219303923484
 21
-73.64759720511853
 31
0.0
  0
LINE
  5
3CCBF9
  8
OUTLINE
  6
CONTINUOUS
 62
     3
 10
-334.0065590093479
 20
81.61495063440043
 30
0.0
 11
-313.5713455039983
 21
81.61495063440043
 31
0.0
  0
LINE
  5
3CCBFA
  8
OUTLINE
  6
CONTINUOUS
 62
     3
 10
-345.3160563640688
 20
71.55347121828811
 30
0.0
 11
-345.3160563640688
 21
-71.55347121917708
 31
0.0
  0
LINE
  5
3CCBFB
  8
OUTLINE
  6
CONTINUOUS
 62
     3
 10
-345.8167615832792
 20
-38.48772171111489
 30
0.0
 11
-345.8167615832792
 21
-47.90097982142532
 31
0.0
  0
LINE
  5
3CCBFC
  8
OUTLINE
  6
CONTINUOUS
 62
     3
 10
-309.5657037547599
 20
137.6939351201835
 30
0.0
 11
-313.5713455039983
 21
137.6939351201835
 31
0.0
  0
LINE
  5
3CCBFD
  8
OUTLINE
  6
CONTINUOUS
 62
     3
 10
-345.3160563640688
 20
71.55347121828811
 30
0.0
 11
-343.2219303923484
 21
73.64759720511847
 31
0.0
  0
LINE
  5
3CCBFE
  8
OUTLINE
  6
CONTINUOUS
 62
     3
 10
-39.43398107839766
 20
306.3395811067302
 30
0.0
 11
-201.4133765333215
 21
306.3395811067302
 31
0.0
  0
LINE
  5
3CCBFF
  8
OUTLINE
  6
CONTINUOUS
 62
     3
 10
-14.01707541536189
 20
341.9816643162342
 30
0.0
 11
-16.55300982023278
 21
341.9816643162342
 31
0.0
  0
LINE
  5
3CCC00
  8
OUTLINE
  6
CONTINUOUS
 62
     3
 10
-3.134109960683418
 20
351.995768687997
 30
0.0
 11
-6.538905447580873
 21
351.995768687997
 31
0.0
  0
ARC
  5
3CCC01
  8
OUTLINE
  6
CONTINUOUS
 62
     3
 10
741.6508127227819
 20
-2.380730009497484
 30
0.0
 40
1061.11021126633
 50
187.3536243282979
 51
187.6046564060004
  0
ARC
  5
3CCC02
  8
OUTLINE
  6
CONTINUOUS
 62
     3
 10
-16.55300982023278
 20
-338.3765867421862
 30
0.0
 40
3.605077574047983
 50
180.0
 51
270.0
  0
ARC
  5
3CCC03
  8
OUTLINE
  6
CONTINUOUS
 62
     3
 10
-6.538905447580873
 20
-348.3906911139491
 30
0.0
 40
3.605077574047983
 50
180.0
 51
270.0
  0
ARC
  5
3CCC04
  8
OUTLINE
  6
CONTINUOUS
 62
     3
 10
-1.631994304830187
 20
-353.4978843438504
 30
0.0
 40
1.502115655853231
 50
180.0
 51
0.0
  0
ARC
  5
3CCC05
  8
OUTLINE
  6
CONTINUOUS
 62
     3
 10
-117.5296086467526
 20
-350.0089703811144
 30
0.0
 40
2.002820874174859
 50
180.0
 51
0.0
  0
ARC
  5
3CCC06
  8
OUTLINE
  6
CONTINUOUS
 62
     3
 10
-195.7696232527905
 20
-127.7735112356682
 30
0.0
 40
115.3407271022777
 50
187.4881341009029
 51
189.3868223376996
  0
ARC
  5
3CCC07
  8
OUTLINE
  6
CONTINUOUS
 62
     3
 10
-334.0065590093479
 20
-72.30183356811
 30
0.0
 40
9.313117066290506
 50
188.3084396621011
 51
270.0
  0
ARC
  5
3CCC08
  8
OUTLINE
  6
CONTINUOUS
 62
     3
 10
-341.2878828808816
 20
-43.19435076582573
 30
0.0
 40
6.531699576572438
 50
133.8973981670925
 51
226.1026018329075
  0
ARC
  5
3CCC09
  8
OUTLINE
  6
CONTINUOUS
 62
     3
 10
-334.0065590093479
 20
72.30183356810994
 30
0.0
 40
9.313117066290413
 50
90.0
 51
171.6915603378989
  0
ARC
  5
3CCC0A
  8
OUTLINE
  6
CONTINUOUS
 62
     3
 10
-6.538905447580873
 20
348.3906911139492
 30
0.0
 40
3.605077574047983
 50
90.0
 51
180.0
  0
ARC
  5
3CCC0B
  8
OUTLINE
  6
CONTINUOUS
 62
     3
 10
-16.55300982023278
 20
338.3765867421862
 30
0.0
 40
3.605077574047983
 50
90.0
 51
180.0
  0
ARC
  5
3CCC0C
  8
OUTLINE
  6
CONTINUOUS
 62
     3
 10
-117.5296086467526
 20
350.0089703811142
 30
0.0
 40
2.002820874174859
 50
0.0
 51
180.0
  0
ARC
  5
3CCC0D
  8
OUTLINE
  6
CONTINUOUS
 62
     3
 10
-1.631994304830187
 20
353.4978843438504
 30
0.0
 40
1.502115655853459
 50
0.0
 51
180.0
  0
LINE
  5
3CCC0E
  8
OUTLINE
  6
CONTINUOUS
 62
     3
 10
-318.5040852712472
 20
-81.61552219918468
 30
0.0
 11
-318.2815670170089
 21
-81.92656539573323
 31
0.0
  0
LINE
  5
3CCC0F
  8
OUTLINE
  6
CONTINUOUS
 62
     3
 10
-318.2815670170089
 20
-81.92656539573323
 30
0.0
 11
-318.0616373430352
 21
-82.23588203669618
 31
0.0
  0
LINE
  5
3CCC10
  8
OUTLINE
  6
CONTINUOUS
 62
     3
 10
-318.0616373430352
 20
-82.23588203669618
 30
0.0
 11
-318.0616373430352
 21
-82.23588203669618
 31
0.0
  0
LINE
  5
3CCC11
  8
OUTLINE
  6
CONTINUOUS
 62
     3
 10
-318.0616373430352
 20
-82.23588203669618
 30
0.0
 11
-317.8463892094652
 21
-82.54209285025007
 31
0.0
  0
LINE
  5
3CCC12
  8
OUTLINE
  6
CONTINUOUS
 62
     3
 10
-317.8463892094652
 20
-82.54209285025007
 30
0.0
 11
-317.6359330959478
 21
-82.84520769962097
 31
0.0
  0
LINE
  5
3CCC13
  8
OUTLINE
  6
CONTINUOUS
 62
     3
 10
-317.6359330959478
 20
-82.84520769962097
 30
0.0
 11
-317.6359330959478
 21
-82.84520769962097
 31
0.0
  0
LINE
  5
3CCC14
  8
OUTLINE
  6
CONTINUOUS
 62
     3
 10
-317.6359330959478
 20
-82.84520769962097
 30
0.0
 11
-317.4299655190594
 21
-83.14551924117205
 31
0.0
  0
LINE
  5
3CCC15
  8
OUTLINE
  6
CONTINUOUS
 62
     3
 10
-317.4299655190594
 20
-83.14551924117205
 30
0.0
 11
-317.2285096235839
 21
-83.44306216876538
 31
0.0
  0
LINE
  5
3CCC16
  8
OUTLINE
  6
CONTINUOUS
 62
     3
 10
-317.2285096235839
 20
-83.44306216876538
 30
0.0
 11
-317.2285096235839
 21
-83.44306216876538
 31
0.0
  0
LINE
  5
3CCC17
  8
OUTLINE
  6
CONTINUOUS
 62
     3
 10
-317.2285096235839
 20
-83.44306216876538
 30
0.0
 11
-317.0318392032729
 21
-83.73771736437669
 31
0.0
  0
LINE
  5
3CCC18
  8
OUTLINE
  6
CONTINUOUS
 62
     3
 10
-317.0318392032729
 20
-83.73771736437669
 30
0.0
 11
-316.8409040195401
 21
-84.02900842493642
 31
0.0
  0
LINE
  5
3CCC19
  8
OUTLINE
  6
CONTINUOUS
 62
     3
 10
-316.8409040195401
 20
-84.02900842493642
 30
0.0
 11
-316.8409040195401
 21
-84.02900842493642
 31
0.0
  0
LINE
  5
3CCC1A
  8
OUTLINE
  6
CONTINUOUS
 62
     3
 10
-316.8409040195401
 20
-84.02900842493642
 30
0.0
 11
-316.6560652009997
 21
-84.31679140178397
 31
0.0
  0
LINE
  5
3CCC1B
  8
OUTLINE
  6
CONTINUOUS
 62
     3
 10
-316.6560652009997
 20
-84.31679140178397
 30
0.0
 11
-316.4746533774134
 21
-84.60260944894054
 31
0.0
  0
LINE
  5
3CCC1C
  8
OUTLINE
  6
CONTINUOUS
 62
     3
 10
-316.4746533774134
 20
-84.60260944894054
 30
0.0
 11
-316.1056420731208
 21
-85.20976456242062
 31
0.0
  0
LINE
  5
3CCC1D
  8
OUTLINE
  6
CONTINUOUS
 62
     3
 10
-316.1056420731208
 20
-85.20976456242062
 30
0.0
 11
-315.748976783972
 21
-85.81303717487509
 31
0.0
  0
LINE
  5
3CCC1E
  8
OUTLINE
  6
CONTINUOUS
 62
     3
 10
-315.748976783972
 20
-85.81303717487509
 30
0.0
 11
-315.748976783972
 21
-85.81303717487509
 31
0.0
  0
LINE
  5
3CCC1F
  8
OUTLINE
  6
CONTINUOUS
 62
     3
 10
-315.748976783972
 20
-85.81303717487509
 30
0.0
 11
-315.414295556875
 21
-86.40946197935745
 31
0.0
  0
LINE
  5
3CCC20
  8
OUTLINE
  6
CONTINUOUS
 62
     3
 10
-315.414295556875
 20
-86.40946197935745
 30
0.0
 11
-315.1004045657994
 21
-86.99974244524111
 31
0.0
  0
LINE
  5
3CCC21
  8
OUTLINE
  6
CONTINUOUS
 62
     3
 10
-315.1004045657994
 20
-86.99974244524111
 30
0.0
 11
-315.1004045657994
 21
-86.99974244524111
 31
0.0
  0
LINE
  5
3CCC22
  8
OUTLINE
  6
CONTINUOUS
 62
     3
 10
-315.1004045657994
 20
-86.99974244524111
 30
0.0
 11
-314.803997962825
 21
-87.58527246128307
 31
0.0
  0
LINE
  5
3CCC23
  8
OUTLINE
  6
CONTINUOUS
 62
     3
 10
-314.803997962825
 20
-87.58527246128307
 30
0.0
 11
-314.5241536854142
 21
-88.16653881745702
 31
0.0
  0
LINE
  5
3CCC24
  8
OUTLINE
  6
CONTINUOUS
 62
     3
 10
-314.5241536854142
 20
-88.16653881745702
 30
0.0
 11
-314.5241536854142
 21
-88.16653881745702
 31
0.0
  0
LINE
  5
3CCC25
  8
OUTLINE
  6
CONTINUOUS
 62
     3
 10
-314.5241536854142
 20
-88.16653881745702
 30
0.0
 11
-314.2608698002268
 21
-88.74379143374512
 31
0.0
  0
LINE
  5
3CCC26
  8
OUTLINE
  6
CONTINUOUS
 62
     3
 10
-314.2608698002268
 20
-88.74379143374512
 30
0.0
 11
-314.0154411053333
 21
-89.31723984894103
 31
0.0
  0
LINE
  5
3CCC27
  8
OUTLINE
  6
CONTINUOUS
 62
     3
 10
-314.0154411053333
 20
-89.31723984894103
 30
0.0
 11
-314.0154411053333
 21
-89.31723984894103
 31
0.0
  0
LINE
  5
3CCC28
  8
OUTLINE
  6
CONTINUOUS
 62
     3
 10
-314.0154411053333
 20
-89.31723984894103
 30
0.0
 11
-313.7875939039012
 21
-89.88735066242515
 31
0.0
  0
LINE
  5
3CCC29
  8
OUTLINE
  6
CONTINUOUS
 62
     3
 10
-313.7875939039012
 20
-89.88735066242515
 30
0.0
 11
-313.5694837880764
 21
-90.45565909711155
 31
0.0
  0
ARC
  5
3CCC2A
  8
OUTLINE
  6
CONTINUOUS
 62
     3
 10
-49.59955424900545
 20
-333.9703808177574
 30
0.0
 40
29.44146685472505
 50
10.55563595389594
 51
69.81236171119629
  0
ARC
  5
3CCC2B
  8
OUTLINE
  6
CONTINUOUS
 62
     3
 10
-69.62776299341999
 20
-353.9985895630606
 30
0.0
 40
49.46967559913961
 50
105.5308765329988
 51
158.1134446232994
  0
ARC
  5
3CCC2C
  8
OUTLINE
  6
CONTINUOUS
 62
     3
 10
-69.62776299341999
 20
353.9985895630606
 30
0.0
 40
49.46967559913949
 50
201.8865553767006
 51
254.4691234670012
  0
ARC
  5
3CCC2D
  8
OUTLINE
  6
CONTINUOUS
 62
     3
 10
-49.59955424900545
 20
333.9703808177572
 30
0.0
 40
29.44146685472515
 50
290.1876382888037
 51
0.0
  0
LINE
  5
3CCC2E
  8
BASIS
  6
DASHDOT
 62
     6
 10
-368.2603037463047
 20
0.3318794186411651
 30
0.0
 11
69.42997891898744
 21
0.3318794186411651
 31
0.0
  0
ARC
  5
3CCC2F
  8
DETAIL
  6
CONTINUOUS
 62
     5
 39
100.0110508798745
 10
-204.5839593916116
 20
205.3159498582091
 30
0.0
 40
69.93895425864483
 50
87.40168695908453
 51
163.1270924066044
  0
ARC
  5
3CCC30
  8
DETAIL
  6
CONTINUOUS
 62
     5
 39
100.0110508798745
 10
-204.5252989112271
 20
189.9318576164655
 30
0.0
 40
112.2022616083511
 50
88.41070150780355
 51
159.1832606636568
  0
ARC
  5
3CCC31
  8
DETAIL
  6
CONTINUOUS
 62
     5
 39
100.0110508798745
 10
-204.9444903665674
 20
196.8676084063902
 30
0.0
 40
109.5289074710752
 50
88.15251528064809
 51
162.498509023287
  0
ARC
  5
3CCC32
  8
DETAIL
  6
CONTINUOUS
 62
     5
 39
100.0110508798745
 10
-7.591336786508334
 20
289.7754446759592
 30
0.0
 40
2.558026133910259
 50
103.4894991332413
 51
176.2833784633538
  0
ARC
  5
3CCC33
  8
DETAIL
  6
CONTINUOUS
 62
     5
 39
100.0110508798745
 10
-11.55934115539416
 20
307.8180576666126
 30
0.0
 40
15.91629810885141
 50
282.2287011017391
 51
301.970668686743
  0
ARC
  5
3CCC34
  8
DETAIL
  6
CONTINUOUS
 62
     5
 39
100.0110508798745
 10
-8.374836210254614
 20
289.5749388448978
 30
0.0
 40
6.28617640161783
 50
107.9272538195846
 51
176.6592435564331
  0
ARC
  5
3CCC35
  8
DETAIL
  6
CONTINUOUS
 62
     5
 39
100.0110508798745
 10
-13.20971840685199
 20
304.8550978670283
 30
0.0
 40
9.74087022000691
 50
287.3200174822002
 51
324.9323003295749
  0
ARC
  5
3CCC36
  8
DETAIL
  6
CONTINUOUS
 62
     5
 39
100.0110508798745
 10
-8.280686685600545
 20
339.0415137458884
 30
0.0
 40
6.41954977823363
 50
106.8731290557907
 51
172.8509958601492
  0
ARC
  5
3CCC37
  8
DETAIL
  6
CONTINUOUS
 62
     5
 39
100.0110508798745
 10
-13.31453070580334
 20
355.3266004055409
 30
0.0
 40
10.62593534614739
 50
287.3602213259222
 51
319.4787019706374
  0
ARC
  5
3CCC38
  8
DETAIL
  6
CONTINUOUS
 62
     5
 39
66.047179843155
 10
16.02212528651857
 20
132.6520981755482
 30
0.0
 40
182.9168723468302
 50
189.3917509139545
 51
214.4728013616228
  0
ARC
  5
3CCC39
  8
DETAIL
  6
CONTINUOUS
 62
     5
 39
66.047179843155
 10
-853.4451214782397
 20
-296.5881418358902
 30
0.0
 40
863.5573507922581
 50
31.80230078863026
 51
41.45092853803527
  0
ARC
  5
3CCC3A
  8
DETAIL
  6
CONTINUOUS
 62
     5
 39
59.67118
 10
-572.5781558247828
 20
58.01795759226283
 30
0.0
 40
410.585086851134
 50
6.262063508365451
 51
31.48802479115106
  0
ARC
  5
3CCC3B
  8
DETAIL
  6
CONTINUOUS
 62
     5
 39
59.67118
 10
-144.3111058793726
 20
46.9628277443375
 30
0.0
 40
219.3066665916724
 50
245.9729238717896
 51
252.1207175430704
  0
ARC
  5
3CCC3C
  8
DETAIL
  6
CONTINUOUS
 62
     5
 39
59.67118
 10
-233.5877153710256
 20
-159.1092870865094
 30
0.0
 40
5.767709608468635
 50
90.1799549742647
 51
196.8500607385874
  0
ARC
  5
3CCC3D
  8
DETAIL
  6
CONTINUOUS
 62
     5
 39
59.67118
 10
1.453702010204611
 20
-86.56356068299182
 30
0.0
 40
251.7500495851924
 50
197.1459466714095
 51
228.525177522299
  0
ARC
  5
3CCC3E
  8
DETAIL
  6
CONTINUOUS
 62
     5
 39
50.0
 10
890.1705587115869
 20
-446.1798890731937
 30
0.0
 40
1167.110132691897
 50
153.6967132860802
 51
156.1375714346202
  0
ARC
  5
3CCC3F
  8
DETAIL
  6
CONTINUOUS
 62
     5
 39
50.0
 10
-204.9147520367241
 20
-139.9795309182074
 30
0.0
 40
22.78828161166911
 50
252.8327230812002
 51
281.5429110548569
  0
ARC
  5
3CCC40
  8
DETAIL
  6
CONTINUOUS
 62
     5
 39
50.0
 10
-193.2902446492411
 20
-187.8240735705345
 30
0.0
 40
26.47702065831275
 50
74.92609462283131
 51
105.4749750703018
  0
ARC
  5
3CCC41
  8
DETAIL
  6
CONTINUOUS
 62
     5
 39
50.0
 10
-184.6695986991666
 20
-154.9615014201348
 30
0.0
 40
7.500012779111902
 50
256.6251805459898
 51
342.2941385568123
  0
ARC
  5
3CCC42
  8
DETAIL
  6
CONTINUOUS
 62
     5
 39
50.0
 10
-142.3108660178329
 20
-168.5275164438232
 30
0.0
 40
36.97806424611337
 50
141.9785219896892
 51
162.2308981661304
  0
ARC
  5
3CCC43
  8
DETAIL
  6
CONTINUOUS
 62
     5
 39
50.0
 10
-191.6260351314305
 20
-128.8697700787325
 30
0.0
 40
26.31313488069779
 50
320.0934586231802
 51
0.1396131129502674
  0
ARC
  5
3CCC44
  8
DETAIL
  6
CONTINUOUS
 62
     5
 39
50.0
 10
-90.8155868460061
 20
-130.2477859593864
 30
0.0
 40
74.51134874620105
 50
165.5530279798167
 51
178.8909970079797
  0
ARC
  5
3CCC45
  8
DETAIL
  6
CONTINUOUS
 62
     5
 39
50.0
 10
720.5405691550413
 20
-320.0777365641646
 30
0.0
 40
907.8498349310349
 50
165.4584632762806
 51
166.7266528135127
  0
ARC
  5
3CCC46
  8
DETAIL
  6
CONTINUOUS
 62
     5
 39
50.0
 10
-158.0373991254726
 20
-93.8699345226595
 30
0.0
 40
1.747096220616066
 50
67.40164259156168
 51
96.23311712371935
  0
ARC
  5
3CCC47
  8
DETAIL
  6
CONTINUOUS
 62
     5
 39
50.0
 10
-1450.140481742599
 20
117.7337852756306
 30
0.0
 40
1309.718060465098
 50
350.7737874835113
 51
351.075375520162
  0
ARC
  5
3CCC48
  8
DETAIL
  6
CONTINUOUS
 62
     5
 39
50.0
 10
-9588.083204626164
 20
6689.780023462883
 30
0.0
 40
11613.03864227805
 50
324.3088533298501
 51
324.4852621175484
  0
ARC
  5
3CCC49
  8
DETAIL
  6
CONTINUOUS
 62
     5
 39
50.0
 10
-143.3989264774394
 20
-51.15963634681732
 30
0.0
 40
9.497186689992846
 50
326.6284104665971
 51
356.6146193539317
  0
ARC
  5
3CCC4A
  8
DETAIL
  6
CONTINUOUS
 62
     5
 39
50.0
 10
-60.81638026847013
 20
0.7400242390050774
 30
0.0
 40
95.97520067966848
 50
151.7330373970889
 51
174.0738240117266
  0
ARC
  5
3CCC4B
  8
DETAIL
  6
CONTINUOUS
 62
     5
 39
50.0
 10
-215.1449298040621
 20
-52.37889627582089
 30
0.0
 40
86.24253287554623
 50
46.34086695346124
 51
46.95547428795891
  0
ARC
  5
3CCC4C
  8
DETAIL
  6
CONTINUOUS
 62
     5
 39
50.0
 10
-2248.30725484279
 20
652.6446508037635
 30
0.0
 40
2157.084778296118
 50
338.6555796923204
 51
340.1047532711115
  0
ARC
  5
3CCC4D
  8
DETAIL
  6
CONTINUOUS
 62
     5
 39
50.0
 10
-529.5005834709507
 20
87.22059439620169
 30
0.0
 40
368.0931071845151
 50
322.9608389085087
 51
332.7332515583111
  0
ARC
  5
3CCC4E
  8
DETAIL
  6
CONTINUOUS
 62
     5
 39
50.0
 10
-236.9450835700401
 20
-132.6553079471292
 30
0.0
 40
2.240404756840685
 50
175.4331920272616
 51
304.3843082577973
  0
ARC
  5
3CCC4F
  8
DETAIL
  6
CONTINUOUS
 62
     5
 39
100.0110508798745
 10
-203.2080617539398
 20
-203.6597068661186
 30
0.0
 40
71.54580622315834
 50
197.3136906439212
 51
271.4373822992749
  0
ARC
  5
3CCC50
  8
DETAIL
  6
CONTINUOUS
 62
     5
 39
100.0110508798745
 10
-203.8490492286847
 20
-190.8226518310615
 30
0.0
 40
111.2949599589308
 50
198.2172113969294
 51
271.2540092378572
  0
ARC
  5
3CCC51
  8
DETAIL
  6
CONTINUOUS
 62
     5
 39
100.0110508798745
 10
-204.1688656764738
 20
-197.2191683884397
 30
0.0
 40
109.1551977334476
 50
195.0788646105685
 51
271.4465153688025
  0
ARC
  5
3CCC52
  8
DETAIL
  6
CONTINUOUS
 62
     5
 39
100.0110508798745
 10
-7.591336786508334
 20
-289.1116858386769
 30
0.0
 40
2.558026133910259
 50
183.7166215366463
 51
256.5105008667587
  0
ARC
  5
3CCC53
  8
DETAIL
  6
CONTINUOUS
 62
     5
 39
100.0110508798745
 10
-11.55934115539416
 20
-307.1542988293302
 30
0.0
 40
15.91629810885141
 50
58.029331313257
 51
77.77129889826084
  0
ARC
  5
3CCC54
  8
DETAIL
  6
CONTINUOUS
 62
     5
 39
100.0110508798745
 10
-8.374836210254614
 20
-288.9111800076154
 30
0.0
 40
6.28617640161783
 50
183.3407564435669
 51
252.0727461804154
  0
ARC
  5
3CCC55
  8
DETAIL
  6
CONTINUOUS
 62
     5
 39
100.0110508798745
 10
-13.20971840685199
 20
-304.191339029746
 30
0.0
 40
9.74087022000691
 50
35.06769967042509
 51
72.6799825177998
  0
ARC
  5
3CCC56
  8
DETAIL
  6
CONTINUOUS
 62
     5
 39
100.0110508798745
 10
-8.280686685600545
 20
-338.3777549086061
 30
0.0
 40
6.41954977823363
 50
187.1490041398508
 51
253.1268709442093
  0
ARC
  5
3CCC57
  8
DETAIL
  6
CONTINUOUS
 62
     5
 39
100.0110508798745
 10
-13.31453070580334
 20
-354.6628415682586
 30
0.0
 40
10.62593534614739
 50
40.52129802936264
 51
72.63977867407783
  0
ARC
  5
3CCC58
  8
DETAIL
  6
CONTINUOUS
 62
     5
 39
50.0
 10
-144.7215610182604
 20
25.05297189214095
 30
0.0
 40
10.74659243520457
 50
358.6744394634579
 51
22.22844909605487
  0
ARC
  5
3CCC59
  8
OUTLINE
  6
CONTINUOUS
 62
     3
 39
100.0110508798745
 10
-204.9444903665764
 20
196.8676084063904
 30
0.0
 40
109.5289074710752
 50
88.15251528064331
 51
162.4985090232883
  0
ARC
  5
3CCC5A
  8
OUTLINE
  6
CONTINUOUS
 62
     3
 39
100.0110508798745
 10
-8.28068668560968
 20
339.0415137458888
 30
0.0
 40
6.41954977823363
 50
106.8731290557877
 51
172.8509958601487
  0
ARC
  5
3CCC5B
  8
OUTLINE
  6
CONTINUOUS
 62
     3
 39
100.0110508798745
 10
-204.1688656764829
 20
-197.2191683884395
 30
0.0
 40
109.1551977334476
 50
195.0788646105688
 51
271.4465153688059
  0
ARC
  5
3CCC5C
  8
OUTLINE
  6
CONTINUOUS
 62
     3
 39
100.0110508798745
 10
-8.28068668560968
 20
-338.3777549086061
 30
0.0
 40
6.41954977823363
 50
187.1490041398513
 51
253.1268709442122
  0
TEXT
  5
3CCC5D
  8
ETC
  6
CONTINUOUS
 62
    61
 10
441.356616915223
 20
457.0148415557719
 30
0.0
 40
40.0
  1
EWG-60FTA
 41
0.9
  0
TEXT
  5
3CCC5E
  8
ETC
  6
CONTINUOUS
 62
    61
 10
441.356616915223
 20
391.0148415557719
 30
0.0
 40
40.0
  1
EWG-60FTA-PR
 41
0.9
  0
ENDSEC
  0
EOF
