  0
SECTION
  2
HEADER
  9
$ACADVER
  1
AC1009
  9
$DWGCODEPAGE
  3
dos932
  9
$INSBASE
 10
0.0
 20
0.0
 30
0.0
  9
$EXTMIN
 10
-923.59312343596685
 20
-658.81346510585172
 30
-0.0015258207003583
  9
$EXTMAX
 10
1340.5243039253669
 20
521.34705383953042
 30
0.0000000349246037
  9
$LIMMIN
 10
-2970.0
 20
-2100.0
  9
$LIMMAX
 10
2970.0
 20
2100.0
  9
$ORTHOMODE
 70
     1
  9
$REGENMODE
 70
     1
  9
$FILLMODE
 70
     1
  9
$QTEXTMODE
 70
     0
  9
$MIRRTEXT
 70
     0
  9
$LTSCALE
 40
20.0
  9
$ATTMODE
 70
     1
  9
$TEXTSIZE
 40
64.0
  9
$TRACEWID
 40
0.05
  9
$TEXTSTYLE
  7
STANDARD
  9
$CLAYER
  8
SIZE
  9
$CELTYPE
  6
CONTINUOUS
  9
$CECOLOR
 62
     7
  9
$DIMSCALE
 40
1.0
  9
$DIMASZ
 40
12.0
  9
$DIMEXO
 40
20.0
  9
$DIMDLI
 40
200.0
  9
$DIMRND
 40
0.0
  9
$DIMDLE
 40
0.0
  9
$DIMEXE
 40
20.0
  9
$DIMTP
 40
0.0
  9
$DIMTM
 40
0.0
  9
$DIMTXT
 40
64.0
  9
$DIMCEN
 40
0.09
  9
$DIMTSZ
 40
0.0
  9
$DIMTOL
 70
     0
  9
$DIMLIM
 70
     0
  9
$DIMTIH
 70
     0
  9
$DIMTOH
 70
     0
  9
$DIMSE1
 70
     0
  9
$DIMSE2
 70
     0
  9
$DIMTAD
 70
     1
  9
$DIMZIN
 70
     8
  9
$DIMBLK
  1

  9
$DIMASO
 70
     1
  9
$DIMSHO
 70
     0
  9
$DIMPOST
  1

  9
$DIMAPOST
  1

  9
$DIMALT
 70
     0
  9
$DIMALTD
 70
     2
  9
$DIMALTF
 40
25.399999999999999
  9
$DIMLFAC
 40
1.0
  9
$DIMTOFL
 70
     1
  9
$DIMTVP
 40
0.0
  9
$DIMTIX
 70
     1
  9
$DIMSOXD
 70
     0
  9
$DIMSAH
 70
     0
  9
$DIMBLK1
  1

  9
$DIMBLK2
  1

  9
$DIMSTYLE
  2
STANDARD
  9
$DIMCLRD
 70
     7
  9
$DIMCLRE
 70
     7
  9
$DIMCLRT
 70
     7
  9
$DIMTFAC
 40
1.0
  9
$DIMGAP
 40
25.0
  9
$LUNITS
 70
     2
  9
$LUPREC
 70
     4
  9
$SKETCHINC
 40
0.1
  9
$FILLETRAD
 40
3.0
  9
$AUNITS
 70
     1
  9
$AUPREC
 70
     3
  9
$MENU
  1
ACAD
  9
$ELEVATION
 40
0.0
  9
$PELEVATION
 40
0.0
  9
$THICKNESS
 40
0.0
  9
$LIMCHECK
 70
     0
  9
$CHAMFERA
 40
0.0
  9
$CHAMFERB
 40
0.0
  9
$SKPOLY
 70
     0
  9
$TDCREATE
 40
2453019.62301037
  9
$TDUPDATE
 40
2458949.459495602
  9
$TDINDWG
 40
1.7132451505
  9
$TDUSRTIMER
 40
1.7132451505
  9
$USRTIMER
 70
     1
  9
$ANGBASE
 50
0.0
  9
$ANGDIR
 70
     0
  9
$PDMODE
 70
     3
  9
$PDSIZE
 40
-2.0
  9
$PLINEWID
 40
0.0
  9
$SPLFRAME
 70
     0
  9
$SPLINETYPE
 70
     6
  9
$SPLINESEGS
 70
     8
  9
$SURFTAB1
 70
     6
  9
$SURFTAB2
 70
     6
  9
$SURFTYPE
 70
     6
  9
$SURFU
 70
     6
  9
$SURFV
 70
     6
  9
$UCSNAME
  2

  9
$UCSORG
 10
0.0
 20
0.0
 30
0.0
  9
$UCSXDIR
 10
1.0
 20
0.0
 30
0.0
  9
$UCSYDIR
 10
0.0
 20
1.0
 30
0.0
  9
$PUCSNAME
  2

  9
$PUCSORG
 10
0.0
 20
0.0
 30
0.0
  9
$PUCSXDIR
 10
1.0
 20
0.0
 30
0.0
  9
$PUCSYDIR
 10
0.0
 20
1.0
 30
0.0
  9
$USERI1
 70
     0
  9
$USERI2
 70
     0
  9
$USERI3
 70
     0
  9
$USERI4
 70
     0
  9
$USERI5
 70
     0
  9
$USERR1
 40
20.0
  9
$USERR2
 40
0.0
  9
$USERR3
 40
0.0
  9
$USERR4
 40
0.0
  9
$USERR5
 40
0.0
  9
$WORLDVIEW
 70
     1
  9
$SHADEDGE
 70
     3
  9
$SHADEDIF
 70
    70
  9
$TILEMODE
 70
     1
  9
$MAXACTVP
 70
    48
  9
$PINSBASE
 10
0.0
 20
0.0
 30
0.0
  9
$PLIMCHECK
 70
     0
  9
$PEXTMIN
 10
-100000000000000000000.0
 20
-100000000000000000000.0
 30
-100000000000000000000.0
  9
$PEXTMAX
 10
100000000000000000000.0
 20
100000000000000000000.0
 30
100000000000000000000.0
  9
$PLIMMIN
 10
0.0
 20
0.0
  9
$PLIMMAX
 10
12.0
 20
9.0
  9
$UNITMODE
 70
     0
  9
$VISRETAIN
 70
     0
  9
$PLINEGEN
 70
     0
  9
$PSLTSCALE
 70
     0
  9
$TREEDEPTH
 70
  3020
  9
$ATTDIA
 70
     0
  9
$ATTREQ
 70
     1
  9
$BLIPMODE
 70
     1
  9
$COORDS
 70
     1
  9
$DRAGMODE
 70
     2
  9
$OSMODE
 70
     0
  9
$HANDLING
 70
     0
  9
$HANDSEED
  5
FA8B
  0
ENDSEC
  0
SECTION
  2
TABLES
  0
TABLE
  2
LTYPE
 70
     2
  0
LTYPE
  2
CONTINUOUS
 70
     0
  3
実線
 72
    65
 73
     0
 40
0.0
  0
LTYPE
  2
DASHDOT
 70
     0
  3
____ _ ____ _ ____ _ ____ _ ____ _ ____ _ ____
 72
    65
 73
     4
 40
5.5
 49
4.0
 49
-0.6
 49
0.3
 49
-0.6
  0
ENDTAB
  0
TABLE
  2
LAYER
 70
    12
  0
LAYER
  2
0
 70
     0
 62
     7
  6
CONTINUOUS
  0
LAYER
  2
BASIS
 70
     0
 62
     6
  6
DASHDOT
  0
LAYER
  2
OUTLINE
 70
     0
 62
     3
  6
CONTINUOUS
  0
LAYER
  2
DETAIL
 70
     0
 62
     5
  6
CONTINUOUS
  0
LAYER
  2
SIZE
 70
     0
 62
    30
  6
CONTINUOUS
  0
LAYER
  2
ARRANGE
 70
     0
 62
     1
  6
CONTINUOUS
  0
LAYER
  2
DEFPOINTS
 70
     0
 62
     7
  6
CONTINUOUS
  0
LAYER
  2
ETC
 70
     0
 62
    61
  6
CONTINUOUS
  0
LAYER
  2
FIX
 70
     0
 62
    11
  6
CONTINUOUS
  0
LAYER
  2
NOTE
 70
     0
 62
     4
  6
CONTINUOUS
  0
LAYER
  2
SERVICESPACE
 70
    64
 62
     2
  6
DASHDOT
  0
LAYER
  2
SYMBOLLINE
 70
    64
 62
    15
  6
CONTINUOUS
  0
ENDTAB
  0
TABLE
  2
STYLE
 70
     1
  0
STYLE
  2
STANDARD
 70
     0
 40
64.0
 41
0.9
 50
0.0
 71
     0
 42
64.0
  3
SIMPLEX.shx
  4
BIGFONT.shx
  0
ENDTAB
  0
TABLE
  2
APPID
 70
    19
  0
APPID
  2
ACAD
 70
     0
  0
APPID
  2
AUTOCAD_POSTSCRIPT_FIGURE
 70
     0
  0
APPID
  2
ACAD_EXEMPT_FROM_CAD_STANDARDS
 70
     0
  0
APPID
  2
ACAD_PSEXT
 70
     0
  0
APPID
  2
ACAUTHENVIRON
 70
     0
  0
APPID
  2
GENIUS_GENOENT_13
 70
     0
  0
APPID
  2
GENIUS_GENCFG_13
 70
     0
  0
APPID
  2
GENIUS_GENCFG0_13
 70
     0
  0
APPID
  2
GENIUS_GENCFG1_13
 70
     0
  0
APPID
  2
GENIUS_GENCFG2_13
 70
     0
  0
APPID
  2
GENIUS_GENCFG3_13
 70
     0
  0
APPID
  2
GENIUS_GENCFG4_13
 70
     0
  0
APPID
  2
GENIUS_GEVCFG0_13
 70
     0
  0
APPID
  2
CONTENTBLOCKICON
 70
     0
  0
APPID
  2
CONTENTBLOCKDESCRIPTION
 70
     0
  0
APPID
  2
ACAD_NAV_VCDISPLAY
 70
     0
  0
APPID
  2
ACAD_MLEADERVER
 70
     0
  0
APPID
  2
ACDBDYNAMICBLOCKTRUENAME
 70
     0
  0
APPID
  2
ACDBDYNAMICBLOCKGUID
 70
     0
  0
ENDTAB
  0
TABLE
  2
DIMSTYLE
 70
     1
  0
DIMSTYLE
  2
STANDARD
 70
     0
  3

  4

  5
_ORIGIN
  6

  7

 40
1.0
 41
12.0
 42
20.0
 43
200.0
 44
20.0
 45
0.0
 46
0.0
 47
0.0
 48
0.0
140
64.0
141
0.09
142
0.0
143
25.399999999999999
144
1.0
145
0.0
146
1.0
147
25.0
 71
     0
 72
     0
 73
     0
 74
     0
 75
     0
 76
     0
 77
     1
 78
     8
170
     0
171
     2
172
     1
173
     0
174
     1
175
     0
176
     7
177
     7
178
     7
  0
ENDTAB
  0
TABLE
  2
VIEW
 70
     1
  0
VIEW
  2
ALL
 70
     0
 40
4282.6198079999986
 10
0.0
 20
41.309904000000003
 41
5940.0
 11
0.0
 21
0.0
 31
1.0
 12
0.0
 22
0.0
 32
0.0
 42
50.0
 43
0.0
 44
0.0
 50
0.0
 71
     0
  0
ENDTAB
  0
TABLE
  2
UCS
 70
     0
  0
ENDTAB
  0
TABLE
  2
VPORT
 70
     1
  0
VPORT
  2
*ACTIVE
 70
     0
 10
0.0
 20
0.0
 11
1.0
 21
1.0
 12
208.46559024470011
 22
-68.733205633160651
 13
0.0
 23
0.0
 14
1.0
 24
1.0
 15
0.0
 25
0.0
 16
0.0
 26
0.0
 36
1.0
 17
0.0
 27
0.0
 37
0.0
 40
1300.3329622980721
 41
1.747787610619469
 42
50.0
 43
0.0
 44
0.0
 50
0.0
 51
0.0
 71
     0
 72
  1000
 73
     1
 74
     3
 75
     0
 76
     0
 77
     0
 78
     0
  0
ENDTAB
  0
ENDSEC
  0
SECTION
  2
BLOCKS
  0
BLOCK
  8
0
  2
_ORIGIN
 70
     0
 10
0.0
 20
0.0
 30
0.0
  3
_ORIGIN
  1
_ORIGIN
  0
CIRCLE
  8
0
  6
CONTINUOUS
 62
     7
 10
0.0
 20
0.0
 30
0.0
 40
0.5
  0
LINE
  8
0
  6
CONTINUOUS
 62
     7
 10
0.0
 20
0.0
 30
0.0
 11
-1.0
 21
0.0
 31
0.0
  0
ENDBLK
  8
0
  0
ENDSEC
  0
SECTION
  2
ENTITIES
  0
POINT
  8
ARRANGE
  6
CONTINUOUS
 62
     1
 10
0.0
 20
0.0
 30
0.0
  0
CIRCLE
  8
ARRANGE
  6
CONTINUOUS
 62
     1
 10
0.0
 20
0.0
 30
0.0
 40
40.0
  0
LINE
  8
DETAIL
  6
CONTINUOUS
 62
     5
 10
470.44999999999982
 20
-0.7029437252000435
 30
0.0
 11
470.45132997409968
 21
-0.800702829400052
 31
0.0
  0
LINE
  8
DETAIL
  6
CONTINUOUS
 62
     5
 10
470.45132997409968
 20
-0.800702829400052
 30
0.0
 11
470.45532354630001
 21
-0.903488619700056
 31
0.0
  0
LINE
  8
DETAIL
  6
CONTINUOUS
 62
     5
 10
470.45532354630001
 20
-0.903488619700056
 30
0.0
 11
470.46197369489983
 21
-1.010972483700016
 31
0.0
  0
LINE
  8
DETAIL
  6
CONTINUOUS
 62
     5
 10
470.46197369489983
 20
-1.010972483700016
 30
0.0
 11
470.47130878439981
 21
-1.122839631800048
 31
0.0
  0
LINE
  8
DETAIL
  6
CONTINUOUS
 62
     5
 10
470.47130878439981
 20
-1.122839631800048
 30
0.0
 11
470.4833401400997
 21
-1.238779708000038
 31
0.0
  0
LINE
  8
DETAIL
  6
CONTINUOUS
 62
     5
 10
470.4833401400997
 20
-1.238779708000038
 30
0.0
 11
470.49811185859971
 21
-1.358381243300073
 31
0.0
  0
LINE
  8
DETAIL
  6
CONTINUOUS
 62
     5
 10
470.49811185859971
 20
-1.358381243300073
 30
0.0
 11
470.5156512323997
 21
-1.481203814500077
 31
0.0
  0
LINE
  8
DETAIL
  6
CONTINUOUS
 62
     5
 10
470.5156512323997
 20
-1.481203814500077
 30
0.0
 11
470.53601999949979
 21
-1.6069330804999711
 31
0.0
  0
LINE
  8
DETAIL
  6
CONTINUOUS
 62
     5
 10
470.53601999949979
 20
-1.6069330804999711
 30
0.0
 11
470.55927252140009
 21
-1.7352510617000689
 31
0.0
  0
LINE
  8
DETAIL
  6
CONTINUOUS
 62
     5
 10
470.55927252140009
 20
-1.7352510617000689
 30
0.0
 11
470.58545821949969
 21
-1.865693756899987
 31
0.0
  0
LINE
  8
DETAIL
  6
CONTINUOUS
 62
     5
 10
470.58545821949969
 20
-1.865693756899987
 30
0.0
 11
470.61460961779989
 21
-1.9978117093000951
 31
0.0
  0
LINE
  8
DETAIL
  6
CONTINUOUS
 62
     5
 10
470.61460961779989
 20
-1.9978117093000951
 30
0.0
 11
470.64683177000012
 21
-2.131189094400042
 31
0.0
  0
LINE
  8
DETAIL
  6
CONTINUOUS
 62
     5
 10
470.64683177000012
 20
-2.131189094400042
 30
0.0
 11
470.68225505810011
 21
-2.2653912340000488
 31
0.0
  0
LINE
  8
DETAIL
  6
CONTINUOUS
 62
     5
 10
470.68225505810011
 20
-2.2653912340000488
 30
0.0
 11
470.72083602150002
 21
-2.4000000000000909
 31
0.0
  0
LINE
  8
DETAIL
  6
CONTINUOUS
 62
     5
 10
475.0
 20
-2.4000000000000909
 30
0.0
 11
475.0
 21
-35.000000000000107
 31
0.0
  0
LINE
  8
DETAIL
  6
CONTINUOUS
 62
     5
 10
473.79999999999973
 20
-2.4000000000000909
 30
0.0
 11
473.79999999999973
 21
-4.5467842369999971
 31
0.0
  0
LINE
  8
DETAIL
  6
CONTINUOUS
 62
     5
 10
473.79999999999973
 20
-4.5467842369999971
 30
0.0
 11
473.79999999999973
 21
-35.000000000000107
 31
0.0
  0
LINE
  8
DETAIL
  6
CONTINUOUS
 62
     5
 10
472.59999999999991
 20
-1.200000000000045
 30
0.0
 11
472.59999999999991
 21
-0.0000000000001137
 31
0.0
  0
LINE
  8
DETAIL
  6
CONTINUOUS
 62
     5
 10
470.72083602150002
 20
-1.200000000000045
 30
0.0
 11
470.72083602150002
 21
-0.0000000000001137
 31
0.0
  0
LINE
  8
DETAIL
  6
CONTINUOUS
 62
     5
 10
469.0
 20
-94.200000000000045
 30
0.0
 11
469.0
 21
-95.400000000000091
 31
0.0
  0
LINE
  8
DETAIL
  6
CONTINUOUS
 62
     5
 10
418.69999999999982
 20
-35.000000000000107
 30
0.0
 11
418.69999999999982
 21
-45.400000000000091
 31
0.0
  0
LINE
  8
DETAIL
  6
CONTINUOUS
 62
     5
 10
396.26760929129978
 20
-123.95
 30
0.0
 11
396.26760929129978
 21
-118.45
 31
0.0
  0
LINE
  8
DETAIL
  6
CONTINUOUS
 62
     5
 10
396.09987745109993
 20
-122.95
 30
0.0
 11
396.09987745109993
 21
-119.45
 31
0.0
  0
LINE
  8
DETAIL
  6
CONTINUOUS
 62
     5
 10
394.42936304680012
 20
-121.95
 30
0.0
 11
394.42936304680012
 21
-120.45
 31
0.0
  0
LINE
  8
DETAIL
  6
CONTINUOUS
 62
     5
 10
393.30173190189998
 20
-121.95
 30
0.0
 11
393.30173190189998
 21
-120.45
 31
0.0
  0
LINE
  8
DETAIL
  6
CONTINUOUS
 62
     5
 10
391.73607035609979
 20
-123.95
 30
0.0
 11
391.73607035609979
 21
-122.95
 31
0.0
  0
LINE
  8
DETAIL
  6
CONTINUOUS
 62
     5
 10
391.73607035609979
 20
-119.45
 30
0.0
 11
391.73607035609979
 21
-118.45
 31
0.0
  0
LINE
  8
DETAIL
  6
CONTINUOUS
 62
     5
 10
390.89987745109971
 20
-35.000000000000107
 30
0.0
 11
390.89987745109971
 21
-211.00000000000011
 31
0.0
  0
LINE
  8
DETAIL
  6
CONTINUOUS
 62
     5
 10
345.89987745109971
 20
-35.000000000000107
 30
0.0
 11
345.89987745109971
 21
-211.00000000000011
 31
0.0
  0
LINE
  8
DETAIL
  6
CONTINUOUS
 62
     5
 10
342.69987745109978
 20
-122.95
 30
0.0
 11
342.69987745109978
 21
-119.45
 31
0.0
  0
LINE
  8
DETAIL
  6
CONTINUOUS
 62
     5
 10
158.73757711059989
 20
-336.69999999999999
 30
0.0
 11
158.5744391622998
 21
-336.87251522150001
 31
0.0
  0
LINE
  8
DETAIL
  6
CONTINUOUS
 62
     5
 10
158.5744391622998
 20
-336.87251522150001
 30
0.0
 11
157.52877441179999
 21
-337.83844157049998
 31
0.0
  0
LINE
  8
DETAIL
  6
CONTINUOUS
 62
     5
 10
157.52877441179999
 20
-337.83844157049998
 30
0.0
 11
156.44172265230009
 21
-338.70783138389987
 31
0.0
  0
LINE
  8
DETAIL
  6
CONTINUOUS
 62
     5
 10
156.44172265230009
 20
-338.70783138389987
 30
0.0
 11
155.31782030699969
 21
-339.47793639380012
 31
0.0
  0
LINE
  8
DETAIL
  6
CONTINUOUS
 62
     5
 10
155.31782030699969
 20
-339.47793639380012
 30
0.0
 11
154.16145543489981
 21
-340.14499481619998
 31
0.0
  0
LINE
  8
DETAIL
  6
CONTINUOUS
 62
     5
 10
154.16145543489981
 20
-340.14499481619998
 30
0.0
 11
152.97745703829969
 21
-340.70695268060012
 31
0.0
  0
LINE
  8
DETAIL
  6
CONTINUOUS
 62
     5
 10
152.97745703829969
 20
-340.70695268060012
 30
0.0
 11
151.77290326669981
 21
-341.16008860090011
 31
0.0
  0
LINE
  8
DETAIL
  6
CONTINUOUS
 62
     5
 10
151.77290326669981
 20
-341.16008860090011
 30
0.0
 11
150.54543473690001
 21
-341.50564303930008
 31
0.0
  0
LINE
  8
DETAIL
  6
CONTINUOUS
 62
     5
 10
156.26381686739981
 20
-336.69999999999999
 30
0.0
 11
156.10130076699991
 21
-336.87185762939998
 31
0.0
  0
LINE
  8
DETAIL
  6
CONTINUOUS
 62
     5
 10
156.10130076699991
 20
-336.87185762939998
 30
0.0
 11
155.05563601640009
 21
-337.83778397840013
 31
0.0
  0
LINE
  8
DETAIL
  6
CONTINUOUS
 62
     5
 10
155.05563601640009
 20
-337.83778397840013
 30
0.0
 11
153.96858425699969
 21
-338.70717379180002
 31
0.0
  0
LINE
  8
DETAIL
  6
CONTINUOUS
 62
     5
 10
153.96858425699969
 20
-338.70717379180002
 30
0.0
 11
152.84468191159979
 21
-339.47727880180008
 31
0.0
  0
LINE
  8
DETAIL
  6
CONTINUOUS
 62
     5
 10
152.84468191159979
 20
-339.47727880180008
 30
0.0
 11
151.68831703960001
 21
-340.14433722420011
 31
0.0
  0
LINE
  8
DETAIL
  6
CONTINUOUS
 62
     5
 10
151.68831703960001
 20
-340.14433722420011
 30
0.0
 11
150.50431864289979
 21
-340.70629508849993
 31
0.0
  0
LINE
  8
DETAIL
  6
CONTINUOUS
 62
     5
 10
150.50431864289979
 20
-340.70629508849993
 30
0.0
 11
149.29976487129991
 21
-341.15943100890001
 31
0.0
  0
LINE
  8
DETAIL
  6
CONTINUOUS
 62
     5
 10
149.29976487129991
 20
-341.15943100890001
 30
0.0
 11
148.07229634150011
 21
-341.50498544719989
 31
0.0
  0
LINE
  8
DETAIL
  6
CONTINUOUS
 62
     5
 10
65.720803094299754
 20
-418.11944341639992
 30
0.0
 11
65.551911530499638
 21
-418.29550770659989
 31
0.0
  0
LINE
  8
DETAIL
  6
CONTINUOUS
 62
     5
 10
65.551911530499638
 20
-418.29550770659989
 30
0.0
 11
65.38656228939999
 21
-418.43994983450011
 31
0.0
  0
LINE
  8
DETAIL
  6
CONTINUOUS
 62
     5
 10
65.38656228939999
 20
-418.43994983450011
 30
0.0
 11
65.225447593099943
 21
-418.5528633455001
 31
0.0
  0
LINE
  8
DETAIL
  6
CONTINUOUS
 62
     5
 10
65.225447593099943
 20
-418.5528633455001
 30
0.0
 11
65.06649077539987
 21
-418.63396760370011
 31
0.0
  0
LINE
  8
DETAIL
  6
CONTINUOUS
 62
     5
 10
65.06649077539987
 20
-418.63396760370011
 30
0.0
 11
64.907615170299778
 21
-418.68298197349998
 31
0.0
  0
LINE
  8
DETAIL
  6
CONTINUOUS
 62
     5
 10
64.907615170299778
 20
-418.68298197349998
 30
0.0
 11
64.749512999799663
 21
-418.69999999999999
 31
0.0
  0
LINE
  8
DETAIL
  6
CONTINUOUS
 62
     5
 10
153.6071807052999
 20
-336.69999999999999
 30
0.0
 11
152.74186012919969
 21
-337.34078096159999
 31
0.0
  0
LINE
  8
DETAIL
  6
CONTINUOUS
 62
     5
 10
152.74186012919969
 20
-337.34078096159999
 30
0.0
 11
151.59789643529979
 21
-338.05058210879997
 31
0.0
  0
LINE
  8
DETAIL
  6
CONTINUOUS
 62
     5
 10
77.757333617400036
 20
-418.56781169279998
 30
0.0
 11
77.782711764300075
 21
-418.55272779360013
 31
0.0
  0
LINE
  8
DETAIL
  6
CONTINUOUS
 62
     5
 10
77.782711764300075
 20
-418.55272779360013
 30
0.0
 11
77.943792230999861
 21
-418.43979640269998
 31
0.0
  0
LINE
  8
DETAIL
  6
CONTINUOUS
 62
     5
 10
77.943792230999861
 20
-418.43979640269998
 30
0.0
 11
78.109066434999932
 21
-418.29540357629998
 31
0.0
  0
LINE
  8
DETAIL
  6
CONTINUOUS
 62
     5
 10
78.109066434999932
 20
-418.29540357629998
 30
0.0
 11
78.277838836099818
 21
-418.11944341639992
 31
0.0
  0
LINE
  8
DETAIL
  6
CONTINUOUS
 62
     5
 10
77.757326042999921
 20
-418.56761637039989
 30
0.0
 11
77.528030870400016
 21
-418.69999999999999
 31
0.0
  0
LINE
  8
DETAIL
  6
CONTINUOUS
 62
     5
 10
78.277838836099818
 20
-418.11944341639992
 30
0.0
 11
77.933167651699932
 21
-418.25331402120003
 31
0.0
  0
LINE
  8
DETAIL
  6
CONTINUOUS
 62
     5
 10
77.933167651699932
 20
-418.25331402120003
 30
0.0
 11
77.594204006200016
 21
-418.36981887669998
 31
0.0
  0
LINE
  8
DETAIL
  6
CONTINUOUS
 62
     5
 10
77.594204006200016
 20
-418.36981887669998
 30
0.0
 11
77.261963592100074
 21
-418.46896365219999
 31
0.0
  0
LINE
  8
DETAIL
  6
CONTINUOUS
 62
     5
 10
77.261963592100074
 20
-418.46896365219999
 30
0.0
 11
76.933399331999681
 21
-418.55073134019989
 31
0.0
  0
LINE
  8
DETAIL
  6
CONTINUOUS
 62
     5
 10
76.933399331999681
 20
-418.55073134019989
 30
0.0
 11
76.605920539499948
 21
-418.61534838050011
 31
0.0
  0
LINE
  8
DETAIL
  6
CONTINUOUS
 62
     5
 10
76.605920539499948
 20
-418.61534838050011
 30
0.0
 11
76.279173733199968
 21
-418.66209010030002
 31
0.0
  0
LINE
  8
DETAIL
  6
CONTINUOUS
 62
     5
 10
76.279173733199968
 20
-418.66209010030002
 30
0.0
 11
75.951789738899606
 21
-418.69022615779988
 31
0.0
  0
LINE
  8
DETAIL
  6
CONTINUOUS
 62
     5
 10
75.951789738899606
 20
-418.69022615779988
 30
0.0
 11
75.624224948099709
 21
-418.70000000010009
 31
0.0
  0
LINE
  8
DETAIL
  6
CONTINUOUS
 62
     5
 10
151.2447506886997
 20
-341.30877303810013
 30
0.0
 11
151.31774281729989
 21
-343.28048494640012
 31
0.0
  0
LINE
  8
DETAIL
  6
CONTINUOUS
 62
     5
 10
148.07229634150011
 20
-341.50498544719989
 30
0.0
 11
148.02764056550001
 21
-340.29871393249999
 31
0.0
  0
LINE
  8
DETAIL
  6
CONTINUOUS
 62
     5
 10
147.9978546702996
 20
-339.49411752690003
 30
0.0
 11
147.95314970189969
 21
-338.28651719710001
 31
0.0
  0
LINE
  8
DETAIL
  6
CONTINUOUS
 62
     5
 10
147.2465387317998
 20
-338.28632931369998
 30
0.0
 11
147.43138248170001
 21
-343.27945158739999
 31
0.0
  0
LINE
  8
DETAIL
  6
CONTINUOUS
 62
     5
 10
144.5
 20
-403.19999999999999
 30
0.0
 11
144.5
 21
-336.69999999999999
 31
0.0
  0
LINE
  8
DETAIL
  6
CONTINUOUS
 62
     5
 10
144.5
 20
-291.69999999999999
 30
0.0
 11
144.5
 21
-231.05941995800001
 31
0.0
  0
LINE
  8
DETAIL
  6
CONTINUOUS
 62
     5
 10
139.8044193769997
 20
-403.19999999999999
 30
0.0
 11
139.8044193769997
 21
-336.69999999999999
 31
0.0
  0
LINE
  8
DETAIL
  6
CONTINUOUS
 62
     5
 10
139.8044193769997
 20
-291.69999999999999
 30
0.0
 11
139.8044193769997
 21
-233.36773764739999
 31
0.0
  0
LINE
  8
DETAIL
  6
CONTINUOUS
 62
     5
 10
138.38572075459979
 20
-403.19999999999999
 30
0.0
 11
138.38572075459979
 21
-336.69999999999999
 31
0.0
  0
LINE
  8
DETAIL
  6
CONTINUOUS
 62
     5
 10
138.38572075459979
 20
-291.69999999999999
 30
0.0
 11
138.38572075459979
 21
-234.0506228899001
 31
0.0
  0
LINE
  8
DETAIL
  6
CONTINUOUS
 62
     5
 10
130.92554217930001
 20
-403.19999999999999
 30
0.0
 11
130.92554217930001
 21
-336.69999999999999
 31
0.0
  0
LINE
  8
DETAIL
  6
CONTINUOUS
 62
     5
 10
130.92554217930001
 20
-291.69999999999999
 30
0.0
 11
130.92554217930001
 21
-237.60684762460011
 31
0.0
  0
LINE
  8
DETAIL
  6
CONTINUOUS
 62
     5
 10
103.4758240075998
 20
-359.10747728809997
 30
0.0
 11
103.59989067080009
 21
-358.46837198909998
 31
0.0
  0
LINE
  8
DETAIL
  6
CONTINUOUS
 62
     5
 10
103.59989067080009
 20
-358.46837198909998
 30
0.0
 11
103.7077390149998
 21
-357.84071571250001
 31
0.0
  0
LINE
  8
DETAIL
  6
CONTINUOUS
 62
     5
 10
103.7077390149998
 20
-357.84071571250001
 30
0.0
 11
103.79932580799959
 21
-357.22663978029999
 31
0.0
  0
LINE
  8
DETAIL
  6
CONTINUOUS
 62
     5
 10
103.79932580799959
 20
-357.22663978029999
 30
0.0
 11
103.8747807464997
 21
-356.61975022649989
 31
0.0
  0
LINE
  8
DETAIL
  6
CONTINUOUS
 62
     5
 10
103.8747807464997
 20
-356.61975022649989
 30
0.0
 11
103.9344627501996
 21
-356.01445958910011
 31
0.0
  0
LINE
  8
DETAIL
  6
CONTINUOUS
 62
     5
 10
103.9344627501996
 20
-356.01445958910011
 30
0.0
 11
103.9776409183996
 21
-355.41047967769998
 31
0.0
  0
LINE
  8
DETAIL
  6
CONTINUOUS
 62
     5
 10
103.9776409183996
 20
-355.41047967769998
 30
0.0
 11
104.0036275824996
 21
-354.80539097999991
 31
0.0
  0
LINE
  8
DETAIL
  6
CONTINUOUS
 62
     5
 10
104.0036275824996
 20
-354.80539097999991
 30
0.0
 11
104.0126519654996
 21
-354.19999999999999
 31
0.0
  0
LINE
  8
DETAIL
  6
CONTINUOUS
 62
     5
 10
97.465416367600028
 20
-344.38504542380002
 30
0.0
 11
97.104705035699681
 21
-344.8127410387001
 31
0.0
  0
LINE
  8
DETAIL
  6
CONTINUOUS
 62
     5
 10
97.104705035699681
 20
-344.8127410387001
 30
0.0
 11
96.726288987999851
 21
-345.23085971469999
 31
0.0
  0
LINE
  8
DETAIL
  6
CONTINUOUS
 62
     5
 10
96.726288987999851
 20
-345.23085971469999
 30
0.0
 11
96.332576795200112
 21
-345.63745026200007
 31
0.0
  0
LINE
  8
DETAIL
  6
CONTINUOUS
 62
     5
 10
96.332576795200112
 20
-345.63745026200007
 30
0.0
 11
95.916342744999838
 21
-346.03836625010013
 31
0.0
  0
LINE
  8
DETAIL
  6
CONTINUOUS
 62
     5
 10
95.916342744999838
 20
-346.03836625010013
 30
0.0
 11
95.470361124899682
 21
-346.43946124849998
 31
0.0
  0
LINE
  8
DETAIL
  6
CONTINUOUS
 62
     5
 10
95.470361124899682
 20
-346.43946124849998
 30
0.0
 11
94.997040505899804
 21
-346.83878406730003
 31
0.0
  0
LINE
  8
DETAIL
  6
CONTINUOUS
 62
     5
 10
101.00744814459991
 20
-361.56121593300008
 30
0.0
 11
101.53769129849979
 21
-361.07348240679988
 31
0.0
  0
LINE
  8
DETAIL
  6
CONTINUOUS
 62
     5
 10
101.53769129849979
 20
-361.07348240679988
 30
0.0
 11
102.0239920339
 21
-360.51673101670008
 31
0.0
  0
LINE
  8
DETAIL
  6
CONTINUOUS
 62
     5
 10
102.0239920339
 20
-360.51673101670008
 30
0.0
 11
102.46864696749979
 21
-359.88735459710011
 31
0.0
  0
LINE
  8
DETAIL
  6
CONTINUOUS
 62
     5
 10
102.46864696749979
 20
-359.88735459710011
 30
0.0
 11
102.8647662490998
 21
-359.19617464480012
 31
0.0
  0
LINE
  8
DETAIL
  6
CONTINUOUS
 62
     5
 10
102.8647662490998
 20
-359.19617464480012
 30
0.0
 11
103.2071761487996
 21
-358.44980903840002
 31
0.0
  0
LINE
  8
DETAIL
  6
CONTINUOUS
 62
     5
 10
103.2071761487996
 20
-358.44980903840002
 30
0.0
 11
103.4930249232998
 21
-357.65726146669999
 31
0.0
  0
LINE
  8
DETAIL
  6
CONTINUOUS
 62
     5
 10
103.4930249232998
 20
-357.65726146669999
 30
0.0
 11
103.7182248334998
 21
-356.82652643189988
 31
0.0
  0
LINE
  8
DETAIL
  6
CONTINUOUS
 62
     5
 10
103.7182248334998
 20
-356.82652643189988
 30
0.0
 11
103.8813101378
 21
-355.96724937279993
 31
0.0
  0
LINE
  8
DETAIL
  6
CONTINUOUS
 62
     5
 10
103.8813101378
 20
-355.96724937279993
 30
0.0
 11
103.9790989749999
 21
-355.09327934620001
 31
0.0
  0
LINE
  8
DETAIL
  6
CONTINUOUS
 62
     5
 10
103.9790989749999
 20
-355.09327934620001
 30
0.0
 11
104.0126519655996
 21
-354.19999999999999
 31
0.0
  0
LINE
  8
DETAIL
  6
CONTINUOUS
 62
     5
 10
94.997040505999848
 20
-346.83878406710011
 30
0.0
 11
94.466797352100002
 21
-347.32651759330008
 31
0.0
  0
LINE
  8
DETAIL
  6
CONTINUOUS
 62
     5
 10
94.466797352100002
 20
-347.32651759330008
 30
0.0
 11
93.980496616799883
 21
-347.88326898330001
 31
0.0
  0
LINE
  8
DETAIL
  6
CONTINUOUS
 62
     5
 10
93.980496616799883
 20
-347.88326898330001
 30
0.0
 11
93.535841683199578
 21
-348.51264540289998
 31
0.0
  0
LINE
  8
DETAIL
  6
CONTINUOUS
 62
     5
 10
93.535841683199578
 20
-348.51264540289998
 30
0.0
 11
93.139722401600011
 21
-349.20382535520002
 31
0.0
  0
LINE
  8
DETAIL
  6
CONTINUOUS
 62
     5
 10
93.139722401600011
 20
-349.20382535520002
 30
0.0
 11
92.797312501899796
 21
-349.95019096160001
 31
0.0
  0
LINE
  8
DETAIL
  6
CONTINUOUS
 62
     5
 10
92.797312501899796
 20
-349.95019096160001
 30
0.0
 11
92.511463727299997
 21
-350.74273853329993
 31
0.0
  0
LINE
  8
DETAIL
  6
CONTINUOUS
 62
     5
 10
92.511463727299997
 20
-350.74273853329993
 30
0.0
 11
92.286263817200052
 21
-351.57347356809998
 31
0.0
  0
LINE
  8
DETAIL
  6
CONTINUOUS
 62
     5
 10
92.286263817200052
 20
-351.57347356809998
 30
0.0
 11
92.123178512899813
 21
-352.43275062729998
 31
0.0
  0
LINE
  8
DETAIL
  6
CONTINUOUS
 62
     5
 10
92.123178512899813
 20
-352.43275062729998
 30
0.0
 11
92.025389675699898
 21
-353.30672065380008
 31
0.0
  0
LINE
  8
DETAIL
  6
CONTINUOUS
 62
     5
 10
92.025389675699898
 20
-353.30672065380008
 30
0.0
 11
91.99183668509977
 21
-354.19999999999999
 31
0.0
  0
LINE
  8
DETAIL
  6
CONTINUOUS
 62
     5
 10
101.00744814479999
 20
-361.56121593270001
 30
0.0
 11
101.4811527198999
 21
-361.16154169169999
 31
0.0
  0
LINE
  8
DETAIL
  6
CONTINUOUS
 62
     5
 10
101.4811527198999
 20
-361.16154169169999
 30
0.0
 11
101.9273227848998
 21
-360.76026494469988
 31
0.0
  0
LINE
  8
DETAIL
  6
CONTINUOUS
 62
     5
 10
101.9273227848998
 20
-360.76026494469988
 30
0.0
 11
102.3435104605996
 21
-360.35936416720011
 31
0.0
  0
LINE
  8
DETAIL
  6
CONTINUOUS
 62
     5
 10
102.3435104605996
 20
-360.35936416720011
 30
0.0
 11
102.7370593841997
 21
-359.95290393270011
 31
0.0
  0
LINE
  8
DETAIL
  6
CONTINUOUS
 62
     5
 10
102.7370593841997
 20
-359.95290393270011
 30
0.0
 11
103.1153131929
 21
-359.53494881450013
 31
0.0
  0
LINE
  8
DETAIL
  6
CONTINUOUS
 62
     5
 10
103.1153131929
 20
-359.53494881450013
 30
0.0
 11
103.4758240075998
 21
-359.10747728809997
 31
0.0
  0
LINE
  8
DETAIL
  6
CONTINUOUS
 62
     5
 10
98.002244325299671
 20
-362.28290376870001
 30
0.0
 11
102.9519917936
 21
-358.24145188440002
 31
0.0
  0
LINE
  8
DETAIL
  6
CONTINUOUS
 62
     5
 10
97.648690934699971
 20
-361.99422863410001
 30
0.0
 11
102.24488501249969
 21
-358.24145188440002
 31
0.0
  0
LINE
  8
DETAIL
  6
CONTINUOUS
 62
     5
 10
98.002244325299671
 20
-346.11709623140001
 30
0.0
 11
93.052496856999824
 21
-350.15854811570011
 31
0.0
  0
LINE
  8
DETAIL
  6
CONTINUOUS
 62
     5
 10
93.052496856999824
 20
-344.38504542380002
 30
0.0
 11
87.042089216899967
 21
-349.29252271189989
 31
0.0
  0
LINE
  8
DETAIL
  6
CONTINUOUS
 62
     5
 10
94.997040505899804
 20
-346.83878406730003
 30
0.0
 11
94.491747127399776
 21
-347.2384583083001
 31
0.0
  0
LINE
  8
DETAIL
  6
CONTINUOUS
 62
     5
 10
94.491747127399776
 20
-347.2384583083001
 30
0.0
 11
93.95499391659996
 21
-347.63973505529998
 31
0.0
  0
LINE
  8
DETAIL
  6
CONTINUOUS
 62
     5
 10
93.95499391659996
 20
-347.63973505529998
 30
0.0
 11
93.389179249899826
 21
-348.04063583279998
 31
0.0
  0
LINE
  8
DETAIL
  6
CONTINUOUS
 62
     5
 10
93.389179249899826
 20
-348.04063583279998
 30
0.0
 11
92.7871079980996
 21
-348.44709606740003
 31
0.0
  0
LINE
  8
DETAIL
  6
CONTINUOUS
 62
     5
 10
92.7871079980996
 20
-348.44709606740003
 30
0.0
 11
92.141585031799877
 21
-348.86505118560012
 31
0.0
  0
LINE
  8
DETAIL
  6
CONTINUOUS
 62
     5
 10
92.141585031799877
 20
-348.86505118560012
 30
0.0
 11
91.455008727499717
 21
-349.29252271189989
 31
0.0
  0
LINE
  8
DETAIL
  6
CONTINUOUS
 62
     5
 10
97.465416367600028
 20
-364.01495457620001
 30
0.0
 11
98.152341057299964
 21
-363.58725896139998
 31
0.0
  0
LINE
  8
DETAIL
  6
CONTINUOUS
 62
     5
 10
98.152341057299964
 20
-363.58725896139998
 30
0.0
 11
98.798102417699738
 21
-363.16914028540009
 31
0.0
  0
LINE
  8
DETAIL
  6
CONTINUOUS
 62
     5
 10
98.798102417699738
 20
-363.16914028540009
 30
0.0
 11
99.400329600100122
 21
-362.76254973810001
 31
0.0
  0
LINE
  8
DETAIL
  6
CONTINUOUS
 62
     5
 10
99.400329600100122
 20
-362.76254973810001
 30
0.0
 11
99.966135150400078
 21
-362.36163375000001
 31
0.0
  0
LINE
  8
DETAIL
  6
CONTINUOUS
 62
     5
 10
99.966135150400078
 20
-362.36163375000001
 30
0.0
 11
100.5026316148997
 21
-361.9605387516001
 31
0.0
  0
LINE
  8
DETAIL
  6
CONTINUOUS
 62
     5
 10
100.5026316148997
 20
-361.9605387516001
 30
0.0
 11
101.00744814479999
 21
-361.56121593270001
 31
0.0
  0
LINE
  8
DETAIL
  6
CONTINUOUS
 62
     5
 10
151.59789643529979
 20
-338.05058210879997
 30
0.0
 11
150.4222632587998
 21
-338.64812655310021
 31
0.0
  0
LINE
  8
DETAIL
  6
CONTINUOUS
 62
     5
 10
150.4222632587998
 20
-338.64812655310021
 30
0.0
 11
149.2231604292997
 21
-339.12879136729998
 31
0.0
  0
LINE
  8
DETAIL
  6
CONTINUOUS
 62
     5
 10
149.2231604292997
 20
-339.12879136729998
 30
0.0
 11
147.9978546702996
 21
-339.49411752690003
 31
0.0
  0
LINE
  8
DETAIL
  6
CONTINUOUS
 62
     5
 10
150.32733401109999
 20
-339.52830191470002
 30
0.0
 11
151.4467654273999
 21
-338.99097599020001
 31
0.0
  0
LINE
  8
DETAIL
  6
CONTINUOUS
 62
     5
 10
151.4467654273999
 20
-338.99097599020001
 30
0.0
 11
152.54010138019979
 21
-338.3553245132
 31
0.0
  0
LINE
  8
DETAIL
  6
CONTINUOUS
 62
     5
 10
152.54010138019979
 20
-338.3553245132
 30
0.0
 11
153.6028796127998
 21
-337.62327023500012
 31
0.0
  0
LINE
  8
DETAIL
  6
CONTINUOUS
 62
     5
 10
153.6028796127998
 20
-337.62327023500012
 30
0.0
 11
154.63103111800001
 21
-336.79830807560012
 31
0.0
  0
LINE
  8
DETAIL
  6
CONTINUOUS
 62
     5
 10
154.63103111800001
 20
-336.79830807560012
 30
0.0
 11
154.73728879209969
 21
-336.69999999999999
 31
0.0
  0
LINE
  8
DETAIL
  6
CONTINUOUS
 62
     5
 10
-77.398102998899958
 20
-418.11944341639992
 30
0.0
 11
-77.742774183300298
 21
-418.25331402120003
 31
0.0
  0
LINE
  8
DETAIL
  6
CONTINUOUS
 62
     5
 10
-77.742774183300298
 20
-418.25331402120003
 30
0.0
 11
-78.081737828800215
 21
-418.36981887669998
 31
0.0
  0
LINE
  8
DETAIL
  6
CONTINUOUS
 62
     5
 10
-78.081737828800215
 20
-418.36981887669998
 30
0.0
 11
-78.413978242900157
 21
-418.46896365219999
 31
0.0
  0
LINE
  8
DETAIL
  6
CONTINUOUS
 62
     5
 10
-78.413978242900157
 20
-418.46896365219999
 30
0.0
 11
-78.74254250310014
 21
-418.55073134019989
 31
0.0
  0
LINE
  8
DETAIL
  6
CONTINUOUS
 62
     5
 10
-78.74254250310014
 20
-418.55073134019989
 30
0.0
 11
-79.070021295500283
 21
-418.61534838050011
 31
0.0
  0
LINE
  8
DETAIL
  6
CONTINUOUS
 62
     5
 10
-79.070021295500283
 20
-418.61534838050011
 30
0.0
 11
-79.396768101800262
 21
-418.66209010030002
 31
0.0
  0
LINE
  8
DETAIL
  6
CONTINUOUS
 62
     5
 10
-79.396768101800262
 20
-418.66209010030002
 30
0.0
 11
-79.72415209610017
 21
-418.69022615779988
 31
0.0
  0
LINE
  8
DETAIL
  6
CONTINUOUS
 62
     5
 10
-79.72415209610017
 20
-418.69022615779988
 30
0.0
 11
-80.051716886900067
 21
-418.70000000010009
 31
0.0
  0
LINE
  8
DETAIL
  6
CONTINUOUS
 62
     5
 10
-472.60000000000042
 20
0.0
 30
0.0
 11
-3.2291639785003099
 21
0.0
 31
0.0
  0
LINE
  8
DETAIL
  6
CONTINUOUS
 62
     5
 10
-3.2291639785003099
 20
0.0
 30
0.0
 11
3.2291639784998551
 21
0.0
 31
0.0
  0
LINE
  8
DETAIL
  6
CONTINUOUS
 62
     5
 10
3.2291639784998551
 20
0.0
 30
0.0
 11
472.59999999999991
 21
-0.0000000000001137
 31
0.0
  0
LINE
  8
DETAIL
  6
CONTINUOUS
 62
     5
 10
-472.60000000000042
 20
-1.199999999999932
 30
0.0
 11
-470.72083602150002
 21
-1.199999999999932
 31
0.0
  0
LINE
  8
DETAIL
  6
CONTINUOUS
 62
     5
 10
-3.2291639785003099
 20
-1.200000000000045
 30
0.0
 11
3.2291639784998551
 21
-1.200000000000045
 31
0.0
  0
LINE
  8
DETAIL
  6
CONTINUOUS
 62
     5
 10
470.72083602150002
 20
-1.200000000000045
 30
0.0
 11
472.59999999999991
 21
-1.200000000000045
 31
0.0
  0
LINE
  8
DETAIL
  6
CONTINUOUS
 62
     5
 10
-473.80000000000018
 20
-2.3999999999999768
 30
0.0
 11
-475.0
 21
-2.3999999999999768
 31
0.0
  0
LINE
  8
DETAIL
  6
CONTINUOUS
 62
     5
 10
473.79999999999973
 20
-2.4000000000000909
 30
0.0
 11
475.0
 21
-2.4000000000000909
 31
0.0
  0
LINE
  8
DETAIL
  6
CONTINUOUS
 62
     5
 10
475.0
 20
-4.5467842369999971
 30
0.0
 11
473.79999999999973
 21
-4.5467842369999971
 31
0.0
  0
LINE
  8
DETAIL
  6
CONTINUOUS
 62
     5
 10
-475.0
 20
-4.5467842369998834
 30
0.0
 11
-473.80000000000018
 21
-4.5467842369998834
 31
0.0
  0
LINE
  8
DETAIL
  6
CONTINUOUS
 62
     5
 10
3.2291639784998551
 20
-1.200000000000045
 30
0.0
 11
3.268801300199812
 21
-1.202002127800029
 31
0.0
  0
LINE
  8
DETAIL
  6
CONTINUOUS
 62
     5
 10
3.268801300199812
 20
-1.202002127800029
 30
0.0
 11
3.3049488493998069
 21
-1.207955146399968
 31
0.0
  0
LINE
  8
DETAIL
  6
CONTINUOUS
 62
     5
 10
3.3049488493998069
 20
-1.207955146399968
 30
0.0
 11
3.3375261299997869
 21
-1.217766674300037
 31
0.0
  0
LINE
  8
DETAIL
  6
CONTINUOUS
 62
     5
 10
3.3375261299997869
 20
-1.217766674300037
 30
0.0
 11
3.3667746303999588
 21
-1.2313457236999741
 31
0.0
  0
LINE
  8
DETAIL
  6
CONTINUOUS
 62
     5
 10
3.3667746303999588
 20
-1.2313457236999741
 30
0.0
 11
3.39288740560005
 21
-1.248603252400017
 31
0.0
  0
LINE
  8
DETAIL
  6
CONTINUOUS
 62
     5
 10
3.39288740560005
 20
-1.248603252400017
 30
0.0
 11
3.4159292597996682
 21
-1.2694262953999671
 31
0.0
  0
LINE
  8
DETAIL
  6
CONTINUOUS
 62
     5
 10
3.4159292597996682
 20
-1.2694262953999671
 30
0.0
 11
3.4359962628996068
 21
-1.29368003549996
 31
0.0
  0
LINE
  8
DETAIL
  6
CONTINUOUS
 62
     5
 10
3.4359962628996068
 20
-1.29368003549996
 30
0.0
 11
3.453187673399952
 21
-1.3212818535999991
 31
0.0
  0
LINE
  8
DETAIL
  6
CONTINUOUS
 62
     5
 10
3.453187673399952
 20
-1.3212818535999991
 30
0.0
 11
3.4557869609998311
 21
-1.326842872800057
 31
0.0
  0
LINE
  8
DETAIL
  6
CONTINUOUS
 62
     5
 10
3.2291639784998551
 20
0.0
 30
0.0
 11
3.2677647049999901
 21
-0.0037823718000709
 31
0.0
  0
LINE
  8
DETAIL
  6
CONTINUOUS
 62
     5
 10
3.2677647049999901
 20
-0.0037823718000709
 30
0.0
 11
3.3031969097996812
 21
-0.015115084099989
 31
0.0
  0
LINE
  8
DETAIL
  6
CONTINUOUS
 62
     5
 10
3.3031969097996812
 20
-0.015115084099989
 30
0.0
 11
3.3354131194000729
 21
-0.0339569492999772
 31
0.0
  0
LINE
  8
DETAIL
  6
CONTINUOUS
 62
     5
 10
3.3354131194000729
 20
-0.0339569492999772
 30
0.0
 11
3.3645557540999111
 21
-0.060250227200072
 31
0.0
  0
LINE
  8
DETAIL
  6
CONTINUOUS
 62
     5
 10
3.3645557540999111
 20
-0.060250227200072
 30
0.0
 11
3.3907442839999931
 21
-0.0939287659999763
 31
0.0
  0
LINE
  8
DETAIL
  6
CONTINUOUS
 62
     5
 10
3.3907442839999931
 20
-0.0939287659999763
 30
0.0
 11
3.4140000870997942
 21
-0.1348637761999498
 31
0.0
  0
LINE
  8
DETAIL
  6
CONTINUOUS
 62
     5
 10
3.4140000870997942
 20
-0.1348637761999498
 30
0.0
 11
3.4343636349999538
 21
-0.1828732312000056
 31
0.0
  0
LINE
  8
DETAIL
  6
CONTINUOUS
 62
     5
 10
3.4343636349999538
 20
-0.1828732312000056
 30
0.0
 11
3.451897117399767
 21
-0.2378395512999987
 31
0.0
  0
LINE
  8
DETAIL
  6
CONTINUOUS
 62
     5
 10
3.451897117399767
 20
-0.2378395512999987
 30
0.0
 11
3.4666690415997441
 21
-0.2996506650000583
 31
0.0
  0
LINE
  8
DETAIL
  6
CONTINUOUS
 62
     5
 10
3.4666690415997441
 20
-0.2996506650000583
 30
0.0
 11
3.4787009272999971
 21
-0.3680651409999882
 31
0.0
  0
LINE
  8
DETAIL
  6
CONTINUOUS
 62
     5
 10
3.4787009272999971
 20
-0.3680651409999882
 30
0.0
 11
3.488031880099697
 21
-0.4428032931999724
 31
0.0
  0
LINE
  8
DETAIL
  6
CONTINUOUS
 62
     5
 10
3.488031880099697
 20
-0.4428032931999724
 30
0.0
 11
3.494677650399808
 21
-0.5236787440999251
 31
0.0
  0
LINE
  8
DETAIL
  6
CONTINUOUS
 62
     5
 10
3.494677650399808
 20
-0.5236787440999251
 30
0.0
 11
3.498670621899691
 21
-0.6104865483999902
 31
0.0
  0
LINE
  8
DETAIL
  6
CONTINUOUS
 62
     5
 10
3.498670621899691
 20
-0.6104865483999902
 30
0.0
 11
3.5
 21
-0.7029437251999298
 31
0.0
  0
LINE
  8
DETAIL
  6
CONTINUOUS
 62
     5
 10
104.0126519655996
 20
-274.19999999999999
 30
0.0
 11
103.9790989749999
 21
-273.30672065409999
 31
0.0
  0
LINE
  8
DETAIL
  6
CONTINUOUS
 62
     5
 10
103.9790989749999
 20
-273.30672065409999
 30
0.0
 11
103.8813101379001
 21
-272.43275062779998
 31
0.0
  0
LINE
  8
DETAIL
  6
CONTINUOUS
 62
     5
 10
103.8813101379001
 20
-272.43275062779998
 30
0.0
 11
103.71822483359981
 21
-271.57347356889989
 31
0.0
  0
LINE
  8
DETAIL
  6
CONTINUOUS
 62
     5
 10
103.71822483359981
 20
-271.57347356889989
 30
0.0
 11
103.4930249235999
 21
-270.74273853430009
 31
0.0
  0
LINE
  8
DETAIL
  6
CONTINUOUS
 62
     5
 10
103.4930249235999
 20
-270.74273853430009
 30
0.0
 11
103.2071761491998
 21
-269.95019096279998
 31
0.0
  0
LINE
  8
DETAIL
  6
CONTINUOUS
 62
     5
 10
103.2071761491998
 20
-269.95019096279998
 30
0.0
 11
102.8647662497997
 21
-269.20382535650009
 31
0.0
  0
LINE
  8
DETAIL
  6
CONTINUOUS
 62
     5
 10
102.8647662497997
 20
-269.20382535650009
 30
0.0
 11
102.46864696829969
 21
-268.51264540420021
 31
0.0
  0
LINE
  8
DETAIL
  6
CONTINUOUS
 62
     5
 10
102.46864696829969
 20
-268.51264540420021
 30
0.0
 11
102.02399203500001
 21
-267.88326898470001
 31
0.0
  0
LINE
  8
DETAIL
  6
CONTINUOUS
 62
     5
 10
102.02399203500001
 20
-267.88326898470001
 30
0.0
 11
101.5376912999
 21
-267.32651759459998
 31
0.0
  0
LINE
  8
DETAIL
  6
CONTINUOUS
 62
     5
 10
101.5376912999
 20
-267.32651759459998
 30
0.0
 11
101.00744814619971
 21
-266.83878406840012
 31
0.0
  0
LINE
  8
DETAIL
  6
CONTINUOUS
 62
     5
 10
104.0126519655996
 20
-354.19999999999999
 30
0.0
 11
103.9790989749999
 21
-353.30672065409999
 31
0.0
  0
LINE
  8
DETAIL
  6
CONTINUOUS
 62
     5
 10
103.9790989749999
 20
-353.30672065409999
 30
0.0
 11
103.8813101379001
 21
-352.43275062779998
 31
0.0
  0
LINE
  8
DETAIL
  6
CONTINUOUS
 62
     5
 10
103.8813101379001
 20
-352.43275062779998
 30
0.0
 11
103.71822483359981
 21
-351.57347356889977
 31
0.0
  0
LINE
  8
DETAIL
  6
CONTINUOUS
 62
     5
 10
103.71822483359981
 20
-351.57347356889977
 30
0.0
 11
103.4930249235999
 21
-350.74273853430009
 31
0.0
  0
LINE
  8
DETAIL
  6
CONTINUOUS
 62
     5
 10
103.4930249235999
 20
-350.74273853430009
 30
0.0
 11
103.2071761491998
 21
-349.95019096279998
 31
0.0
  0
LINE
  8
DETAIL
  6
CONTINUOUS
 62
     5
 10
103.2071761491998
 20
-349.95019096279998
 30
0.0
 11
102.8647662497997
 21
-349.20382535650009
 31
0.0
  0
LINE
  8
DETAIL
  6
CONTINUOUS
 62
     5
 10
102.8647662497997
 20
-349.20382535650009
 30
0.0
 11
102.46864696829969
 21
-348.51264540420021
 31
0.0
  0
LINE
  8
DETAIL
  6
CONTINUOUS
 62
     5
 10
102.46864696829969
 20
-348.51264540420021
 30
0.0
 11
102.02399203500001
 21
-347.88326898470001
 31
0.0
  0
LINE
  8
DETAIL
  6
CONTINUOUS
 62
     5
 10
102.02399203500001
 20
-347.88326898470001
 30
0.0
 11
101.5376912999
 21
-347.32651759459998
 31
0.0
  0
LINE
  8
DETAIL
  6
CONTINUOUS
 62
     5
 10
101.5376912999
 20
-347.32651759459998
 30
0.0
 11
101.00744814619971
 21
-346.83878406840012
 31
0.0
  0
LINE
  8
DETAIL
  6
CONTINUOUS
 62
     5
 10
91.99183668509977
 20
-274.19999999999999
 30
0.0
 11
92.025389675599854
 21
-275.09327934599992
 31
0.0
  0
LINE
  8
DETAIL
  6
CONTINUOUS
 62
     5
 10
92.025389675599854
 20
-275.09327934599992
 30
0.0
 11
92.123178512799768
 21
-275.96724937229999
 31
0.0
  0
LINE
  8
DETAIL
  6
CONTINUOUS
 62
     5
 10
92.123178512799768
 20
-275.96724937229999
 30
0.0
 11
92.286263816999963
 21
-276.82652643120008
 31
0.0
  0
LINE
  8
DETAIL
  6
CONTINUOUS
 62
     5
 10
92.286263816999963
 20
-276.82652643120008
 30
0.0
 11
92.511463726999864
 21
-277.65726146579999
 31
0.0
  0
LINE
  8
DETAIL
  6
CONTINUOUS
 62
     5
 10
92.511463726999864
 20
-277.65726146579999
 30
0.0
 11
92.797312501399574
 21
-278.44980903730021
 31
0.0
  0
LINE
  8
DETAIL
  6
CONTINUOUS
 62
     5
 10
92.797312501399574
 20
-278.44980903730021
 30
0.0
 11
93.1397224008997
 21
-279.19617464359987
 31
0.0
  0
LINE
  8
DETAIL
  6
CONTINUOUS
 62
     5
 10
93.1397224008997
 20
-279.19617464359987
 30
0.0
 11
93.535841682399678
 21
-279.88735459579988
 31
0.0
  0
LINE
  8
DETAIL
  6
CONTINUOUS
 62
     5
 10
93.535841682399678
 20
-279.88735459579988
 30
0.0
 11
93.980496615699849
 21
-280.51673101529991
 31
0.0
  0
LINE
  8
DETAIL
  6
CONTINUOUS
 62
     5
 10
93.980496615699849
 20
-280.51673101529991
 30
0.0
 11
94.466797350799879
 21
-281.07348240540011
 31
0.0
  0
LINE
  8
DETAIL
  6
CONTINUOUS
 62
     5
 10
94.466797350799879
 20
-281.07348240540011
 30
0.0
 11
94.997040504499637
 21
-281.56121593170008
 31
0.0
  0
LINE
  8
DETAIL
  6
CONTINUOUS
 62
     5
 10
104.0126519654996
 20
-274.19999999999999
 30
0.0
 11
104.00361725249969
 21
-273.59433650210002
 31
0.0
  0
LINE
  8
DETAIL
  6
CONTINUOUS
 62
     5
 10
104.00361725249969
 20
-273.59433650210002
 30
0.0
 11
103.97761241469971
 21
-272.98902520230013
 31
0.0
  0
LINE
  8
DETAIL
  6
CONTINUOUS
 62
     5
 10
103.97761241469971
 20
-272.98902520230013
 30
0.0
 11
103.93440327479991
 21
-272.38485622930011
 31
0.0
  0
LINE
  8
DETAIL
  6
CONTINUOUS
 62
     5
 10
103.93440327479991
 20
-272.38485622930011
 30
0.0
 11
103.87469236449989
 21
-271.77945919759998
 31
0.0
  0
LINE
  8
DETAIL
  6
CONTINUOUS
 62
     5
 10
103.87469236449989
 20
-271.77945919759998
 30
0.0
 11
103.7992214195001
 21
-271.17259526490011
 31
0.0
  0
LINE
  8
DETAIL
  6
CONTINUOUS
 62
     5
 10
103.7992214195001
 20
-271.17259526490011
 30
0.0
 11
103.7076386504996
 21
-270.55865993050003
 31
0.0
  0
LINE
  8
DETAIL
  6
CONTINUOUS
 62
     5
 10
103.7076386504996
 20
-270.55865993050003
 30
0.0
 11
103.59982644520009
 21
-269.93125856510011
 31
0.0
  0
LINE
  8
DETAIL
  6
CONTINUOUS
 62
     5
 10
103.59982644520009
 20
-269.93125856510011
 30
0.0
 11
103.4758240075998
 21
-269.29252271189989
 31
0.0
  0
LINE
  8
DETAIL
  6
CONTINUOUS
 62
     5
 10
104.0126519654996
 20
-354.19999999999999
 30
0.0
 11
104.00361725249969
 21
-353.59433650210002
 31
0.0
  0
LINE
  8
DETAIL
  6
CONTINUOUS
 62
     5
 10
104.00361725249969
 20
-353.59433650210002
 30
0.0
 11
103.97761241469971
 21
-352.98902520230013
 31
0.0
  0
LINE
  8
DETAIL
  6
CONTINUOUS
 62
     5
 10
103.97761241469971
 20
-352.98902520230013
 30
0.0
 11
103.93440327479991
 21
-352.38485622930011
 31
0.0
  0
LINE
  8
DETAIL
  6
CONTINUOUS
 62
     5
 10
103.93440327479991
 20
-352.38485622930011
 30
0.0
 11
103.87469236449989
 21
-351.77945919760009
 31
0.0
  0
LINE
  8
DETAIL
  6
CONTINUOUS
 62
     5
 10
103.87469236449989
 20
-351.77945919760009
 30
0.0
 11
103.7992214195001
 21
-351.17259526490011
 31
0.0
  0
LINE
  8
DETAIL
  6
CONTINUOUS
 62
     5
 10
103.7992214195001
 20
-351.17259526490011
 30
0.0
 11
103.7076386504996
 21
-350.55865993050003
 31
0.0
  0
LINE
  8
DETAIL
  6
CONTINUOUS
 62
     5
 10
103.7076386504996
 20
-350.55865993050003
 30
0.0
 11
103.59982644520009
 21
-349.93125856510011
 31
0.0
  0
LINE
  8
DETAIL
  6
CONTINUOUS
 62
     5
 10
103.59982644520009
 20
-349.93125856510011
 30
0.0
 11
103.4758240075998
 21
-349.29252271189989
 31
0.0
  0
LINE
  8
DETAIL
  6
CONTINUOUS
 62
     5
 10
122.5
 20
-403.19999999999999
 30
0.0
 11
122.5
 21
-336.69999999999999
 31
0.0
  0
LINE
  8
DETAIL
  6
CONTINUOUS
 62
     5
 10
122.5
 20
-291.69999999999999
 30
0.0
 11
122.5
 21
-241.50832832919991
 31
0.0
  0
LINE
  8
DETAIL
  6
CONTINUOUS
 62
     5
 10
116.0334672455997
 20
-254.19999999999999
 30
0.0
 11
116.0334672455997
 21
-291.69999999999999
 31
0.0
  0
LINE
  8
DETAIL
  6
CONTINUOUS
 62
     5
 10
116.0334672455997
 20
-336.69999999999999
 30
0.0
 11
116.0334672455997
 21
-374.19999999999999
 31
0.0
  0
LINE
  8
DETAIL
  6
CONTINUOUS
 62
     5
 10
109.9597760003999
 20
-403.19999999999999
 30
0.0
 11
109.9597760003999
 21
-374.19999999999999
 31
0.0
  0
LINE
  8
DETAIL
  6
CONTINUOUS
 62
     5
 10
109.9597760003999
 20
-254.19999999999999
 30
0.0
 11
109.9597760003999
 21
-247.0996230301001
 31
0.0
  0
LINE
  8
DETAIL
  6
CONTINUOUS
 62
     5
 10
102.9519917936
 20
-358.24145188440002
 30
0.0
 11
102.9519917936
 21
-350.15854811570011
 31
0.0
  0
LINE
  8
DETAIL
  6
CONTINUOUS
 62
     5
 10
102.9519917936
 20
-278.24145188440002
 30
0.0
 11
102.9519917936
 21
-270.15854811570011
 31
0.0
  0
LINE
  8
DETAIL
  6
CONTINUOUS
 62
     5
 10
102.24488501249969
 20
-358.24145188440002
 30
0.0
 11
102.24488501249969
 21
-350.15854811570011
 31
0.0
  0
LINE
  8
DETAIL
  6
CONTINUOUS
 62
     5
 10
102.24488501249969
 20
-278.24145188440002
 30
0.0
 11
102.24488501249969
 21
-270.15854811570011
 31
0.0
  0
LINE
  8
DETAIL
  6
CONTINUOUS
 62
     5
 10
101.0
 20
-403.19999999999999
 30
0.0
 11
101.0
 21
-430.31071040950002
 31
0.0
  0
LINE
  8
DETAIL
  6
CONTINUOUS
 62
     5
 10
98.96398216039961
 20
-374.19999999999999
 30
0.0
 11
98.96398216039961
 21
-413.19999999999999
 31
0.0
  0
LINE
  8
DETAIL
  6
CONTINUOUS
 62
     5
 10
93.052496856999824
 20
-270.15854811570011
 30
0.0
 11
93.052496856999824
 21
-278.24145188440002
 31
0.0
  0
LINE
  8
DETAIL
  6
CONTINUOUS
 62
     5
 10
93.052496856999824
 20
-350.15854811570011
 30
0.0
 11
93.052496856999824
 21
-358.24145188440002
 31
0.0
  0
LINE
  8
DETAIL
  6
CONTINUOUS
 62
     5
 10
91.991836685299859
 20
-354.19999999999999
 30
0.0
 11
91.982801972400011
 21
-354.80566349800011
 31
0.0
  0
LINE
  8
DETAIL
  6
CONTINUOUS
 62
     5
 10
91.982801972400011
 20
-354.80566349800011
 30
0.0
 11
91.956797134599583
 21
-355.41097479770002
 31
0.0
  0
LINE
  8
DETAIL
  6
CONTINUOUS
 62
     5
 10
91.956797134599583
 20
-355.41097479770002
 30
0.0
 11
91.913587994599766
 21
-356.01514377080002
 31
0.0
  0
LINE
  8
DETAIL
  6
CONTINUOUS
 62
     5
 10
91.913587994599766
 20
-356.01514377080002
 30
0.0
 11
91.853877084299711
 21
-356.62054080249999
 31
0.0
  0
LINE
  8
DETAIL
  6
CONTINUOUS
 62
     5
 10
91.853877084299711
 20
-356.62054080249999
 30
0.0
 11
91.778406139299932
 21
-357.22740473520003
 31
0.0
  0
LINE
  8
DETAIL
  6
CONTINUOUS
 62
     5
 10
91.778406139299932
 20
-357.22740473520003
 30
0.0
 11
91.686823370299862
 21
-357.84134006959988
 31
0.0
  0
LINE
  8
DETAIL
  6
CONTINUOUS
 62
     5
 10
91.686823370299862
 20
-357.84134006959988
 30
0.0
 11
91.579011164999883
 21
-358.46874143489998
 31
0.0
  0
LINE
  8
DETAIL
  6
CONTINUOUS
 62
     5
 10
91.579011164999883
 20
-358.46874143489998
 30
0.0
 11
91.455008727499717
 21
-359.10747728809997
 31
0.0
  0
LINE
  8
DETAIL
  6
CONTINUOUS
 62
     5
 10
91.991836685299859
 20
-274.19999999999999
 30
0.0
 11
91.982801972400011
 21
-274.80566349800011
 31
0.0
  0
LINE
  8
DETAIL
  6
CONTINUOUS
 62
     5
 10
91.982801972400011
 20
-274.80566349800011
 30
0.0
 11
91.956797134599583
 21
-275.41097479770002
 31
0.0
  0
LINE
  8
DETAIL
  6
CONTINUOUS
 62
     5
 10
91.956797134599583
 20
-275.41097479770002
 30
0.0
 11
91.913587994599766
 21
-276.01514377080002
 31
0.0
  0
LINE
  8
DETAIL
  6
CONTINUOUS
 62
     5
 10
91.913587994599766
 20
-276.01514377080002
 30
0.0
 11
91.853877084299711
 21
-276.62054080249999
 31
0.0
  0
LINE
  8
DETAIL
  6
CONTINUOUS
 62
     5
 10
91.853877084299711
 20
-276.62054080249999
 30
0.0
 11
91.778406139299932
 21
-277.22740473520003
 31
0.0
  0
LINE
  8
DETAIL
  6
CONTINUOUS
 62
     5
 10
91.778406139299932
 20
-277.22740473520003
 30
0.0
 11
91.686823370299862
 21
-277.84134006959988
 31
0.0
  0
LINE
  8
DETAIL
  6
CONTINUOUS
 62
     5
 10
91.686823370299862
 20
-277.84134006959988
 30
0.0
 11
91.579011164999883
 21
-278.46874143489998
 31
0.0
  0
LINE
  8
DETAIL
  6
CONTINUOUS
 62
     5
 10
91.579011164999883
 20
-278.46874143489998
 30
0.0
 11
91.455008727499717
 21
-279.10747728810009
 31
0.0
  0
LINE
  8
DETAIL
  6
CONTINUOUS
 62
     5
 10
103.4758240075998
 20
-279.10747728810009
 30
0.0
 11
103.59989067080009
 21
-278.46837198909998
 31
0.0
  0
LINE
  8
DETAIL
  6
CONTINUOUS
 62
     5
 10
103.59989067080009
 20
-278.46837198909998
 30
0.0
 11
103.7077390149998
 21
-277.84071571250001
 31
0.0
  0
LINE
  8
DETAIL
  6
CONTINUOUS
 62
     5
 10
103.7077390149998
 20
-277.84071571250001
 30
0.0
 11
103.79932580799959
 21
-277.22663978029999
 31
0.0
  0
LINE
  8
DETAIL
  6
CONTINUOUS
 62
     5
 10
103.79932580799959
 20
-277.22663978029999
 30
0.0
 11
103.8747807464997
 21
-276.61975022649989
 31
0.0
  0
LINE
  8
DETAIL
  6
CONTINUOUS
 62
     5
 10
103.8747807464997
 20
-276.61975022649989
 30
0.0
 11
103.9344627501996
 21
-276.01445958909989
 31
0.0
  0
LINE
  8
DETAIL
  6
CONTINUOUS
 62
     5
 10
103.9344627501996
 20
-276.01445958909989
 30
0.0
 11
103.9776409183996
 21
-275.41047967769998
 31
0.0
  0
LINE
  8
DETAIL
  6
CONTINUOUS
 62
     5
 10
103.9776409183996
 20
-275.41047967769998
 30
0.0
 11
104.0036275824996
 21
-274.80539097999991
 31
0.0
  0
LINE
  8
DETAIL
  6
CONTINUOUS
 62
     5
 10
104.0036275824996
 20
-274.80539097999991
 30
0.0
 11
104.0126519654996
 21
-274.19999999999999
 31
0.0
  0
LINE
  8
DETAIL
  6
CONTINUOUS
 62
     5
 10
97.465416367600028
 20
-264.38504542380002
 30
0.0
 11
97.104705035699681
 21
-264.81274103869998
 31
0.0
  0
LINE
  8
DETAIL
  6
CONTINUOUS
 62
     5
 10
97.104705035699681
 20
-264.81274103869998
 30
0.0
 11
96.726288987999851
 21
-265.23085971469999
 31
0.0
  0
LINE
  8
DETAIL
  6
CONTINUOUS
 62
     5
 10
96.726288987999851
 20
-265.23085971469999
 30
0.0
 11
96.332576795200112
 21
-265.63745026200007
 31
0.0
  0
LINE
  8
DETAIL
  6
CONTINUOUS
 62
     5
 10
96.332576795200112
 20
-265.63745026200007
 30
0.0
 11
95.916342744999838
 21
-266.03836625010013
 31
0.0
  0
LINE
  8
DETAIL
  6
CONTINUOUS
 62
     5
 10
95.916342744999838
 20
-266.03836625010013
 30
0.0
 11
95.470361124899682
 21
-266.43946124849998
 31
0.0
  0
LINE
  8
DETAIL
  6
CONTINUOUS
 62
     5
 10
95.470361124899682
 20
-266.43946124849998
 30
0.0
 11
94.997040505899804
 21
-266.83878406730008
 31
0.0
  0
LINE
  8
DETAIL
  6
CONTINUOUS
 62
     5
 10
101.00744814459991
 20
-281.56121593300008
 30
0.0
 11
101.53769129849979
 21
-281.07348240679988
 31
0.0
  0
LINE
  8
DETAIL
  6
CONTINUOUS
 62
     5
 10
101.53769129849979
 20
-281.07348240679988
 30
0.0
 11
102.0239920339
 21
-280.51673101670008
 31
0.0
  0
LINE
  8
DETAIL
  6
CONTINUOUS
 62
     5
 10
102.0239920339
 20
-280.51673101670008
 30
0.0
 11
102.46864696749979
 21
-279.88735459710011
 31
0.0
  0
LINE
  8
DETAIL
  6
CONTINUOUS
 62
     5
 10
102.46864696749979
 20
-279.88735459710011
 30
0.0
 11
102.8647662490998
 21
-279.19617464480012
 31
0.0
  0
LINE
  8
DETAIL
  6
CONTINUOUS
 62
     5
 10
102.8647662490998
 20
-279.19617464480012
 30
0.0
 11
103.2071761487996
 21
-278.44980903840008
 31
0.0
  0
LINE
  8
DETAIL
  6
CONTINUOUS
 62
     5
 10
103.2071761487996
 20
-278.44980903840008
 30
0.0
 11
103.4930249232998
 21
-277.65726146669999
 31
0.0
  0
LINE
  8
DETAIL
  6
CONTINUOUS
 62
     5
 10
103.4930249232998
 20
-277.65726146669999
 30
0.0
 11
103.7182248334998
 21
-276.82652643189988
 31
0.0
  0
LINE
  8
DETAIL
  6
CONTINUOUS
 62
     5
 10
103.7182248334998
 20
-276.82652643189988
 30
0.0
 11
103.8813101378
 21
-275.96724937279998
 31
0.0
  0
LINE
  8
DETAIL
  6
CONTINUOUS
 62
     5
 10
103.8813101378
 20
-275.96724937279998
 30
0.0
 11
103.9790989749999
 21
-275.09327934620012
 31
0.0
  0
LINE
  8
DETAIL
  6
CONTINUOUS
 62
     5
 10
103.9790989749999
 20
-275.09327934620012
 30
0.0
 11
104.0126519655996
 21
-274.19999999999999
 31
0.0
  0
LINE
  8
DETAIL
  6
CONTINUOUS
 62
     5
 10
101.00744814479999
 20
-281.56121593270001
 30
0.0
 11
101.4811527198999
 21
-281.16154169170011
 31
0.0
  0
LINE
  8
DETAIL
  6
CONTINUOUS
 62
     5
 10
101.4811527198999
 20
-281.16154169170011
 30
0.0
 11
101.9273227848998
 21
-280.76026494469988
 31
0.0
  0
LINE
  8
DETAIL
  6
CONTINUOUS
 62
     5
 10
101.9273227848998
 20
-280.76026494469988
 30
0.0
 11
102.3435104605996
 21
-280.35936416720011
 31
0.0
  0
LINE
  8
DETAIL
  6
CONTINUOUS
 62
     5
 10
102.3435104605996
 20
-280.35936416720011
 30
0.0
 11
102.7370593841997
 21
-279.95290393270011
 31
0.0
  0
LINE
  8
DETAIL
  6
CONTINUOUS
 62
     5
 10
102.7370593841997
 20
-279.95290393270011
 30
0.0
 11
103.1153131929
 21
-279.53494881450013
 31
0.0
  0
LINE
  8
DETAIL
  6
CONTINUOUS
 62
     5
 10
103.1153131929
 20
-279.53494881450013
 30
0.0
 11
103.4758240075998
 21
-279.10747728810009
 31
0.0
  0
LINE
  8
DETAIL
  6
CONTINUOUS
 62
     5
 10
98.002244325299671
 20
-282.28290376870012
 30
0.0
 11
102.9519917936
 21
-278.24145188440002
 31
0.0
  0
LINE
  8
DETAIL
  6
CONTINUOUS
 62
     5
 10
97.648690934699971
 20
-281.99422863410001
 30
0.0
 11
102.24488501249969
 21
-278.24145188440002
 31
0.0
  0
LINE
  8
DETAIL
  6
CONTINUOUS
 62
     5
 10
-77.918608217600195
 20
-418.56781169279998
 30
0.0
 11
-77.893230070700156
 21
-418.55272779360013
 31
0.0
  0
LINE
  8
DETAIL
  6
CONTINUOUS
 62
     5
 10
-77.893230070700156
 20
-418.55272779360013
 30
0.0
 11
-77.732149604000369
 21
-418.43979640269998
 31
0.0
  0
LINE
  8
DETAIL
  6
CONTINUOUS
 62
     5
 10
-77.732149604000369
 20
-418.43979640269998
 30
0.0
 11
-77.566875400000299
 21
-418.29540357629998
 31
0.0
  0
LINE
  8
DETAIL
  6
CONTINUOUS
 62
     5
 10
-77.566875400000299
 20
-418.29540357629998
 30
0.0
 11
-77.398102998899958
 21
-418.11944341639992
 31
0.0
  0
LINE
  8
DETAIL
  6
CONTINUOUS
 62
     5
 10
-77.91861579200031
 20
-418.56761637039989
 30
0.0
 11
-78.147910964700259
 21
-418.69999999999999
 31
0.0
  0
LINE
  8
DETAIL
  6
CONTINUOUS
 62
     5
 10
147.95314970189969
 20
-338.28651719710001
 30
0.0
 11
149.1179024449998
 21
-337.92909236240013
 31
0.0
  0
LINE
  8
DETAIL
  6
CONTINUOUS
 62
     5
 10
149.1179024449998
 20
-337.92909236240013
 30
0.0
 11
150.25730981639981
 21
-337.46226862279991
 31
0.0
  0
LINE
  8
DETAIL
  6
CONTINUOUS
 62
     5
 10
150.25730981639981
 20
-337.46226862279991
 30
0.0
 11
151.37395910799981
 21
-336.88456324110012
 31
0.0
  0
LINE
  8
DETAIL
  6
CONTINUOUS
 62
     5
 10
151.37395910799981
 20
-336.88456324110012
 30
0.0
 11
151.66696916249981
 21
-336.69999999999999
 31
0.0
  0
LINE
  8
DETAIL
  6
CONTINUOUS
 62
     5
 10
148.02764056550001
 20
-340.29871393249999
 30
0.0
 11
149.18835304779989
 21
-339.96382859649998
 31
0.0
  0
LINE
  8
DETAIL
  6
CONTINUOUS
 62
     5
 10
149.18835304779989
 20
-339.96382859649998
 30
0.0
 11
150.32733401109999
 21
-339.52830191470002
 31
0.0
  0
LINE
  8
DETAIL
  6
CONTINUOUS
 62
     5
 10
470.72083602150002
 20
-0.0000000000001137
 30
0.0
 11
470.6822550582001
 21
-0.003777873400054
 31
0.0
  0
LINE
  8
DETAIL
  6
CONTINUOUS
 62
     5
 10
470.6822550582001
 20
-0.003777873400054
 30
0.0
 11
470.64683177010011
 21
-0.0151015332000952
 31
0.0
  0
LINE
  8
DETAIL
  6
CONTINUOUS
 62
     5
 10
470.64683177010011
 20
-0.0151015332000952
 30
0.0
 11
470.61460961789999
 21
-0.0339390162000655
 31
0.0
  0
LINE
  8
DETAIL
  6
CONTINUOUS
 62
     5
 10
470.61460961789999
 20
-0.0339390162000655
 30
0.0
 11
470.58545821959979
 21
-0.0602314561000412
 31
0.0
  0
LINE
  8
DETAIL
  6
CONTINUOUS
 62
     5
 10
470.58545821959979
 20
-0.0602314561000412
 30
0.0
 11
470.55927252140009
 21
-0.0938974765000467
 31
0.0
  0
LINE
  8
DETAIL
  6
CONTINUOUS
 62
     5
 10
470.55927252140009
 20
-0.0938974765000467
 30
0.0
 11
470.53601999939968
 21
-0.1348190226001407
 31
0.0
  0
LINE
  8
DETAIL
  6
CONTINUOUS
 62
     5
 10
470.53601999939968
 20
-0.1348190226001407
 30
0.0
 11
470.51565123230012
 21
-0.1828365943000563
 31
0.0
  0
LINE
  8
DETAIL
  6
CONTINUOUS
 62
     5
 10
470.51565123230012
 20
-0.1828365943000563
 30
0.0
 11
470.49811185849973
 21
-0.2378181474000485
 31
0.0
  0
LINE
  8
DETAIL
  6
CONTINUOUS
 62
     5
 10
470.49811185849973
 20
-0.2378181474000485
 30
0.0
 11
470.4833401400997
 21
-0.2996268348000513
 31
0.0
  0
LINE
  8
DETAIL
  6
CONTINUOUS
 62
     5
 10
470.4833401400997
 20
-0.2996268348000513
 30
0.0
 11
470.4713087844998
 21
-0.3680400110000619
 31
0.0
  0
LINE
  8
DETAIL
  6
CONTINUOUS
 62
     5
 10
470.4713087844998
 20
-0.3680400110000619
 30
0.0
 11
470.46197369509991
 21
-0.4428074779000326
 31
0.0
  0
LINE
  8
DETAIL
  6
CONTINUOUS
 62
     5
 10
470.46197369509991
 20
-0.4428074779000326
 30
0.0
 11
470.45532354660008
 21
-0.5237127875000169
 31
0.0
  0
LINE
  8
DETAIL
  6
CONTINUOUS
 62
     5
 10
470.45532354660008
 20
-0.5237127875000169
 30
0.0
 11
470.45132997429982
 21
-0.6105172332000848
 31
0.0
  0
LINE
  8
DETAIL
  6
CONTINUOUS
 62
     5
 10
470.45132997429982
 20
-0.6105172332000848
 30
0.0
 11
470.44999999999982
 21
-0.7029437252000435
 31
0.0
  0
LINE
  8
DETAIL
  6
CONTINUOUS
 62
     5
 10
470.72083602150002
 20
-1.200000000000045
 30
0.0
 11
470.67836518639979
 21
-1.20231499700003
 31
0.0
  0
LINE
  8
DETAIL
  6
CONTINUOUS
 62
     5
 10
470.67836518639979
 20
-1.20231499700003
 30
0.0
 11
470.63989167840009
 21
-1.2091970260000831
 31
0.0
  0
LINE
  8
DETAIL
  6
CONTINUOUS
 62
     5
 10
470.63989167840009
 20
-1.2091970260000831
 30
0.0
 11
470.60550902229988
 21
-1.22053530369999
 31
0.0
  0
LINE
  8
DETAIL
  6
CONTINUOUS
 62
     5
 10
470.60550902229988
 20
-1.22053530369999
 30
0.0
 11
470.5749366437999
 21
-1.2362200608000651
 31
0.0
  0
LINE
  8
DETAIL
  6
CONTINUOUS
 62
     5
 10
470.5749366437999
 20
-1.2362200608000651
 30
0.0
 11
470.54794781419969
 21
-1.256145898400064
 31
0.0
  0
LINE
  8
DETAIL
  6
CONTINUOUS
 62
     5
 10
470.54794781419969
 20
-1.256145898400064
 30
0.0
 11
470.52447452169957
 21
-1.280165691700063
 31
0.0
  0
LINE
  8
DETAIL
  6
CONTINUOUS
 62
     5
 10
470.52447452169957
 20
-1.280165691700063
 30
0.0
 11
470.50441660169957
 21
-1.308091932000025
 31
0.0
  0
LINE
  8
DETAIL
  6
CONTINUOUS
 62
     5
 10
470.50441660169957
 20
-1.308091932000025
 30
0.0
 11
470.4942721540001
 21
-1.3272924729001261
 31
0.0
  0
LINE
  8
DETAIL
  6
CONTINUOUS
 62
     5
 10
-475.0
 20
-35.0
 30
0.0
 11
475.0
 21
-35.000000000000107
 31
0.0
  0
LINE
  8
DETAIL
  6
CONTINUOUS
 62
     5
 10
91.99183668509977
 20
-354.19999999999999
 30
0.0
 11
92.025389675599854
 21
-355.09327934599992
 31
0.0
  0
LINE
  8
DETAIL
  6
CONTINUOUS
 62
     5
 10
92.025389675599854
 20
-355.09327934599992
 30
0.0
 11
92.123178512799768
 21
-355.9672493723001
 31
0.0
  0
LINE
  8
DETAIL
  6
CONTINUOUS
 62
     5
 10
92.123178512799768
 20
-355.9672493723001
 30
0.0
 11
92.286263816999963
 21
-356.82652643120002
 31
0.0
  0
LINE
  8
DETAIL
  6
CONTINUOUS
 62
     5
 10
92.286263816999963
 20
-356.82652643120002
 30
0.0
 11
92.511463726999864
 21
-357.65726146579999
 31
0.0
  0
LINE
  8
DETAIL
  6
CONTINUOUS
 62
     5
 10
92.511463726999864
 20
-357.65726146579999
 30
0.0
 11
92.797312501399574
 21
-358.44980903730021
 31
0.0
  0
LINE
  8
DETAIL
  6
CONTINUOUS
 62
     5
 10
92.797312501399574
 20
-358.44980903730021
 30
0.0
 11
93.1397224008997
 21
-359.19617464359987
 31
0.0
  0
LINE
  8
DETAIL
  6
CONTINUOUS
 62
     5
 10
93.1397224008997
 20
-359.19617464359987
 30
0.0
 11
93.535841682399678
 21
-359.88735459579988
 31
0.0
  0
LINE
  8
DETAIL
  6
CONTINUOUS
 62
     5
 10
93.535841682399678
 20
-359.88735459579988
 30
0.0
 11
93.980496615699849
 21
-360.51673101529991
 31
0.0
  0
LINE
  8
DETAIL
  6
CONTINUOUS
 62
     5
 10
93.980496615699849
 20
-360.51673101529991
 30
0.0
 11
94.466797350799879
 21
-361.07348240540011
 31
0.0
  0
LINE
  8
DETAIL
  6
CONTINUOUS
 62
     5
 10
94.466797350799879
 20
-361.07348240540011
 30
0.0
 11
94.997040504499637
 21
-361.56121593170008
 31
0.0
  0
LINE
  8
DETAIL
  6
CONTINUOUS
 62
     5
 10
87.042089216899967
 20
-269.29252271189989
 30
0.0
 11
87.042089216899967
 21
-279.10747728810009
 31
0.0
  0
LINE
  8
DETAIL
  6
CONTINUOUS
 62
     5
 10
87.042089216899967
 20
-349.29252271189989
 30
0.0
 11
87.042089216899967
 21
-359.10747728809997
 31
0.0
  0
LINE
  8
DETAIL
  6
CONTINUOUS
 62
     5
 10
86.573617099399598
 20
-413.19999999999999
 30
0.0
 11
86.573631351499898
 21
-430.31071040950002
 31
0.0
  0
LINE
  8
DETAIL
  6
CONTINUOUS
 62
     5
 10
78.277838836099818
 20
-413.19999999999999
 30
0.0
 11
78.277838836099818
 21
-418.11944341639992
 31
0.0
  0
LINE
  8
DETAIL
  6
CONTINUOUS
 62
     5
 10
72.970611060100055
 20
-413.19999999999999
 30
0.0
 11
72.970611060100055
 21
-418.11944341639992
 31
0.0
  0
LINE
  8
DETAIL
  6
CONTINUOUS
 62
     5
 10
70.071526468499997
 20
-374.19999999999999
 30
0.0
 11
70.071526468499997
 21
-263.33113174969998
 31
0.0
  0
LINE
  8
DETAIL
  6
CONTINUOUS
 62
     5
 10
65.720803094299754
 20
-413.19999999999999
 30
0.0
 11
65.720803094299754
 21
-418.11944341639992
 31
0.0
  0
LINE
  8
DETAIL
  6
CONTINUOUS
 62
     5
 10
64.0136184373996
 20
-374.19999999999999
 30
0.0
 11
64.0136184373996
 21
-403.19999999999999
 31
0.0
  0
LINE
  8
DETAIL
  6
CONTINUOUS
 62
     5
 10
63.778222904599723
 20
-413.19999999999999
 30
0.0
 11
63.778222904599723
 21
-418.11944341639992
 31
0.0
  0
LINE
  8
DETAIL
  6
CONTINUOUS
 62
     5
 10
63.707565437799992
 20
-374.19999999999999
 30
0.0
 11
63.707565437799992
 21
-265.71730734089999
 31
0.0
  0
LINE
  8
DETAIL
  6
CONTINUOUS
 62
     5
 10
52.019312013099807
 20
-215.19999999999999
 30
0.0
 11
52.019288294699891
 21
-198.08928959059989
 31
0.0
  0
LINE
  8
DETAIL
  6
CONTINUOUS
 62
     5
 10
51.912734265999923
 20
-225.19999999999999
 30
0.0
 11
51.912734265999923
 21
-246.08343513130009
 31
0.0
  0
LINE
  8
DETAIL
  6
CONTINUOUS
 62
     5
 10
51.912734265999923
 20
-270.01001347670012
 30
0.0
 11
51.912734265999923
 21
-403.19999999999999
 31
0.0
  0
LINE
  8
DETAIL
  6
CONTINUOUS
 62
     5
 10
52.019288291599878
 20
-430.31071040950002
 30
0.0
 11
52.019312013099807
 21
-413.19999999999999
 31
0.0
  0
LINE
  8
DETAIL
  6
CONTINUOUS
 62
     5
 10
52.019288291599878
 20
-430.31071040950002
 30
0.0
 11
52.010000605199821
 21
-430.65337052860002
 31
0.0
  0
LINE
  8
DETAIL
  6
CONTINUOUS
 62
     5
 10
52.010000605199821
 20
-430.65337052860002
 30
0.0
 11
51.986168755399831
 21
-430.99468505049998
 31
0.0
  0
LINE
  8
DETAIL
  6
CONTINUOUS
 62
     5
 10
51.986168755399831
 20
-430.99468505049998
 30
0.0
 11
51.947841991099722
 21
-431.33303545929988
 31
0.0
  0
LINE
  8
DETAIL
  6
CONTINUOUS
 62
     5
 10
51.947841991099722
 20
-431.33303545929988
 30
0.0
 11
51.895186866099721
 21
-431.66683262430001
 31
0.0
  0
LINE
  8
DETAIL
  6
CONTINUOUS
 62
     5
 10
51.895186866099721
 20
-431.66683262430001
 30
0.0
 11
51.828389011699983
 21
-431.99456017010021
 31
0.0
  0
LINE
  8
DETAIL
  6
CONTINUOUS
 62
     5
 10
51.828389011699983
 20
-431.99456017010021
 30
0.0
 11
51.747790928399809
 21
-432.31446783389993
 31
0.0
  0
LINE
  8
DETAIL
  6
CONTINUOUS
 62
     5
 10
51.747790928399809
 20
-432.31446783389993
 30
0.0
 11
51.653815839699753
 21
-432.62480542859998
 31
0.0
  0
LINE
  8
DETAIL
  6
CONTINUOUS
 62
     5
 10
51.653815839699753
 20
-432.62480542859998
 30
0.0
 11
51.546851509099717
 21
-432.92432510549997
 31
0.0
  0
LINE
  8
DETAIL
  6
CONTINUOUS
 62
     5
 10
51.546851509099717
 20
-432.92432510549997
 30
0.0
 11
51.427306120599951
 21
-433.21175766789997
 31
0.0
  0
LINE
  8
DETAIL
  6
CONTINUOUS
 62
     5
 10
51.427306120599951
 20
-433.21175766789997
 30
0.0
 11
51.295771757700088
 21
-433.48560730960003
 31
0.0
  0
LINE
  8
DETAIL
  6
CONTINUOUS
 62
     5
 10
51.295771757700088
 20
-433.48560730960003
 30
0.0
 11
51.152845583699673
 21
-433.74452643670008
 31
0.0
  0
LINE
  8
DETAIL
  6
CONTINUOUS
 62
     5
 10
51.152845583699673
 20
-433.74452643670008
 30
0.0
 11
50.999245371299821
 21
-433.98719007099999
 31
0.0
  0
LINE
  8
DETAIL
  6
CONTINUOUS
 62
     5
 10
50.999245371299821
 20
-433.98719007099999
 30
0.0
 11
50.835757821799689
 21
-434.21231915029989
 31
0.0
  0
LINE
  8
DETAIL
  6
CONTINUOUS
 62
     5
 10
50.835757821799689
 20
-434.21231915029989
 30
0.0
 11
50.66307701939968
 21
-434.41895327589998
 31
0.0
  0
LINE
  8
DETAIL
  6
CONTINUOUS
 62
     5
 10
50.66307701939968
 20
-434.41895327589998
 30
0.0
 11
50.481901241999822
 21
-434.60617357839999
 31
0.0
  0
LINE
  8
DETAIL
  6
CONTINUOUS
 62
     5
 10
50.481901241999822
 20
-434.60617357839999
 30
0.0
 11
50.293172564399811
 21
-434.77294579580013
 31
0.0
  0
LINE
  8
DETAIL
  6
CONTINUOUS
 62
     5
 10
50.293172564399811
 20
-434.77294579580013
 30
0.0
 11
50.097786729199917
 21
-434.91841568320001
 31
0.0
  0
LINE
  8
DETAIL
  6
CONTINUOUS
 62
     5
 10
50.097786729199917
 20
-434.91841568320001
 30
0.0
 11
49.896792918500068
 21
-435.04178491599998
 31
0.0
  0
LINE
  8
DETAIL
  6
CONTINUOUS
 62
     5
 10
49.896792918500068
 20
-435.04178491599998
 30
0.0
 11
49.691305005099821
 21
-435.14238452119997
 31
0.0
  0
LINE
  8
DETAIL
  6
CONTINUOUS
 62
     5
 10
49.691305005099821
 20
-435.14238452119997
 30
0.0
 11
49.482189135599583
 21
-435.21982243420013
 31
0.0
  0
LINE
  8
DETAIL
  6
CONTINUOUS
 62
     5
 10
49.482189135599583
 20
-435.21982243420013
 30
0.0
 11
49.270432217500002
 21
-435.27374594180009
 31
0.0
  0
LINE
  8
DETAIL
  6
CONTINUOUS
 62
     5
 10
49.270432217500002
 20
-435.27374594180009
 30
0.0
 11
49.056829530200048
 21
-435.30385808320011
 31
0.0
  0
LINE
  8
DETAIL
  6
CONTINUOUS
 62
     5
 10
-89.955138740700022
 20
-418.11944341639992
 30
0.0
 11
-90.124030304500138
 21
-418.29550770659989
 31
0.0
  0
LINE
  8
DETAIL
  6
CONTINUOUS
 62
     5
 10
-90.124030304500138
 20
-418.29550770659989
 30
0.0
 11
-90.289379545600241
 21
-418.43994983450011
 31
0.0
  0
LINE
  8
DETAIL
  6
CONTINUOUS
 62
     5
 10
-90.289379545600241
 20
-418.43994983450011
 30
0.0
 11
-90.450494241900287
 21
-418.5528633455001
 31
0.0
  0
LINE
  8
DETAIL
  6
CONTINUOUS
 62
     5
 10
-90.450494241900287
 20
-418.5528633455001
 30
0.0
 11
-90.60945105960036
 21
-418.63396760370011
 31
0.0
  0
LINE
  8
DETAIL
  6
CONTINUOUS
 62
     5
 10
-90.60945105960036
 20
-418.63396760370011
 30
0.0
 11
-90.768326664699998
 21
-418.68298197349998
 31
0.0
  0
LINE
  8
DETAIL
  6
CONTINUOUS
 62
     5
 10
-90.768326664699998
 20
-418.68298197349998
 30
0.0
 11
-90.926428835300158
 21
-418.69999999999999
 31
0.0
  0
LINE
  8
DETAIL
  6
CONTINUOUS
 62
     5
 10
94.997040505999848
 20
-266.83878406710011
 30
0.0
 11
94.466797352100002
 21
-267.32651759330003
 31
0.0
  0
LINE
  8
DETAIL
  6
CONTINUOUS
 62
     5
 10
94.466797352100002
 20
-267.32651759330003
 30
0.0
 11
93.980496616799883
 21
-267.88326898330001
 31
0.0
  0
LINE
  8
DETAIL
  6
CONTINUOUS
 62
     5
 10
93.980496616799883
 20
-267.88326898330001
 30
0.0
 11
93.535841683199578
 21
-268.51264540289998
 31
0.0
  0
LINE
  8
DETAIL
  6
CONTINUOUS
 62
     5
 10
93.535841683199578
 20
-268.51264540289998
 30
0.0
 11
93.139722401600011
 21
-269.20382535520002
 31
0.0
  0
LINE
  8
DETAIL
  6
CONTINUOUS
 62
     5
 10
93.139722401600011
 20
-269.20382535520002
 30
0.0
 11
92.797312501899796
 21
-269.95019096160001
 31
0.0
  0
LINE
  8
DETAIL
  6
CONTINUOUS
 62
     5
 10
92.797312501899796
 20
-269.95019096160001
 30
0.0
 11
92.511463727299997
 21
-270.7427385333001
 31
0.0
  0
LINE
  8
DETAIL
  6
CONTINUOUS
 62
     5
 10
92.511463727299997
 20
-270.7427385333001
 30
0.0
 11
92.286263817200052
 21
-271.5734735681001
 31
0.0
  0
LINE
  8
DETAIL
  6
CONTINUOUS
 62
     5
 10
92.286263817200052
 20
-271.5734735681001
 30
0.0
 11
92.123178512899813
 21
-272.43275062729998
 31
0.0
  0
LINE
  8
DETAIL
  6
CONTINUOUS
 62
     5
 10
92.123178512899813
 20
-272.43275062729998
 30
0.0
 11
92.025389675699898
 21
-273.30672065380008
 31
0.0
  0
LINE
  8
DETAIL
  6
CONTINUOUS
 62
     5
 10
92.025389675699898
 20
-273.30672065380008
 30
0.0
 11
91.99183668509977
 21
-274.19999999999999
 31
0.0
  0
LINE
  8
DETAIL
  6
CONTINUOUS
 62
     5
 10
98.002244325299671
 20
-266.11709623140001
 30
0.0
 11
93.052496856999824
 21
-270.15854811570011
 31
0.0
  0
LINE
  8
DETAIL
  6
CONTINUOUS
 62
     5
 10
93.052496856999824
 20
-264.38504542380002
 30
0.0
 11
87.042089216899967
 21
-269.29252271189989
 31
0.0
  0
LINE
  8
DETAIL
  6
CONTINUOUS
 62
     5
 10
94.997040505899804
 20
-266.83878406730008
 30
0.0
 11
94.491747127399776
 21
-267.2384583083001
 31
0.0
  0
LINE
  8
DETAIL
  6
CONTINUOUS
 62
     5
 10
94.491747127399776
 20
-267.2384583083001
 30
0.0
 11
93.95499391659996
 21
-267.63973505529998
 31
0.0
  0
LINE
  8
DETAIL
  6
CONTINUOUS
 62
     5
 10
93.95499391659996
 20
-267.63973505529998
 30
0.0
 11
93.389179249899826
 21
-268.04063583279998
 31
0.0
  0
LINE
  8
DETAIL
  6
CONTINUOUS
 62
     5
 10
93.389179249899826
 20
-268.04063583279998
 30
0.0
 11
92.7871079980996
 21
-268.44709606740003
 31
0.0
  0
LINE
  8
DETAIL
  6
CONTINUOUS
 62
     5
 10
92.7871079980996
 20
-268.44709606740003
 30
0.0
 11
92.141585031799877
 21
-268.86505118560012
 31
0.0
  0
LINE
  8
DETAIL
  6
CONTINUOUS
 62
     5
 10
92.141585031799877
 20
-268.86505118560012
 30
0.0
 11
91.455008727499717
 21
-269.29252271189989
 31
0.0
  0
LINE
  8
DETAIL
  6
CONTINUOUS
 62
     5
 10
97.465416367600028
 20
-284.01495457620013
 30
0.0
 11
98.152341057299964
 21
-283.58725896139998
 31
0.0
  0
LINE
  8
DETAIL
  6
CONTINUOUS
 62
     5
 10
98.152341057299964
 20
-283.58725896139998
 30
0.0
 11
98.798102417699738
 21
-283.16914028540009
 31
0.0
  0
LINE
  8
DETAIL
  6
CONTINUOUS
 62
     5
 10
98.798102417699738
 20
-283.16914028540009
 30
0.0
 11
99.400329600100122
 21
-282.76254973810001
 31
0.0
  0
LINE
  8
DETAIL
  6
CONTINUOUS
 62
     5
 10
99.400329600100122
 20
-282.76254973810001
 30
0.0
 11
99.966135150400078
 21
-282.36163375000001
 31
0.0
  0
LINE
  8
DETAIL
  6
CONTINUOUS
 62
     5
 10
99.966135150400078
 20
-282.36163375000001
 30
0.0
 11
100.5026316148997
 21
-281.96053875159998
 31
0.0
  0
LINE
  8
DETAIL
  6
CONTINUOUS
 62
     5
 10
100.5026316148997
 20
-281.96053875159998
 30
0.0
 11
101.00744814479999
 21
-281.56121593270001
 31
0.0
  0
LINE
  8
DETAIL
  6
CONTINUOUS
 62
     5
 10
-3.2291639785003099
 20
-2.3999999999999768
 30
0.0
 11
-3.2677647050004448
 21
-2.265311180599952
 31
0.0
  0
LINE
  8
DETAIL
  6
CONTINUOUS
 62
     5
 10
-3.2677647050004448
 20
-2.265311180599952
 30
0.0
 11
-3.303196909800135
 21
-2.1310688981000112
 31
0.0
  0
LINE
  8
DETAIL
  6
CONTINUOUS
 62
     5
 10
-3.303196909800135
 20
-2.1310688981000112
 30
0.0
 11
-3.3354131194000729
 21
-1.9977062243000321
 31
0.0
  0
LINE
  8
DETAIL
  6
CONTINUOUS
 62
     5
 10
-3.3354131194000729
 20
-1.9977062243000321
 30
0.0
 11
-3.364555754100365
 21
-1.8656115640000051
 31
0.0
  0
LINE
  8
DETAIL
  6
CONTINUOUS
 62
     5
 10
-3.364555754100365
 20
-1.8656115640000051
 30
0.0
 11
-3.3907442839999931
 21
-1.7351425240000251
 31
0.0
  0
LINE
  8
DETAIL
  6
CONTINUOUS
 62
     5
 10
-3.3907442839999931
 20
-1.7351425240000251
 30
0.0
 11
-3.414000087100248
 21
-1.6068052650999789
 31
0.0
  0
LINE
  8
DETAIL
  6
CONTINUOUS
 62
     5
 10
-3.414000087100248
 20
-1.6068052650999789
 30
0.0
 11
-3.434363635000409
 21
-1.4811154093999901
 31
0.0
  0
LINE
  8
DETAIL
  6
CONTINUOUS
 62
     5
 10
-3.434363635000409
 20
-1.4811154093999901
 30
0.0
 11
-3.4518971174002222
 21
-1.358336813599976
 31
0.0
  0
LINE
  8
DETAIL
  6
CONTINUOUS
 62
     5
 10
-3.4518971174002222
 20
-1.358336813599976
 30
0.0
 11
-3.466669041600198
 21
-1.2387366056999549
 31
0.0
  0
LINE
  8
DETAIL
  6
CONTINUOUS
 62
     5
 10
-3.466669041600198
 20
-1.2387366056999549
 30
0.0
 11
-3.4787009272999971
 21
-1.122799652200001
 31
0.0
  0
LINE
  8
DETAIL
  6
CONTINUOUS
 62
     5
 10
-3.4787009272999971
 20
-1.122799652200001
 30
0.0
 11
-3.4880318802001971
 21
-1.010978383599991
 31
0.0
  0
LINE
  8
DETAIL
  6
CONTINUOUS
 62
     5
 10
-3.4880318802001971
 20
-1.010978383599991
 30
0.0
 11
-3.4946776504002628
 21
-0.9035313084999643
 31
0.0
  0
LINE
  8
DETAIL
  6
CONTINUOUS
 62
     5
 10
-3.4946776504002628
 20
-0.9035313084999643
 30
0.0
 11
-3.4986706219001462
 21
-0.8007371679000244
 31
0.0
  0
LINE
  8
DETAIL
  6
CONTINUOUS
 62
     5
 10
-3.4986706219001462
 20
-0.8007371679000244
 30
0.0
 11
-3.5
 21
-0.7029437251999298
 31
0.0
  0
LINE
  8
DETAIL
  6
CONTINUOUS
 62
     5
 10
91.455008727499717
 20
-269.29252271189989
 30
0.0
 11
91.579075390699927
 21
-269.93162801090011
 31
0.0
  0
LINE
  8
DETAIL
  6
CONTINUOUS
 62
     5
 10
91.579075390699927
 20
-269.93162801090011
 30
0.0
 11
91.68692373490012
 21
-270.55928428760012
 31
0.0
  0
LINE
  8
DETAIL
  6
CONTINUOUS
 62
     5
 10
91.68692373490012
 20
-270.55928428760012
 30
0.0
 11
91.778510527799881
 21
-271.17336021969999
 31
0.0
  0
LINE
  8
DETAIL
  6
CONTINUOUS
 62
     5
 10
91.778510527799881
 20
-271.17336021969999
 30
0.0
 11
91.853965466400041
 21
-271.78024977349992
 31
0.0
  0
LINE
  8
DETAIL
  6
CONTINUOUS
 62
     5
 10
91.853965466400041
 20
-271.78024977349992
 30
0.0
 11
91.913647470099932
 21
-272.38554041100002
 31
0.0
  0
LINE
  8
DETAIL
  6
CONTINUOUS
 62
     5
 10
91.913647470099932
 20
-272.38554041100002
 30
0.0
 11
91.956825638199916
 21
-272.98952032230011
 31
0.0
  0
LINE
  8
DETAIL
  6
CONTINUOUS
 62
     5
 10
91.956825638199916
 20
-272.98952032230011
 30
0.0
 11
91.982812302399907
 21
-273.59460902010011
 31
0.0
  0
LINE
  8
DETAIL
  6
CONTINUOUS
 62
     5
 10
91.982812302399907
 20
-273.59460902010011
 30
0.0
 11
91.991836685299859
 21
-274.19999999999999
 31
0.0
  0
LINE
  8
DETAIL
  6
CONTINUOUS
 62
     5
 10
91.455008727499717
 20
-349.29252271189989
 30
0.0
 11
91.579075390699927
 21
-349.93162801090011
 31
0.0
  0
LINE
  8
DETAIL
  6
CONTINUOUS
 62
     5
 10
91.579075390699927
 20
-349.93162801090011
 30
0.0
 11
91.68692373490012
 21
-350.55928428760012
 31
0.0
  0
LINE
  8
DETAIL
  6
CONTINUOUS
 62
     5
 10
91.68692373490012
 20
-350.55928428760012
 30
0.0
 11
91.778510527799881
 21
-351.17336021969999
 31
0.0
  0
LINE
  8
DETAIL
  6
CONTINUOUS
 62
     5
 10
91.778510527799881
 20
-351.17336021969999
 30
0.0
 11
91.853965466400041
 21
-351.78024977349992
 31
0.0
  0
LINE
  8
DETAIL
  6
CONTINUOUS
 62
     5
 10
91.853965466400041
 20
-351.78024977349992
 30
0.0
 11
91.913647470099932
 21
-352.38554041100002
 31
0.0
  0
LINE
  8
DETAIL
  6
CONTINUOUS
 62
     5
 10
91.913647470099932
 20
-352.38554041100002
 30
0.0
 11
91.956825638199916
 21
-352.9895203223
 31
0.0
  0
LINE
  8
DETAIL
  6
CONTINUOUS
 62
     5
 10
91.956825638199916
 20
-352.9895203223
 30
0.0
 11
91.982812302399907
 21
-353.59460902010011
 31
0.0
  0
LINE
  8
DETAIL
  6
CONTINUOUS
 62
     5
 10
91.982812302399907
 20
-353.59460902010011
 30
0.0
 11
91.991836685299859
 21
-354.19999999999999
 31
0.0
  0
LINE
  8
DETAIL
  6
CONTINUOUS
 62
     5
 10
41.0
 20
-185.45517716650011
 30
0.0
 11
41.0
 21
-183.19999999999999
 31
0.0
  0
LINE
  8
DETAIL
  6
CONTINUOUS
 62
     5
 10
41.0
 20
-442.94482283360003
 30
0.0
 11
41.0
 21
-445.19999999999999
 31
0.0
  0
LINE
  8
DETAIL
  6
CONTINUOUS
 62
     5
 10
35.99645680499998
 20
-225.19999999999999
 30
0.0
 11
35.99645680499998
 21
-262.83218712840011
 31
0.0
  0
LINE
  8
DETAIL
  6
CONTINUOUS
 62
     5
 10
35.99645680499998
 20
-274.70552439810012
 30
0.0
 11
35.99645680499998
 21
-403.19999999999999
 31
0.0
  0
LINE
  8
DETAIL
  6
CONTINUOUS
 62
     5
 10
35.0
 20
-173.69999999999999
 30
0.0
 11
35.0
 21
-174.50000000000011
 31
0.0
  0
LINE
  8
DETAIL
  6
CONTINUOUS
 62
     5
 10
27.799999999999731
 20
-161.50000000000011
 30
0.0
 11
27.799999999999731
 21
-168.69999999999999
 31
0.0
  0
LINE
  8
DETAIL
  6
CONTINUOUS
 62
     5
 10
27.5
 20
-153.53115543089999
 30
0.0
 11
27.5
 21
-155.00000000000011
 31
0.0
  0
LINE
  8
DETAIL
  6
CONTINUOUS
 62
     5
 10
24.0
 20
-95.400000000000091
 30
0.0
 11
24.0
 21
-133.69999999999999
 31
0.0
  0
LINE
  8
DETAIL
  6
CONTINUOUS
 62
     5
 10
19.49103536269968
 20
-225.19999999999999
 30
0.0
 11
19.49103536269968
 21
-403.19999999999999
 31
0.0
  0
LINE
  8
DETAIL
  6
CONTINUOUS
 62
     5
 10
18.299999999999731
 20
-175.24020202540001
 30
0.0
 11
18.299999999999731
 21
-174.50000000000011
 31
0.0
  0
LINE
  8
DETAIL
  6
CONTINUOUS
 62
     5
 10
17.00101199409983
 20
-403.19999999999999
 30
0.0
 11
17.00101199409983
 21
-225.19999999999999
 31
0.0
  0
LINE
  8
DETAIL
  6
CONTINUOUS
 62
     5
 10
-97.465416367600028
 20
-364.01495457620001
 30
0.0
 11
-97.104705035700135
 21
-363.58725896139998
 31
0.0
  0
LINE
  8
DETAIL
  6
CONTINUOUS
 62
     5
 10
-97.104705035700135
 20
-363.58725896139998
 30
0.0
 11
-96.726288988000306
 21
-363.16914028540009
 31
0.0
  0
LINE
  8
DETAIL
  6
CONTINUOUS
 62
     5
 10
-96.726288988000306
 20
-363.16914028540009
 30
0.0
 11
-96.332576795200112
 21
-362.76254973810001
 31
0.0
  0
LINE
  8
DETAIL
  6
CONTINUOUS
 62
     5
 10
-96.332576795200112
 20
-362.76254973810001
 30
0.0
 11
-95.916342745000293
 21
-362.36163375000001
 31
0.0
  0
LINE
  8
DETAIL
  6
CONTINUOUS
 62
     5
 10
-95.916342745000293
 20
-362.36163375000001
 30
0.0
 11
-95.470361125000181
 21
-361.9605387516001
 31
0.0
  0
LINE
  8
DETAIL
  6
CONTINUOUS
 62
     5
 10
-95.470361125000181
 20
-361.9605387516001
 30
0.0
 11
-94.997040505900259
 21
-361.56121593270001
 31
0.0
  0
LINE
  8
DETAIL
  6
CONTINUOUS
 62
     5
 10
-94.997040506000303
 20
-361.56121593300008
 30
0.0
 11
-94.466797352200047
 21
-361.07348240679988
 31
0.0
  0
LINE
  8
DETAIL
  6
CONTINUOUS
 62
     5
 10
-94.466797352200047
 20
-361.07348240679988
 30
0.0
 11
-93.980496616800338
 21
-360.51673101670008
 31
0.0
  0
LINE
  8
DETAIL
  6
CONTINUOUS
 62
     5
 10
-93.980496616800338
 20
-360.51673101670008
 30
0.0
 11
-93.535841683200033
 21
-359.88735459710011
 31
0.0
  0
LINE
  8
DETAIL
  6
CONTINUOUS
 62
     5
 10
-93.535841683200033
 20
-359.88735459710011
 30
0.0
 11
-93.139722401600011
 21
-359.19617464480012
 31
0.0
  0
LINE
  8
DETAIL
  6
CONTINUOUS
 62
     5
 10
-93.139722401600011
 20
-359.19617464480012
 30
0.0
 11
-92.797312501900251
 21
-358.44980903840002
 31
0.0
  0
LINE
  8
DETAIL
  6
CONTINUOUS
 62
     5
 10
-92.797312501900251
 20
-358.44980903840002
 30
0.0
 11
-92.511463727299997
 21
-357.65726146669999
 31
0.0
  0
LINE
  8
DETAIL
  6
CONTINUOUS
 62
     5
 10
-92.511463727299997
 20
-357.65726146669999
 30
0.0
 11
-92.286263817200052
 21
-356.82652643189988
 31
0.0
  0
LINE
  8
DETAIL
  6
CONTINUOUS
 62
     5
 10
-92.286263817200052
 20
-356.82652643189988
 30
0.0
 11
-92.123178512900267
 21
-355.96724937279993
 31
0.0
  0
LINE
  8
DETAIL
  6
CONTINUOUS
 62
     5
 10
-92.123178512900267
 20
-355.96724937279993
 30
0.0
 11
-92.025389675700353
 21
-355.09327934620001
 31
0.0
  0
LINE
  8
DETAIL
  6
CONTINUOUS
 62
     5
 10
-92.025389675700353
 20
-355.09327934620001
 30
0.0
 11
-91.991836685100225
 21
-354.19999999999999
 31
0.0
  0
LINE
  8
DETAIL
  6
CONTINUOUS
 62
     5
 10
-101.00744814459991
 20
-346.83878406710011
 30
0.0
 11
-101.53769129850021
 21
-347.32651759330008
 31
0.0
  0
LINE
  8
DETAIL
  6
CONTINUOUS
 62
     5
 10
-101.53769129850021
 20
-347.32651759330008
 30
0.0
 11
-102.0239920339
 21
-347.88326898330001
 31
0.0
  0
LINE
  8
DETAIL
  6
CONTINUOUS
 62
     5
 10
-102.0239920339
 20
-347.88326898330001
 30
0.0
 11
-102.46864696750031
 21
-348.51264540289998
 31
0.0
  0
LINE
  8
DETAIL
  6
CONTINUOUS
 62
     5
 10
-102.46864696750031
 20
-348.51264540289998
 30
0.0
 11
-102.8647662491003
 21
-349.20382535520002
 31
0.0
  0
LINE
  8
DETAIL
  6
CONTINUOUS
 62
     5
 10
-102.8647662491003
 20
-349.20382535520002
 30
0.0
 11
-103.2071761488
 21
-349.95019096160001
 31
0.0
  0
LINE
  8
DETAIL
  6
CONTINUOUS
 62
     5
 10
-103.2071761488
 20
-349.95019096160001
 30
0.0
 11
-103.4930249234003
 21
-350.74273853329993
 31
0.0
  0
LINE
  8
DETAIL
  6
CONTINUOUS
 62
     5
 10
-103.4930249234003
 20
-350.74273853329993
 30
0.0
 11
-103.7182248335002
 21
-351.57347356809998
 31
0.0
  0
LINE
  8
DETAIL
  6
CONTINUOUS
 62
     5
 10
-103.7182248335002
 20
-351.57347356809998
 30
0.0
 11
-103.8813101378
 21
-352.43275062729998
 31
0.0
  0
LINE
  8
DETAIL
  6
CONTINUOUS
 62
     5
 10
-103.8813101378
 20
-352.43275062729998
 30
0.0
 11
-103.9790989749999
 21
-353.30672065380008
 31
0.0
  0
LINE
  8
DETAIL
  6
CONTINUOUS
 62
     5
 10
-103.9790989749999
 20
-353.30672065380008
 30
0.0
 11
-104.0126519656001
 21
-354.19999999999999
 31
0.0
  0
LINE
  8
DETAIL
  6
CONTINUOUS
 62
     5
 10
-101.00744814479999
 20
-346.83878406730003
 30
0.0
 11
-101.4811527198999
 21
-347.2384583083001
 31
0.0
  0
LINE
  8
DETAIL
  6
CONTINUOUS
 62
     5
 10
-101.4811527198999
 20
-347.2384583083001
 30
0.0
 11
-101.9273227849003
 21
-347.63973505529998
 31
0.0
  0
LINE
  8
DETAIL
  6
CONTINUOUS
 62
     5
 10
-101.9273227849003
 20
-347.63973505529998
 30
0.0
 11
-102.3435104606001
 21
-348.04063583279998
 31
0.0
  0
LINE
  8
DETAIL
  6
CONTINUOUS
 62
     5
 10
-102.3435104606001
 20
-348.04063583279998
 30
0.0
 11
-102.7370593843002
 21
-348.44709606740003
 31
0.0
  0
LINE
  8
DETAIL
  6
CONTINUOUS
 62
     5
 10
-102.7370593843002
 20
-348.44709606740003
 30
0.0
 11
-103.1153131929004
 21
-348.86505118560012
 31
0.0
  0
LINE
  8
DETAIL
  6
CONTINUOUS
 62
     5
 10
-103.1153131929004
 20
-348.86505118560012
 30
0.0
 11
-103.47582400760029
 21
-349.29252271189989
 31
0.0
  0
LINE
  8
DETAIL
  6
CONTINUOUS
 62
     5
 10
-93.052496857000278
 20
-364.01495457620001
 30
0.0
 11
-87.042089217000012
 21
-359.10747728809997
 31
0.0
  0
LINE
  8
DETAIL
  6
CONTINUOUS
 62
     5
 10
-98.002244325300126
 20
-362.28290376870001
 30
0.0
 11
-93.052496857000278
 21
-358.24145188440002
 31
0.0
  0
LINE
  8
DETAIL
  6
CONTINUOUS
 62
     5
 10
-97.648690934800015
 20
-346.40577136600001
 30
0.0
 11
-102.24488501250021
 21
-350.15854811570011
 31
0.0
  0
LINE
  8
DETAIL
  6
CONTINUOUS
 62
     5
 10
-98.002244325300126
 20
-346.11709623140001
 30
0.0
 11
-102.9519917937
 21
-350.15854811570011
 31
0.0
  0
LINE
  8
DETAIL
  6
CONTINUOUS
 62
     5
 10
-94.997040505900259
 20
-361.56121593270001
 30
0.0
 11
-94.491747127400231
 21
-361.16154169169999
 31
0.0
  0
LINE
  8
DETAIL
  6
CONTINUOUS
 62
     5
 10
-94.491747127400231
 20
-361.16154169169999
 30
0.0
 11
-93.95499391659996
 21
-360.76026494469988
 31
0.0
  0
LINE
  8
DETAIL
  6
CONTINUOUS
 62
     5
 10
-93.95499391659996
 20
-360.76026494469988
 30
0.0
 11
-93.38917924990028
 21
-360.35936416720011
 31
0.0
  0
LINE
  8
DETAIL
  6
CONTINUOUS
 62
     5
 10
-93.38917924990028
 20
-360.35936416720011
 30
0.0
 11
-92.787107998100055
 21
-359.95290393270011
 31
0.0
  0
LINE
  8
DETAIL
  6
CONTINUOUS
 62
     5
 10
-92.787107998100055
 20
-359.95290393270011
 30
0.0
 11
-92.141585031799877
 21
-359.53494881450013
 31
0.0
  0
LINE
  8
DETAIL
  6
CONTINUOUS
 62
     5
 10
-92.141585031799877
 20
-359.53494881450013
 30
0.0
 11
-91.455008727500172
 21
-359.10747728809997
 31
0.0
  0
LINE
  8
DETAIL
  6
CONTINUOUS
 62
     5
 10
-97.465416367600028
 20
-344.38504542380002
 30
0.0
 11
-98.152341057299964
 21
-344.8127410387001
 31
0.0
  0
LINE
  8
DETAIL
  6
CONTINUOUS
 62
     5
 10
-98.152341057299964
 20
-344.8127410387001
 30
0.0
 11
-98.798102417700193
 21
-345.23085971469982
 31
0.0
  0
LINE
  8
DETAIL
  6
CONTINUOUS
 62
     5
 10
-98.798102417700193
 20
-345.23085971469982
 30
0.0
 11
-99.400329600100122
 21
-345.63745026200007
 31
0.0
  0
LINE
  8
DETAIL
  6
CONTINUOUS
 62
     5
 10
-99.400329600100122
 20
-345.63745026200007
 30
0.0
 11
-99.966135150400078
 21
-346.03836625010013
 31
0.0
  0
LINE
  8
DETAIL
  6
CONTINUOUS
 62
     5
 10
-99.966135150400078
 20
-346.03836625010013
 30
0.0
 11
-100.5026316149001
 21
-346.43946124849998
 31
0.0
  0
LINE
  8
DETAIL
  6
CONTINUOUS
 62
     5
 10
-100.5026316149001
 20
-346.43946124849998
 30
0.0
 11
-101.00744814479999
 21
-346.83878406730003
 31
0.0
  0
LINE
  8
DETAIL
  6
CONTINUOUS
 62
     5
 10
469.0
 20
-94.200000000000045
 30
0.0
 11
390.89987745109971
 21
-94.200000000000045
 31
0.0
  0
LINE
  8
DETAIL
  6
CONTINUOUS
 62
     5
 10
345.89987745109971
 20
-94.200000000000045
 30
0.0
 11
-345.89987745110011
 21
-94.199999999999932
 31
0.0
  0
LINE
  8
DETAIL
  6
CONTINUOUS
 62
     5
 10
-390.89987745110011
 20
-94.199999999999932
 30
0.0
 11
-469.0
 21
-94.199999999999932
 31
0.0
  0
LINE
  8
DETAIL
  6
CONTINUOUS
 62
     5
 10
469.0
 20
-95.400000000000091
 30
0.0
 11
390.89987745109971
 21
-95.400000000000091
 31
0.0
  0
LINE
  8
DETAIL
  6
CONTINUOUS
 62
     5
 10
345.89987745109971
 20
-95.400000000000091
 30
0.0
 11
-345.89987745110011
 21
-95.399999999999977
 31
0.0
  0
LINE
  8
DETAIL
  6
CONTINUOUS
 62
     5
 10
-390.89987745110011
 20
-95.399999999999977
 30
0.0
 11
-469.0
 21
-95.399999999999977
 31
0.0
  0
LINE
  8
DETAIL
  6
CONTINUOUS
 62
     5
 10
390.89987745109971
 20
-118.45
 30
0.0
 11
396.26760929129978
 21
-118.45
 31
0.0
  0
LINE
  8
DETAIL
  6
CONTINUOUS
 62
     5
 10
342.69993698069987
 20
-119.45
 30
0.0
 11
345.89987745109971
 21
-119.45
 31
0.0
  0
LINE
  8
DETAIL
  6
CONTINUOUS
 62
     5
 10
390.89987745109971
 20
-119.45
 30
0.0
 11
396.09970674889968
 21
-119.45
 31
0.0
  0
LINE
  8
DETAIL
  6
CONTINUOUS
 62
     5
 10
393.30173190189998
 20
-120.45
 30
0.0
 11
394.42936304680012
 21
-120.45
 31
0.0
  0
LINE
  8
DETAIL
  6
CONTINUOUS
 62
     5
 10
394.42936304680012
 20
-121.95
 30
0.0
 11
393.30173190189998
 21
-121.95
 31
0.0
  0
LINE
  8
DETAIL
  6
CONTINUOUS
 62
     5
 10
342.69993698069987
 20
-122.95
 30
0.0
 11
345.89987745109971
 21
-122.95
 31
0.0
  0
LINE
  8
DETAIL
  6
CONTINUOUS
 62
     5
 10
390.89987745109971
 20
-122.95
 30
0.0
 11
396.09970674889968
 21
-122.95
 31
0.0
  0
LINE
  8
DETAIL
  6
CONTINUOUS
 62
     5
 10
390.89987745109971
 20
-123.95
 30
0.0
 11
396.26760929129978
 21
-123.95
 31
0.0
  0
LINE
  8
DETAIL
  6
CONTINUOUS
 62
     5
 10
6.998431104500014
 20
-144.11378825530011
 30
0.0
 11
6.5390449597998668
 21
-144.03054094379999
 31
0.0
  0
LINE
  8
DETAIL
  6
CONTINUOUS
 62
     5
 10
6.5390449597998668
 20
-144.03054094379999
 30
0.0
 11
6.0787472938000056
 21
-143.95668534990011
 31
0.0
  0
LINE
  8
DETAIL
  6
CONTINUOUS
 62
     5
 10
6.0787472938000056
 20
-143.95668534990011
 30
0.0
 11
5.6175526731999534
 21
-143.89184367739989
 31
0.0
  0
LINE
  8
DETAIL
  6
CONTINUOUS
 62
     5
 10
5.6175526731999534
 20
-143.89184367739989
 30
0.0
 11
5.1550881647999631
 21
-143.83586061509999
 31
0.0
  0
LINE
  8
DETAIL
  6
CONTINUOUS
 62
     5
 10
5.1550881647999631
 20
-143.83586061509999
 30
0.0
 11
4.6918103520997647
 21
-143.78847403780011
 31
0.0
  0
LINE
  8
DETAIL
  6
CONTINUOUS
 62
     5
 10
4.6918103520997647
 20
-143.78847403780011
 30
0.0
 11
4.2251044605000061
 21
-143.74959123010009
 31
0.0
  0
LINE
  8
DETAIL
  6
CONTINUOUS
 62
     5
 10
4.2251044605000061
 20
-143.74959123010009
 30
0.0
 11
3.752296192799804
 21
-143.71888345619999
 31
0.0
  0
LINE
  8
DETAIL
  6
CONTINUOUS
 62
     5
 10
3.752296192799804
 20
-143.71888345619999
 30
0.0
 11
3.2735859367999178
 21
-143.69676650780011
 31
0.0
  0
LINE
  8
DETAIL
  6
CONTINUOUS
 62
     5
 10
3.2735859367999178
 20
-143.69676650780011
 30
0.0
 11
2.8266999687998582
 21
-143.68414007230001
 31
0.0
  0
LINE
  8
DETAIL
  6
CONTINUOUS
 62
     5
 10
-44.519141562800087
 20
-132.48830614299999
 30
0.0
 11
-44.910648694700278
 21
-132.29993836510019
 31
0.0
  0
LINE
  8
DETAIL
  6
CONTINUOUS
 62
     5
 10
-44.910648694700278
 20
-132.29993836510019
 30
0.0
 11
-45.315115104200231
 21
-132.10425956600011
 31
0.0
  0
LINE
  8
DETAIL
  6
CONTINUOUS
 62
     5
 10
-45.315115104200231
 20
-132.10425956600011
 30
0.0
 11
-45.731136068000069
 21
-131.9015023673002
 31
0.0
  0
LINE
  8
DETAIL
  6
CONTINUOUS
 62
     5
 10
-45.731136068000069
 20
-131.9015023673002
 30
0.0
 11
-46.157806086100209
 21
-131.69157229580011
 31
0.0
  0
LINE
  8
DETAIL
  6
CONTINUOUS
 62
     5
 10
-46.157806086100209
 20
-131.69157229580011
 30
0.0
 11
-46.595127977599986
 21
-131.47428875360009
 31
0.0
  0
LINE
  8
DETAIL
  6
CONTINUOUS
 62
     5
 10
-46.595127977599986
 20
-131.47428875360009
 30
0.0
 11
-47.042670134000218
 21
-131.24956454220001
 31
0.0
  0
LINE
  8
DETAIL
  6
CONTINUOUS
 62
     5
 10
-47.042670134000218
 20
-131.24956454220001
 30
0.0
 11
-47.500829725599942
 21
-131.01701414650009
 31
0.0
  0
LINE
  8
DETAIL
  6
CONTINUOUS
 62
     5
 10
-47.500829725599942
 20
-131.01701414650009
 30
0.0
 11
-47.969884238000297
 21
-130.77624250220001
 31
0.0
  0
LINE
  8
DETAIL
  6
CONTINUOUS
 62
     5
 10
-47.969884238000297
 20
-130.77624250220001
 30
0.0
 11
-48.449736353900327
 21
-130.52715876810001
 31
0.0
  0
LINE
  8
DETAIL
  6
CONTINUOUS
 62
     5
 10
-48.449736353900327
 20
-130.52715876810001
 30
0.0
 11
-48.940539300800083
 21
-130.26950955629999
 31
0.0
  0
LINE
  8
DETAIL
  6
CONTINUOUS
 62
     5
 10
-48.940539300800083
 20
-130.26950955629999
 30
0.0
 11
-49.441815095200127
 21
-130.00338549360001
 31
0.0
  0
LINE
  8
DETAIL
  6
CONTINUOUS
 62
     5
 10
-49.441815095200127
 20
-130.00338549360001
 30
0.0
 11
-49.952952799900231
 21
-129.72896268570011
 31
0.0
  0
LINE
  8
DETAIL
  6
CONTINUOUS
 62
     5
 10
-49.952952799900231
 20
-129.72896268570011
 30
0.0
 11
-50.474528245900267
 21
-129.44576361590001
 31
0.0
  0
LINE
  8
DETAIL
  6
CONTINUOUS
 62
     5
 10
-50.474528245900267
 20
-129.44576361590001
 30
0.0
 11
-51.006326380200328
 21
-129.15375735910001
 31
0.0
  0
LINE
  8
DETAIL
  6
CONTINUOUS
 62
     5
 10
-51.006326380200328
 20
-129.15375735910001
 30
0.0
 11
-51.550085635099997
 21
-128.85176228040001
 31
0.0
  0
LINE
  8
DETAIL
  6
CONTINUOUS
 62
     5
 10
-51.550085635099997
 20
-128.85176228040001
 30
0.0
 11
-52.10713854550022
 21
-128.53882774859991
 31
0.0
  0
LINE
  8
DETAIL
  6
CONTINUOUS
 62
     5
 10
-52.10713854550022
 20
-128.53882774859991
 30
0.0
 11
-52.678381792899927
 21
-128.21411974169999
 31
0.0
  0
LINE
  8
DETAIL
  6
CONTINUOUS
 62
     5
 10
-52.678381792899927
 20
-128.21411974169999
 30
0.0
 11
-53.265353894200423
 21
-127.8765143583001
 31
0.0
  0
LINE
  8
DETAIL
  6
CONTINUOUS
 62
     5
 10
-53.265353894200423
 20
-127.8765143583001
 30
0.0
 11
-53.867331669900068
 21
-127.5258660842001
 31
0.0
  0
LINE
  8
DETAIL
  6
CONTINUOUS
 62
     5
 10
-53.867331669900068
 20
-127.5258660842001
 30
0.0
 11
-54.48456831959993
 21
-127.16162478139999
 31
0.0
  0
LINE
  8
DETAIL
  6
CONTINUOUS
 62
     5
 10
-54.48456831959993
 20
-127.16162478139999
 30
0.0
 11
-55.115646082300373
 21
-126.7838797422
 31
0.0
  0
LINE
  8
DETAIL
  6
CONTINUOUS
 62
     5
 10
-55.115646082300373
 20
-126.7838797422
 30
0.0
 11
-55.760337252200323
 21
-126.3921169195
 31
0.0
  0
LINE
  8
DETAIL
  6
CONTINUOUS
 62
     5
 10
-55.760337252200323
 20
-126.3921169195
 30
0.0
 11
-56.415383902300157
 21
-125.98762221769999
 31
0.0
  0
LINE
  8
DETAIL
  6
CONTINUOUS
 62
     5
 10
-56.415383902300157
 20
-125.98762221769999
 30
0.0
 11
-57.078439173999868
 21
-125.5712511326
 31
0.0
  0
LINE
  8
DETAIL
  6
CONTINUOUS
 62
     5
 10
-57.078439173999868
 20
-125.5712511326
 30
0.0
 11
-57.746754809099912
 21
-125.1439296803001
 31
0.0
  0
LINE
  8
DETAIL
  6
CONTINUOUS
 62
     5
 10
-57.746754809099912
 20
-125.1439296803001
 30
0.0
 11
-58.417182443700312
 21
-124.70689524239999
 31
0.0
  0
LINE
  8
DETAIL
  6
CONTINUOUS
 62
     5
 10
-58.417182443700312
 20
-124.70689524239999
 30
0.0
 11
-59.088812133099957
 21
-124.26017827450001
 31
0.0
  0
LINE
  8
DETAIL
  6
CONTINUOUS
 62
     5
 10
-59.088812133099957
 20
-124.26017827450001
 30
0.0
 11
-59.760288967499953
 21
-123.8040474907
 31
0.0
  0
LINE
  8
DETAIL
  6
CONTINUOUS
 62
     5
 10
-59.760288967499953
 20
-123.8040474907
 30
0.0
 11
-60.429940719100159
 21
-123.3390249747999
 31
0.0
  0
LINE
  8
DETAIL
  6
CONTINUOUS
 62
     5
 10
-60.429940719100159
 20
-123.3390249747999
 30
0.0
 11
-61.097433610500048
 21
-122.8646202852
 31
0.0
  0
LINE
  8
DETAIL
  6
CONTINUOUS
 62
     5
 10
-61.097433610500048
 20
-122.8646202852
 30
0.0
 11
-61.757552217000011
 21
-122.3841712764001
 31
0.0
  0
LINE
  8
DETAIL
  6
CONTINUOUS
 62
     5
 10
-61.757552217000011
 20
-122.3841712764001
 30
0.0
 11
-62.406230250300268
 21
-121.9000370956001
 31
0.0
  0
LINE
  8
DETAIL
  6
CONTINUOUS
 62
     5
 10
-62.406230250300268
 20
-121.9000370956001
 30
0.0
 11
-63.040048695300356
 21
-121.4148759661001
 31
0.0
  0
LINE
  8
DETAIL
  6
CONTINUOUS
 62
     5
 10
-63.040048695300356
 20
-121.4148759661001
 30
0.0
 11
-63.65269915980025
 21
-120.9333034287999
 31
0.0
  0
LINE
  8
DETAIL
  6
CONTINUOUS
 62
     5
 10
-63.65269915980025
 20
-120.9333034287999
 30
0.0
 11
-64.249073469600262
 21
-120.4519911774
 31
0.0
  0
LINE
  8
DETAIL
  6
CONTINUOUS
 62
     5
 10
-64.249073469600262
 20
-120.4519911774
 30
0.0
 11
-64.830696997900304
 21
-119.97029798610011
 31
0.0
  0
LINE
  8
DETAIL
  6
CONTINUOUS
 62
     5
 10
-64.830696997900304
 20
-119.97029798610011
 30
0.0
 11
-65.401194047100034
 21
-119.48455557840001
 31
0.0
  0
LINE
  8
DETAIL
  6
CONTINUOUS
 62
     5
 10
-65.401194047100034
 20
-119.48455557840001
 30
0.0
 11
-65.964704020100271
 21
-118.9909274032
 31
0.0
  0
LINE
  8
DETAIL
  6
CONTINUOUS
 62
     5
 10
-65.964704020100271
 20
-118.9909274032
 30
0.0
 11
-66.521010913600094
 21
-118.4888572063001
 31
0.0
  0
LINE
  8
DETAIL
  6
CONTINUOUS
 62
     5
 10
-66.521010913600094
 20
-118.4888572063001
 30
0.0
 11
-67.071497091700166
 21
-117.9760650115001
 31
0.0
  0
LINE
  8
DETAIL
  6
CONTINUOUS
 62
     5
 10
-67.071497091700166
 20
-117.9760650115001
 30
0.0
 11
-67.615495406800164
 21
-117.4536449979
 31
0.0
  0
LINE
  8
DETAIL
  6
CONTINUOUS
 62
     5
 10
-67.615495406800164
 20
-117.4536449979
 30
0.0
 11
-68.153100375100166
 21
-116.92149013710009
 31
0.0
  0
LINE
  8
DETAIL
  6
CONTINUOUS
 62
     5
 10
-68.153100375100166
 20
-116.92149013710009
 30
0.0
 11
-68.6834526370003
 21
-116.3810053471
 31
0.0
  0
LINE
  8
DETAIL
  6
CONTINUOUS
 62
     5
 10
-68.6834526370003
 20
-116.3810053471
 30
0.0
 11
-69.205246477700257
 21
-115.83396461940001
 31
0.0
  0
LINE
  8
DETAIL
  6
CONTINUOUS
 62
     5
 10
-69.205246477700257
 20
-115.83396461940001
 30
0.0
 11
-69.719956655399983
 21
-115.2792939481
 31
0.0
  0
LINE
  8
DETAIL
  6
CONTINUOUS
 62
     5
 10
-69.719956655399983
 20
-115.2792939481
 30
0.0
 11
-70.227041241000279
 21
-114.71829720060001
 31
0.0
  0
LINE
  8
DETAIL
  6
CONTINUOUS
 62
     5
 10
-70.227041241000279
 20
-114.71829720060001
 30
0.0
 11
-70.731217924700104
 21
-114.1455989307
 31
0.0
  0
LINE
  8
DETAIL
  6
CONTINUOUS
 62
     5
 10
-70.731217924700104
 20
-114.1455989307
 30
0.0
 11
-71.236507304600309
 21
-113.55686484650001
 31
0.0
  0
LINE
  8
DETAIL
  6
CONTINUOUS
 62
     5
 10
-71.236507304600309
 20
-113.55686484650001
 30
0.0
 11
-71.744398452699897
 21
-112.94983604700001
 31
0.0
  0
LINE
  8
DETAIL
  6
CONTINUOUS
 62
     5
 10
-71.744398452699897
 20
-112.94983604700001
 30
0.0
 11
-72.258846063200053
 21
-112.3192997842
 31
0.0
  0
LINE
  8
DETAIL
  6
CONTINUOUS
 62
     5
 10
-72.258846063200053
 20
-112.3192997842
 30
0.0
 11
-72.776537374500094
 21
-111.6694137504001
 31
0.0
  0
LINE
  8
DETAIL
  6
CONTINUOUS
 62
     5
 10
-72.776537374500094
 20
-111.6694137504001
 30
0.0
 11
-73.295419891500387
 21
-111.0026654908002
 31
0.0
  0
LINE
  8
DETAIL
  6
CONTINUOUS
 62
     5
 10
-73.295419891500387
 20
-111.0026654908002
 30
0.0
 11
-73.815815953800211
 21
-110.31908844349999
 31
0.0
  0
LINE
  8
DETAIL
  6
CONTINUOUS
 62
     5
 10
-73.815815953800211
 20
-110.31908844349999
 30
0.0
 11
-74.335671838000053
 21
-109.6217438262
 31
0.0
  0
LINE
  8
DETAIL
  6
CONTINUOUS
 62
     5
 10
-74.335671838000053
 20
-109.6217438262
 30
0.0
 11
-74.860067558500305
 21
-108.9042997458001
 31
0.0
  0
LINE
  8
DETAIL
  6
CONTINUOUS
 62
     5
 10
-74.860067558500305
 20
-108.9042997458001
 30
0.0
 11
-75.392322751000393
 21
-108.1629172017001
 31
0.0
  0
LINE
  8
DETAIL
  6
CONTINUOUS
 62
     5
 10
-75.392322751000393
 20
-108.1629172017001
 30
0.0
 11
-75.935348513000008
 21
-107.3938465311001
 31
0.0
  0
LINE
  8
DETAIL
  6
CONTINUOUS
 62
     5
 10
-75.935348513000008
 20
-107.3938465311001
 30
0.0
 11
-76.493862215900208
 21
-106.5910603791
 31
0.0
  0
LINE
  8
DETAIL
  6
CONTINUOUS
 62
     5
 10
-76.493862215900208
 20
-106.5910603791
 30
0.0
 11
-77.065829370900246
 21
-105.7577107398
 31
0.0
  0
LINE
  8
DETAIL
  6
CONTINUOUS
 62
     5
 10
-77.065829370900246
 20
-105.7577107398
 30
0.0
 11
-77.651157451899962
 21
-104.8945063864001
 31
0.0
  0
LINE
  8
DETAIL
  6
CONTINUOUS
 62
     5
 10
-77.651157451899962
 20
-104.8945063864001
 30
0.0
 11
-78.24873338280031
 21
-104.0039575447001
 31
0.0
  0
LINE
  8
DETAIL
  6
CONTINUOUS
 62
     5
 10
-78.24873338280031
 20
-104.0039575447001
 30
0.0
 11
-78.856395781300307
 21
-103.0901944247
 31
0.0
  0
LINE
  8
DETAIL
  6
CONTINUOUS
 62
     5
 10
-78.856395781300307
 20
-103.0901944247
 30
0.0
 11
-79.477506272400205
 21
-102.14930292130001
 31
0.0
  0
LINE
  8
DETAIL
  6
CONTINUOUS
 62
     5
 10
-79.477506272400205
 20
-102.14930292130001
 30
0.0
 11
-80.113976928500051
 21
-101.1796494115999
 31
0.0
  0
LINE
  8
DETAIL
  6
CONTINUOUS
 62
     5
 10
-80.113976928500051
 20
-101.1796494115999
 30
0.0
 11
-80.76915520069997
 21
-100.177183734
 31
0.0
  0
LINE
  8
DETAIL
  6
CONTINUOUS
 62
     5
 10
-80.76915520069997
 20
-100.177183734
 30
0.0
 11
-81.4480051180999
 21
-99.13551145449992
 31
0.0
  0
LINE
  8
DETAIL
  6
CONTINUOUS
 62
     5
 10
-81.4480051180999
 20
-99.13551145449992
 30
0.0
 11
-82.148075306700321
 21
-98.061105246199986
 31
0.0
  0
LINE
  8
DETAIL
  6
CONTINUOUS
 62
     5
 10
-82.148075306700321
 20
-98.061105246199986
 30
0.0
 11
-82.870235893300105
 21
-96.954970581499992
 31
0.0
  0
LINE
  8
DETAIL
  6
CONTINUOUS
 62
     5
 10
-82.870235893300105
 20
-96.954970581499992
 30
0.0
 11
-83.609723187500094
 21
-95.828187850599988
 31
0.0
  0
LINE
  8
DETAIL
  6
CONTINUOUS
 62
     5
 10
-83.609723187500094
 20
-95.828187850599988
 30
0.0
 11
-83.893019330100287
 21
-95.400000000000091
 31
0.0
  0
LINE
  8
DETAIL
  6
CONTINUOUS
 62
     5
 10
-36.166798619400197
 20
-136.63456195260011
 30
0.0
 11
-35.793956552500283
 21
-136.82194861650001
 31
0.0
  0
LINE
  8
DETAIL
  6
CONTINUOUS
 62
     5
 10
-35.793956552500283
 20
-136.82194861650001
 30
0.0
 11
-35.4082748343003
 21
-137.01070372570001
 31
0.0
  0
LINE
  8
DETAIL
  6
CONTINUOUS
 62
     5
 10
-35.4082748343003
 20
-137.01070372570001
 30
0.0
 11
-35.009571242499987
 21
-137.19917545819999
 31
0.0
  0
LINE
  8
DETAIL
  6
CONTINUOUS
 62
     5
 10
-35.009571242499987
 20
-137.19917545819999
 30
0.0
 11
-34.598966817500241
 21
-137.3864203469
 31
0.0
  0
LINE
  8
DETAIL
  6
CONTINUOUS
 62
     5
 10
-34.598966817500241
 20
-137.3864203469
 30
0.0
 11
-34.177287032500317
 21
-137.57130154640001
 31
0.0
  0
LINE
  8
DETAIL
  6
CONTINUOUS
 62
     5
 10
-34.177287032500317
 20
-137.57130154640001
 30
0.0
 11
-33.745261666900213
 21
-137.75291927250001
 31
0.0
  0
LINE
  8
DETAIL
  6
CONTINUOUS
 62
     5
 10
-33.745261666900213
 20
-137.75291927250001
 30
0.0
 11
-33.303713247600172
 21
-137.93043712439999
 31
0.0
  0
LINE
  8
DETAIL
  6
CONTINUOUS
 62
     5
 10
-33.303713247600172
 20
-137.93043712439999
 30
0.0
 11
-32.853205668100138
 21
-138.10317220990001
 31
0.0
  0
LINE
  8
DETAIL
  6
CONTINUOUS
 62
     5
 10
-32.853205668100138
 20
-138.10317220990001
 30
0.0
 11
-32.392703647200051
 21
-138.27099231919999
 31
0.0
  0
LINE
  8
DETAIL
  6
CONTINUOUS
 62
     5
 10
-32.392703647200051
 20
-138.27099231919999
 30
0.0
 11
-31.927954693800071
 21
-138.43204499190011
 31
0.0
  0
LINE
  8
DETAIL
  6
CONTINUOUS
 62
     5
 10
-31.927954693800071
 20
-138.43204499190011
 30
0.0
 11
-31.4629450788002
 21
-138.58440645620001
 31
0.0
  0
LINE
  8
DETAIL
  6
CONTINUOUS
 62
     5
 10
-31.4629450788002
 20
-138.58440645620001
 30
0.0
 11
-31.002248559600051
 21
-138.72744422279999
 31
0.0
  0
LINE
  8
DETAIL
  6
CONTINUOUS
 62
     5
 10
-31.002248559600051
 20
-138.72744422279999
 30
0.0
 11
-30.552814674500041
 21
-138.85932040840001
 31
0.0
  0
LINE
  8
DETAIL
  6
CONTINUOUS
 62
     5
 10
-30.552814674500041
 20
-138.85932040840001
 30
0.0
 11
-30.11161347250027
 21
-138.98144175170009
 31
0.0
  0
LINE
  8
DETAIL
  6
CONTINUOUS
 62
     5
 10
-30.11161347250027
 20
-138.98144175170009
 30
0.0
 11
-29.677713842500001
 21
-139.09550433949991
 31
0.0
  0
LINE
  8
DETAIL
  6
CONTINUOUS
 62
     5
 10
-29.677713842500001
 20
-139.09550433949991
 30
0.0
 11
-29.251709730499901
 21
-139.19999999999999
 31
0.0
  0
LINE
  8
DETAIL
  6
CONTINUOUS
 62
     5
 10
-39.074749065400283
 20
-135.1494215037001
 30
0.0
 11
-39.398365801000182
 21
-134.98588873960011
 31
0.0
  0
LINE
  8
DETAIL
  6
CONTINUOUS
 62
     5
 10
-39.398365801000182
 20
-134.98588873960011
 30
0.0
 11
-39.721512667199931
 21
-134.82337389400001
 31
0.0
  0
LINE
  8
DETAIL
  6
CONTINUOUS
 62
     5
 10
-39.721512667199931
 20
-134.82337389400001
 30
0.0
 11
-40.043992154500302
 21
-134.66192580929999
 31
0.0
  0
LINE
  8
DETAIL
  6
CONTINUOUS
 62
     5
 10
-40.043992154500302
 20
-134.66192580929999
 30
0.0
 11
-40.364601342800142
 21
-134.50213165810001
 31
0.0
  0
LINE
  8
DETAIL
  6
CONTINUOUS
 62
     5
 10
-40.364601342800142
 20
-134.50213165810001
 30
0.0
 11
-40.685922574600227
 21
-134.34278094019999
 31
0.0
  0
LINE
  8
DETAIL
  6
CONTINUOUS
 62
     5
 10
-40.685922574600227
 20
-134.34278094019999
 30
0.0
 11
-41.009475577699959
 21
-134.18309488450001
 31
0.0
  0
LINE
  8
DETAIL
  6
CONTINUOUS
 62
     5
 10
-41.009475577699959
 20
-134.18309488450001
 30
0.0
 11
-41.337108335000273
 21
-134.02221787560009
 31
0.0
  0
LINE
  8
DETAIL
  6
CONTINUOUS
 62
     5
 10
-41.337108335000273
 20
-134.02221787560009
 30
0.0
 11
-41.671672037400192
 21
-133.8587355101001
 31
0.0
  0
LINE
  8
DETAIL
  6
CONTINUOUS
 62
     5
 10
-41.671672037400192
 20
-133.8587355101001
 30
0.0
 11
-42.011543540000282
 21
-133.69340151470001
 31
0.0
  0
LINE
  8
DETAIL
  6
CONTINUOUS
 62
     5
 10
-42.011543540000282
 20
-133.69340151470001
 30
0.0
 11
-42.356478051599879
 21
-133.52634483570009
 31
0.0
  0
LINE
  8
DETAIL
  6
CONTINUOUS
 62
     5
 10
-42.356478051599879
 20
-133.52634483570009
 30
0.0
 11
-42.70523293460019
 21
-133.35806918530011
 31
0.0
  0
LINE
  8
DETAIL
  6
CONTINUOUS
 62
     5
 10
-42.70523293460019
 20
-133.35806918530011
 30
0.0
 11
-43.055563805200109
 21
-133.1896699822
 31
0.0
  0
LINE
  8
DETAIL
  6
CONTINUOUS
 62
     5
 10
-43.055563805200109
 20
-133.1896699822
 30
0.0
 11
-44.519141562800087
 21
-132.48830614299999
 31
0.0
  0
LINE
  8
DETAIL
  6
CONTINUOUS
 62
     5
 10
-38.428118239600281
 20
-135.4779280133001
 30
0.0
 11
-39.074749065400283
 21
-135.1494215037001
 31
0.0
  0
LINE
  8
DETAIL
  6
CONTINUOUS
 62
     5
 10
-36.16678013110004
 20
-136.63457127400011
 30
0.0
 11
-37.459787425700142
 21
-135.97283097229999
 31
0.0
  0
LINE
  8
DETAIL
  6
CONTINUOUS
 62
     5
 10
-37.459787425700142
 20
-135.97283097229999
 30
0.0
 11
-38.428118239600281
 21
-135.4779280133001
 31
0.0
  0
LINE
  8
DETAIL
  6
CONTINUOUS
 62
     5
 10
103.4758240075998
 20
-269.29252271189989
 30
0.0
 11
103.11511267580001
 21
-268.86482709699999
 31
0.0
  0
LINE
  8
DETAIL
  6
CONTINUOUS
 62
     5
 10
103.11511267580001
 20
-268.86482709699999
 30
0.0
 11
102.73669662799971
 21
-268.44670842099998
 31
0.0
  0
LINE
  8
DETAIL
  6
CONTINUOUS
 62
     5
 10
102.73669662799971
 20
-268.44670842099998
 30
0.0
 11
102.3429844351999
 21
-268.04011787370018
 31
0.0
  0
LINE
  8
DETAIL
  6
CONTINUOUS
 62
     5
 10
102.3429844351999
 20
-268.04011787370018
 30
0.0
 11
101.92675038499971
 21
-267.63920188560007
 31
0.0
  0
LINE
  8
DETAIL
  6
CONTINUOUS
 62
     5
 10
101.92675038499971
 20
-267.63920188560007
 30
0.0
 11
101.48076876499999
 21
-267.23810688719999
 31
0.0
  0
LINE
  8
DETAIL
  6
CONTINUOUS
 62
     5
 10
101.48076876499999
 20
-267.23810688719999
 30
0.0
 11
101.0074481459997
 21
-266.83878406840012
 31
0.0
  0
LINE
  8
DETAIL
  6
CONTINUOUS
 62
     5
 10
3.2291639784998551
 20
-1.200000000000045
 30
0.0
 11
3.2291639784998551
 21
0.0
 31
0.0
  0
LINE
  8
DETAIL
  6
CONTINUOUS
 62
     5
 10
-3.2291639785003099
 20
-1.200000000000045
 30
0.0
 11
-3.2291639785003099
 21
0.0
 31
0.0
  0
LINE
  8
DETAIL
  6
CONTINUOUS
 62
     5
 10
-17.001011994100281
 20
-403.19999999999999
 30
0.0
 11
-17.001011994100281
 21
-225.19999999999999
 31
0.0
  0
LINE
  8
DETAIL
  6
CONTINUOUS
 62
     5
 10
-18.300000000000178
 20
-175.24020202540001
 30
0.0
 11
-18.300000000000178
 21
-174.50000000000011
 31
0.0
  0
LINE
  8
DETAIL
  6
CONTINUOUS
 62
     5
 10
-19.491035362800179
 20
-225.19999999999999
 30
0.0
 11
-19.491035362800179
 21
-403.19999999999999
 31
0.0
  0
LINE
  8
DETAIL
  6
CONTINUOUS
 62
     5
 10
-24.0
 20
-95.400000000000091
 30
0.0
 11
-24.0
 21
-133.69999999999999
 31
0.0
  0
LINE
  8
DETAIL
  6
CONTINUOUS
 62
     5
 10
-27.5
 20
-143.69999999999999
 30
0.0
 11
-27.5
 21
-155.00000000000011
 31
0.0
  0
LINE
  8
DETAIL
  6
CONTINUOUS
 62
     5
 10
-27.800000000000178
 20
-161.50000000000011
 30
0.0
 11
-27.800000000000178
 21
-168.69999999999999
 31
0.0
  0
LINE
  8
DETAIL
  6
CONTINUOUS
 62
     5
 10
3.5
 20
-0.7029437251999298
 30
0.0
 11
3.498670621899691
 21
-0.8007371679000244
 31
0.0
  0
LINE
  8
DETAIL
  6
CONTINUOUS
 62
     5
 10
3.498670621899691
 20
-0.8007371679000244
 30
0.0
 11
3.494677650399808
 21
-0.9035313084999643
 31
0.0
  0
LINE
  8
DETAIL
  6
CONTINUOUS
 62
     5
 10
3.494677650399808
 20
-0.9035313084999643
 30
0.0
 11
3.488031880099697
 21
-1.010978383599991
 31
0.0
  0
LINE
  8
DETAIL
  6
CONTINUOUS
 62
     5
 10
3.488031880099697
 20
-1.010978383599991
 30
0.0
 11
3.4787009272999971
 21
-1.122799652200001
 31
0.0
  0
LINE
  8
DETAIL
  6
CONTINUOUS
 62
     5
 10
3.4787009272999971
 20
-1.122799652200001
 30
0.0
 11
3.4666690415997441
 21
-1.2387366056999549
 31
0.0
  0
LINE
  8
DETAIL
  6
CONTINUOUS
 62
     5
 10
3.4666690415997441
 20
-1.2387366056999549
 30
0.0
 11
3.451897117399767
 21
-1.358336813599976
 31
0.0
  0
LINE
  8
DETAIL
  6
CONTINUOUS
 62
     5
 10
3.451897117399767
 20
-1.358336813599976
 30
0.0
 11
3.4343636349999538
 21
-1.4811154093999901
 31
0.0
  0
LINE
  8
DETAIL
  6
CONTINUOUS
 62
     5
 10
3.4343636349999538
 20
-1.4811154093999901
 30
0.0
 11
3.4140000870997942
 21
-1.6068052650999789
 31
0.0
  0
LINE
  8
DETAIL
  6
CONTINUOUS
 62
     5
 10
3.4140000870997942
 20
-1.6068052650999789
 30
0.0
 11
3.3907442839999931
 21
-1.7351425240000251
 31
0.0
  0
LINE
  8
DETAIL
  6
CONTINUOUS
 62
     5
 10
3.3907442839999931
 20
-1.7351425240000251
 30
0.0
 11
3.3645557540999111
 21
-1.8656115640000051
 31
0.0
  0
LINE
  8
DETAIL
  6
CONTINUOUS
 62
     5
 10
3.3645557540999111
 20
-1.8656115640000051
 30
0.0
 11
3.3354131194000729
 21
-1.9977062243000321
 31
0.0
  0
LINE
  8
DETAIL
  6
CONTINUOUS
 62
     5
 10
3.3354131194000729
 20
-1.9977062243000321
 30
0.0
 11
3.3031969097996812
 21
-2.1310688981000112
 31
0.0
  0
LINE
  8
DETAIL
  6
CONTINUOUS
 62
     5
 10
3.3031969097996812
 20
-2.1310688981000112
 30
0.0
 11
3.2677647049999901
 21
-2.265311180599952
 31
0.0
  0
LINE
  8
DETAIL
  6
CONTINUOUS
 62
     5
 10
3.2677647049999901
 20
-2.265311180599952
 30
0.0
 11
3.2291639784998551
 21
-2.3999999999999768
 31
0.0
  0
LINE
  8
DETAIL
  6
CONTINUOUS
 62
     5
 10
-3.5
 20
-0.7029437251999298
 30
0.0
 11
-3.4986706219001462
 21
-0.6104865483999902
 31
0.0
  0
LINE
  8
DETAIL
  6
CONTINUOUS
 62
     5
 10
-3.4986706219001462
 20
-0.6104865483999902
 30
0.0
 11
-3.4946776504002628
 21
-0.5236787440999251
 31
0.0
  0
LINE
  8
DETAIL
  6
CONTINUOUS
 62
     5
 10
-3.4946776504002628
 20
-0.5236787440999251
 30
0.0
 11
-3.4880318802001971
 21
-0.4428032931999724
 31
0.0
  0
LINE
  8
DETAIL
  6
CONTINUOUS
 62
     5
 10
-3.4880318802001971
 20
-0.4428032931999724
 30
0.0
 11
-3.4787009272999971
 21
-0.3680651409999882
 31
0.0
  0
LINE
  8
DETAIL
  6
CONTINUOUS
 62
     5
 10
-3.4787009272999971
 20
-0.3680651409999882
 30
0.0
 11
-3.466669041600198
 21
-0.2996506650000583
 31
0.0
  0
LINE
  8
DETAIL
  6
CONTINUOUS
 62
     5
 10
-3.466669041600198
 20
-0.2996506650000583
 30
0.0
 11
-3.4518971174002222
 21
-0.2378395512999987
 31
0.0
  0
LINE
  8
DETAIL
  6
CONTINUOUS
 62
     5
 10
-3.4518971174002222
 20
-0.2378395512999987
 30
0.0
 11
-3.434363635000409
 21
-0.1828732312000056
 31
0.0
  0
LINE
  8
DETAIL
  6
CONTINUOUS
 62
     5
 10
-3.434363635000409
 20
-0.1828732312000056
 30
0.0
 11
-3.414000087100248
 21
-0.1348637761999498
 31
0.0
  0
LINE
  8
DETAIL
  6
CONTINUOUS
 62
     5
 10
-3.414000087100248
 20
-0.1348637761999498
 30
0.0
 11
-3.3907442839999931
 21
-0.0939287659999763
 31
0.0
  0
LINE
  8
DETAIL
  6
CONTINUOUS
 62
     5
 10
-3.3907442839999931
 20
-0.0939287659999763
 30
0.0
 11
-3.364555754100365
 21
-0.060250227200072
 31
0.0
  0
LINE
  8
DETAIL
  6
CONTINUOUS
 62
     5
 10
-3.364555754100365
 20
-0.060250227200072
 30
0.0
 11
-3.3354131194000729
 21
-0.0339569492999772
 31
0.0
  0
LINE
  8
DETAIL
  6
CONTINUOUS
 62
     5
 10
-3.3354131194000729
 20
-0.0339569492999772
 30
0.0
 11
-3.303196909800135
 21
-0.015115084099989
 31
0.0
  0
LINE
  8
DETAIL
  6
CONTINUOUS
 62
     5
 10
-3.303196909800135
 20
-0.015115084099989
 30
0.0
 11
-3.2677647050004448
 21
-0.0037823718000709
 31
0.0
  0
LINE
  8
DETAIL
  6
CONTINUOUS
 62
     5
 10
-3.2677647050004448
 20
-0.0037823718000709
 30
0.0
 11
-3.2291639785003099
 21
0.0
 31
0.0
  0
LINE
  8
DETAIL
  6
CONTINUOUS
 62
     5
 10
16.792893218799691
 20
-177.49289321879999
 30
0.0
 11
17.77279220609989
 21
-176.51299423149999
 31
0.0
  0
LINE
  8
DETAIL
  6
CONTINUOUS
 62
     5
 10
-94.997040506000303
 20
-281.56121593300008
 30
0.0
 11
-94.466797352200047
 21
-281.07348240679988
 31
0.0
  0
LINE
  8
DETAIL
  6
CONTINUOUS
 62
     5
 10
-94.466797352200047
 20
-281.07348240679988
 30
0.0
 11
-93.980496616800338
 21
-280.51673101670008
 31
0.0
  0
LINE
  8
DETAIL
  6
CONTINUOUS
 62
     5
 10
-93.980496616800338
 20
-280.51673101670008
 30
0.0
 11
-93.535841683200033
 21
-279.88735459709977
 31
0.0
  0
LINE
  8
DETAIL
  6
CONTINUOUS
 62
     5
 10
-93.535841683200033
 20
-279.88735459709977
 30
0.0
 11
-93.139722401600011
 21
-279.19617464480012
 31
0.0
  0
LINE
  8
DETAIL
  6
CONTINUOUS
 62
     5
 10
-93.139722401600011
 20
-279.19617464480012
 30
0.0
 11
-92.797312501900251
 21
-278.44980903840008
 31
0.0
  0
LINE
  8
DETAIL
  6
CONTINUOUS
 62
     5
 10
-92.797312501900251
 20
-278.44980903840008
 30
0.0
 11
-92.511463727299997
 21
-277.65726146669999
 31
0.0
  0
LINE
  8
DETAIL
  6
CONTINUOUS
 62
     5
 10
-92.511463727299997
 20
-277.65726146669999
 30
0.0
 11
-92.286263817200052
 21
-276.82652643189988
 31
0.0
  0
LINE
  8
DETAIL
  6
CONTINUOUS
 62
     5
 10
-92.286263817200052
 20
-276.82652643189988
 30
0.0
 11
-92.123178512900267
 21
-275.96724937279998
 31
0.0
  0
LINE
  8
DETAIL
  6
CONTINUOUS
 62
     5
 10
-92.123178512900267
 20
-275.96724937279998
 30
0.0
 11
-92.025389675700353
 21
-275.09327934620001
 31
0.0
  0
LINE
  8
DETAIL
  6
CONTINUOUS
 62
     5
 10
-92.025389675700353
 20
-275.09327934620001
 30
0.0
 11
-91.991836685100225
 21
-274.19999999999982
 31
0.0
  0
LINE
  8
DETAIL
  6
CONTINUOUS
 62
     5
 10
-93.052496857000278
 20
-284.01495457620001
 30
0.0
 11
-87.042089217000012
 21
-279.10747728810009
 31
0.0
  0
LINE
  8
DETAIL
  6
CONTINUOUS
 62
     5
 10
-98.002244325300126
 20
-282.28290376870012
 30
0.0
 11
-93.052496857000278
 21
-278.24145188439991
 31
0.0
  0
LINE
  8
DETAIL
  6
CONTINUOUS
 62
     5
 10
-94.997040505900259
 20
-281.56121593270001
 30
0.0
 11
-94.491747127400231
 21
-281.16154169169999
 31
0.0
  0
LINE
  8
DETAIL
  6
CONTINUOUS
 62
     5
 10
-94.491747127400231
 20
-281.16154169169999
 30
0.0
 11
-93.95499391659996
 21
-280.76026494469988
 31
0.0
  0
LINE
  8
DETAIL
  6
CONTINUOUS
 62
     5
 10
-93.95499391659996
 20
-280.76026494469988
 30
0.0
 11
-93.38917924990028
 21
-280.35936416719977
 31
0.0
  0
LINE
  8
DETAIL
  6
CONTINUOUS
 62
     5
 10
-93.38917924990028
 20
-280.35936416719977
 30
0.0
 11
-92.787107998100055
 21
-279.9529039327
 31
0.0
  0
LINE
  8
DETAIL
  6
CONTINUOUS
 62
     5
 10
-92.787107998100055
 20
-279.9529039327
 30
0.0
 11
-92.141585031799877
 21
-279.53494881450001
 31
0.0
  0
LINE
  8
DETAIL
  6
CONTINUOUS
 62
     5
 10
-92.141585031799877
 20
-279.53494881450001
 30
0.0
 11
-91.455008727500172
 21
-279.10747728810009
 31
0.0
  0
LINE
  8
DETAIL
  6
CONTINUOUS
 62
     5
 10
-29.251709730499901
 20
-139.19999999999999
 30
0.0
 11
4.3616409489000034
 21
-139.19999999999999
 31
0.0
  0
LINE
  8
DETAIL
  6
CONTINUOUS
 62
     5
 10
4.3616409489000034
 20
-139.19999999999999
 30
0.0
 11
69.716021543699753
 21
-139.19999999999999
 31
0.0
  0
LINE
  8
DETAIL
  6
CONTINUOUS
 62
     5
 10
-30.356707484900198
 20
-143.69999999999999
 30
0.0
 11
3.3435732533998821
 21
-143.69999999999999
 31
0.0
  0
LINE
  8
DETAIL
  6
CONTINUOUS
 62
     5
 10
27.5
 20
-155.00000000000011
 30
0.0
 11
-27.5
 21
-155.00000000000011
 31
0.0
  0
LINE
  8
DETAIL
  6
CONTINUOUS
 62
     5
 10
26.99988075839974
 20
-155.50000000000011
 30
0.0
 11
-26.999880758400199
 21
-155.50000000000011
 31
0.0
  0
LINE
  8
DETAIL
  6
CONTINUOUS
 62
     5
 10
2.8266999687998582
 20
-143.68414007230001
 30
0.0
 11
2.2962956284000029
 21
-143.6792355553001
 31
0.0
  0
LINE
  8
DETAIL
  6
CONTINUOUS
 62
     5
 10
2.2962956284000029
 20
-143.6792355553001
 30
0.0
 11
1.799184816399702
 21
-143.68479016209989
 31
0.0
  0
LINE
  8
DETAIL
  6
CONTINUOUS
 62
     5
 10
1.799184816399702
 20
-143.68479016209989
 30
0.0
 11
1.296573408400036
 21
-143.69999999999999
 31
0.0
  0
LINE
  8
DETAIL
  6
CONTINUOUS
 62
     5
 10
-30.356707484900198
 20
-143.69999999999999
 30
0.0
 11
-30.760716153200061
 21
-143.5906020729
 31
0.0
  0
LINE
  8
DETAIL
  6
CONTINUOUS
 62
     5
 10
-30.760716153200061
 20
-143.5906020729
 30
0.0
 11
-31.171405403099929
 21
-143.47261117680009
 31
0.0
  0
LINE
  8
DETAIL
  6
CONTINUOUS
 62
     5
 10
-31.171405403099929
 20
-143.47261117680009
 30
0.0
 11
-31.587770362700208
 21
-143.34699197399999
 31
0.0
  0
LINE
  8
DETAIL
  6
CONTINUOUS
 62
     5
 10
-31.587770362700208
 20
-143.34699197399999
 30
0.0
 11
-32.01185626510005
 21
-143.212001544
 31
0.0
  0
LINE
  8
DETAIL
  6
CONTINUOUS
 62
     5
 10
-32.01185626510005
 20
-143.212001544
 30
0.0
 11
-32.44514702890001
 21
-143.06682730169999
 31
0.0
  0
LINE
  8
DETAIL
  6
CONTINUOUS
 62
     5
 10
-32.44514702890001
 20
-143.06682730169999
 30
0.0
 11
-32.888135567300203
 21
-142.91020235790009
 31
0.0
  0
LINE
  8
DETAIL
  6
CONTINUOUS
 62
     5
 10
-32.888135567300203
 20
-142.91020235790009
 30
0.0
 11
-33.341370943300262
 21
-142.74147763290009
 31
0.0
  0
LINE
  8
DETAIL
  6
CONTINUOUS
 62
     5
 10
-33.341370943300262
 20
-142.74147763290009
 30
0.0
 11
-33.805956539600167
 21
-142.55877676730009
 31
0.0
  0
LINE
  8
DETAIL
  6
CONTINUOUS
 62
     5
 10
-33.805956539600167
 20
-142.55877676730009
 30
0.0
 11
-34.282592732200101
 21
-142.36136233810001
 31
0.0
  0
LINE
  8
DETAIL
  6
CONTINUOUS
 62
     5
 10
-34.282592732200101
 20
-142.36136233810001
 30
0.0
 11
-34.772746821599867
 21
-142.14653810040011
 31
0.0
  0
LINE
  8
DETAIL
  6
CONTINUOUS
 62
     5
 10
-34.772746821599867
 20
-142.14653810040011
 30
0.0
 11
-35.278493545600213
 21
-141.91100535710001
 31
0.0
  0
LINE
  8
DETAIL
  6
CONTINUOUS
 62
     5
 10
-35.278493545600213
 20
-141.91100535710001
 30
0.0
 11
-35.798304431400076
 21
-141.65839525330011
 31
0.0
  0
LINE
  8
DETAIL
  6
CONTINUOUS
 62
     5
 10
-35.798304430600183
 20
-141.65839525370009
 30
0.0
 11
-36.364302097900243
 21
-141.37088277180001
 31
0.0
  0
LINE
  8
DETAIL
  6
CONTINUOUS
 62
     5
 10
-36.364302097900243
 20
-141.37088277180001
 30
0.0
 11
-36.932425476100427
 21
-141.0782801207001
 31
0.0
  0
LINE
  8
DETAIL
  6
CONTINUOUS
 62
     5
 10
-36.932425476100427
 20
-141.0782801207001
 30
0.0
 11
-37.50240476900035
 21
-140.78053136770001
 31
0.0
  0
LINE
  8
DETAIL
  6
CONTINUOUS
 62
     5
 10
-37.50240476900035
 20
-140.78053136770001
 30
0.0
 11
-38.074859135200313
 21
-140.47828543300011
 31
0.0
  0
LINE
  8
DETAIL
  6
CONTINUOUS
 62
     5
 10
-38.074859135200313
 20
-140.47828543300011
 30
0.0
 11
-38.651497750600363
 21
-140.17149924089981
 31
0.0
  0
LINE
  8
DETAIL
  6
CONTINUOUS
 62
     5
 10
-38.651497750600363
 20
-140.17149924089981
 30
0.0
 11
-39.228820607299888
 21
-139.86238611409999
 31
0.0
  0
LINE
  8
DETAIL
  6
CONTINUOUS
 62
     5
 10
-39.228820607299888
 20
-139.86238611409999
 30
0.0
 11
-39.804763045500287
 21
-139.55287189110001
 31
0.0
  0
LINE
  8
DETAIL
  6
CONTINUOUS
 62
     5
 10
-46.054902121400119
 20
-136.22092841099999
 30
0.0
 11
-46.828487820100243
 21
-135.81072878890001
 31
0.0
  0
LINE
  8
DETAIL
  6
CONTINUOUS
 62
     5
 10
-46.828487820100243
 20
-135.81072878890001
 30
0.0
 11
-47.62816126889993
 21
-135.38209530500009
 31
0.0
  0
LINE
  8
DETAIL
  6
CONTINUOUS
 62
     5
 10
-47.62816126889993
 20
-135.38209530500009
 30
0.0
 11
-48.45577374450022
 21
-134.93186799220001
 31
0.0
  0
LINE
  8
DETAIL
  6
CONTINUOUS
 62
     5
 10
-48.45577374450022
 20
-134.93186799220001
 30
0.0
 11
-49.311136129600072
 21
-134.45711486079981
 31
0.0
  0
LINE
  8
DETAIL
  6
CONTINUOUS
 62
     5
 10
-49.311136129600072
 20
-134.45711486079981
 30
0.0
 11
-50.196741210300388
 21
-133.95598264730009
 31
0.0
  0
LINE
  8
DETAIL
  6
CONTINUOUS
 62
     5
 10
-50.196741210300388
 20
-133.95598264730009
 30
0.0
 11
-51.113776741000038
 21
-133.42642637989999
 31
0.0
  0
LINE
  8
DETAIL
  6
CONTINUOUS
 62
     5
 10
-51.113776741000038
 20
-133.42642637989999
 30
0.0
 11
-52.065346828399917
 21
-132.86593320169999
 31
0.0
  0
LINE
  8
DETAIL
  6
CONTINUOUS
 62
     5
 10
-52.065346828399917
 20
-132.86593320169999
 30
0.0
 11
-53.052916558200202
 21
-132.2728376222
 31
0.0
  0
LINE
  8
DETAIL
  6
CONTINUOUS
 62
     5
 10
-53.052916558200202
 20
-132.2728376222
 30
0.0
 11
-54.081826377200287
 21
-131.64254109609999
 31
0.0
  0
LINE
  8
DETAIL
  6
CONTINUOUS
 62
     5
 10
-54.081826377200287
 20
-131.64254109609999
 30
0.0
 11
-55.158045602300263
 21
-130.97053122410011
 31
0.0
  0
LINE
  8
DETAIL
  6
CONTINUOUS
 62
     5
 10
-55.158045602300263
 20
-130.97053122410011
 30
0.0
 11
-56.279844023700207
 21
-130.25479040900001
 31
0.0
  0
LINE
  8
DETAIL
  6
CONTINUOUS
 62
     5
 10
-56.279844023700207
 20
-130.25479040900001
 30
0.0
 11
-57.453907299000093
 21
-129.48917536110011
 31
0.0
  0
LINE
  8
DETAIL
  6
CONTINUOUS
 62
     5
 10
-57.453907299000093
 20
-129.48917536110011
 30
0.0
 11
-58.660411044800178
 21
-128.68173235369991
 31
0.0
  0
LINE
  8
DETAIL
  6
CONTINUOUS
 62
     5
 10
-58.660411044800178
 20
-128.68173235369991
 30
0.0
 11
-59.890722192400062
 21
-127.83443080390001
 31
0.0
  0
LINE
  8
DETAIL
  6
CONTINUOUS
 62
     5
 10
-59.890722192400062
 20
-127.83443080390001
 30
0.0
 11
-61.120831771700068
 21
-126.9600179346
 31
0.0
  0
LINE
  8
DETAIL
  6
CONTINUOUS
 62
     5
 10
-61.120831771700068
 20
-126.9600179346
 30
0.0
 11
-62.330071703800058
 21
-126.0687867947001
 31
0.0
  0
LINE
  8
DETAIL
  6
CONTINUOUS
 62
     5
 10
-62.330071703800058
 20
-126.0687867947001
 30
0.0
 11
-63.504733603300338
 21
-125.1702986191
 31
0.0
  0
LINE
  8
DETAIL
  6
CONTINUOUS
 62
     5
 10
-63.504733603300338
 20
-125.1702986191
 30
0.0
 11
-64.627230247100215
 21
-124.2751706602
 31
0.0
  0
LINE
  8
DETAIL
  6
CONTINUOUS
 62
     5
 10
-64.627230247100215
 20
-124.2751706602
 30
0.0
 11
-65.692180059400016
 21
-123.3900991684
 31
0.0
  0
LINE
  8
DETAIL
  6
CONTINUOUS
 62
     5
 10
-65.692180059400016
 20
-123.3900991684
 30
0.0
 11
-66.684338088300137
 21
-122.5282247043
 31
0.0
  0
LINE
  8
DETAIL
  6
CONTINUOUS
 62
     5
 10
-66.684338088300137
 20
-122.5282247043
 30
0.0
 11
-67.617315103199871
 21
-121.68040386360001
 31
0.0
  0
LINE
  8
DETAIL
  6
CONTINUOUS
 62
     5
 10
-67.617315103199871
 20
-121.68040386360001
 30
0.0
 11
-68.491421792100027
 21
-120.8489710554001
 31
0.0
  0
LINE
  8
DETAIL
  6
CONTINUOUS
 62
     5
 10
-68.491421792100027
 20
-120.8489710554001
 30
0.0
 11
-69.329673276600261
 21
-120.01207076120011
 31
0.0
  0
LINE
  8
DETAIL
  6
CONTINUOUS
 62
     5
 10
-69.329673276600261
 20
-120.01207076120011
 30
0.0
 11
-70.15146009270029
 21
-119.151472685
 31
0.0
  0
LINE
  8
DETAIL
  6
CONTINUOUS
 62
     5
 10
-70.15146009270029
 20
-119.151472685
 30
0.0
 11
-70.964901857900259
 21
-118.2576854167
 31
0.0
  0
LINE
  8
DETAIL
  6
CONTINUOUS
 62
     5
 10
-70.964901857900259
 20
-118.2576854167
 30
0.0
 11
-71.783979519800141
 21
-117.3162644020001
 31
0.0
  0
LINE
  8
DETAIL
  6
CONTINUOUS
 62
     5
 10
-71.783979519800141
 20
-117.3162644020001
 30
0.0
 11
-72.609119765200376
 21
-116.32315958860001
 31
0.0
  0
LINE
  8
DETAIL
  6
CONTINUOUS
 62
     5
 10
-72.609119765200376
 20
-116.32315958860001
 30
0.0
 11
-73.443657544500184
 21
-115.2725480795
 31
0.0
  0
LINE
  8
DETAIL
  6
CONTINUOUS
 62
     5
 10
-73.443657544500184
 20
-115.2725480795
 30
0.0
 11
-74.292899198399937
 21
-114.1546008509999
 31
0.0
  0
LINE
  8
DETAIL
  6
CONTINUOUS
 62
     5
 10
-74.292899198399937
 20
-114.1546008509999
 30
0.0
 11
-75.162252203700064
 21
-112.9592148966
 31
0.0
  0
LINE
  8
DETAIL
  6
CONTINUOUS
 62
     5
 10
-75.162252203700064
 20
-112.9592148966
 30
0.0
 11
-76.055176818300424
 21
-111.68058494029999
 31
0.0
  0
LINE
  8
DETAIL
  6
CONTINUOUS
 62
     5
 10
-76.055176818300424
 20
-111.68058494029999
 30
0.0
 11
-76.97652464390012
 21
-110.3100427281
 31
0.0
  0
LINE
  8
DETAIL
  6
CONTINUOUS
 62
     5
 10
-76.97652464390012
 20
-110.3100427281
 30
0.0
 11
-77.928830623900012
 21
-108.8461038598001
 31
0.0
  0
LINE
  8
DETAIL
  6
CONTINUOUS
 62
     5
 10
-77.928830623900012
 20
-108.8461038598001
 30
0.0
 11
-78.915395704399998
 21
-107.28644817910001
 31
0.0
  0
LINE
  8
DETAIL
  6
CONTINUOUS
 62
     5
 10
-78.915395704399998
 20
-107.28644817910001
 30
0.0
 11
-79.941188399499879
 21
-105.6268947992
 31
0.0
  0
LINE
  8
DETAIL
  6
CONTINUOUS
 62
     5
 10
-79.941188399499879
 20
-105.6268947992
 30
0.0
 11
-81.013939782299985
 21
-103.86039559550009
 31
0.0
  0
LINE
  8
DETAIL
  6
CONTINUOUS
 62
     5
 10
-81.013939782299985
 20
-103.86039559550009
 30
0.0
 11
-82.133014189500045
 21
-101.99769292809999
 31
0.0
  0
LINE
  8
DETAIL
  6
CONTINUOUS
 62
     5
 10
-82.133014189500045
 20
-101.99769292809999
 30
0.0
 11
-83.306946129900098
 21
-100.0336383484
 31
0.0
  0
LINE
  8
DETAIL
  6
CONTINUOUS
 62
     5
 10
-83.306946129900098
 20
-100.0336383484
 30
0.0
 11
-84.520778815700396
 21
-98.015352739499917
 31
0.0
  0
LINE
  8
DETAIL
  6
CONTINUOUS
 62
     5
 10
-84.520778815700396
 20
-98.015352739499917
 30
0.0
 11
-85.769050459600294
 21
-95.971374604500056
 31
0.0
  0
LINE
  8
DETAIL
  6
CONTINUOUS
 62
     5
 10
-85.769050459600294
 20
-95.971374604500056
 30
0.0
 11
-86.126913834400057
 21
-95.400000000000091
 31
0.0
  0
LINE
  8
DETAIL
  6
CONTINUOUS
 62
     5
 10
-42.072320373700222
 20
-138.33228153210001
 30
0.0
 11
-42.65703423010018
 21
-138.01947447270001
 31
0.0
  0
LINE
  8
DETAIL
  6
CONTINUOUS
 62
     5
 10
-42.65703423010018
 20
-138.01947447270001
 30
0.0
 11
-43.271224204900143
 21
-137.6920680915
 31
0.0
  0
LINE
  8
DETAIL
  6
CONTINUOUS
 62
     5
 10
-43.271224204900143
 20
-137.6920680915
 30
0.0
 11
-43.915740191300301
 21
-137.34988004790009
 31
0.0
  0
LINE
  8
DETAIL
  6
CONTINUOUS
 62
     5
 10
-43.915740191300301
 20
-137.34988004790009
 30
0.0
 11
-44.596874127900257
 21
-136.98995329389999
 31
0.0
  0
LINE
  8
DETAIL
  6
CONTINUOUS
 62
     5
 10
-44.596874127900257
 20
-136.98995329389999
 30
0.0
 11
-46.054902121400119
 21
-136.22092841099999
 31
0.0
  0
LINE
  8
DETAIL
  6
CONTINUOUS
 62
     5
 10
-39.804763045500287
 20
-139.55287189110001
 30
0.0
 11
-40.940450447900282
 21
-138.94086550160009
 31
0.0
  0
LINE
  8
DETAIL
  6
CONTINUOUS
 62
     5
 10
-40.940450447900282
 20
-138.94086550160009
 30
0.0
 11
-42.072320373700222
 21
-138.33228153210001
 31
0.0
  0
LINE
  8
DETAIL
  6
CONTINUOUS
 62
     5
 10
151.74259554739999
 20
-291.69999999999999
 30
0.0
 11
150.9004891001
 21
-291.21094298920002
 31
0.0
  0
LINE
  8
DETAIL
  6
CONTINUOUS
 62
     5
 10
150.9004891001
 20
-291.21094298920002
 30
0.0
 11
149.77223686999969
 21
-290.68068959829998
 31
0.0
  0
LINE
  8
DETAIL
  6
CONTINUOUS
 62
     5
 10
149.77223686999969
 20
-290.68068959829998
 30
0.0
 11
148.62097054249989
 21
-290.26059451520001
 31
0.0
  0
LINE
  8
DETAIL
  6
CONTINUOUS
 62
     5
 10
148.62097054249989
 20
-290.26059451520001
 30
0.0
 11
147.45196212329981
 21
-289.95341997809999
 31
0.0
  0
LINE
  8
DETAIL
  6
CONTINUOUS
 62
     5
 10
147.45196212329981
 20
-289.95341997809999
 30
0.0
 11
146.2708160031998
 21
-289.75981625740002
 31
0.0
  0
LINE
  8
DETAIL
  6
CONTINUOUS
 62
     5
 10
146.2708160031998
 20
-289.75981625740002
 30
0.0
 11
145.08302224420001
 21
-289.68150071460008
 31
0.0
  0
LINE
  8
DETAIL
  6
CONTINUOUS
 62
     5
 10
145.08302224420001
 20
-289.68150071460008
 30
0.0
 11
144.87063813119991
 21
-289.67959279159999
 31
0.0
  0
LINE
  8
DETAIL
  6
CONTINUOUS
 62
     5
 10
101.00744814619971
 20
-266.83878406840012
 30
0.0
 11
100.44365200199989
 21
-266.43323824819998
 31
0.0
  0
LINE
  8
DETAIL
  6
CONTINUOUS
 62
     5
 10
100.44365200199989
 20
-266.43323824819998
 30
0.0
 11
99.859562429599919
 21
-266.11601961169998
 31
0.0
  0
LINE
  8
DETAIL
  6
CONTINUOUS
 62
     5
 10
99.859562429599919
 20
-266.11601961169998
 30
0.0
 11
99.251822191899919
 21
-265.88611897210012
 31
0.0
  0
LINE
  8
DETAIL
  6
CONTINUOUS
 62
     5
 10
99.251822191899919
 20
-265.88611897210012
 30
0.0
 11
98.630503000299996
 21
-265.74656388950012
 31
0.0
  0
LINE
  8
DETAIL
  6
CONTINUOUS
 62
     5
 10
98.630503000299996
 20
-265.74656388950012
 30
0.0
 11
98.002244326199616
 21
-265.70038192409987
 31
0.0
  0
LINE
  8
DETAIL
  6
CONTINUOUS
 62
     5
 10
98.002244326199616
 20
-265.70038192409987
 30
0.0
 11
97.373985652199735
 21
-265.74656388920022
 31
0.0
  0
LINE
  8
DETAIL
  6
CONTINUOUS
 62
     5
 10
97.373985652199735
 20
-265.74656388920022
 30
0.0
 11
96.752666460499768
 21
-265.88611897150008
 31
0.0
  0
LINE
  8
DETAIL
  6
CONTINUOUS
 62
     5
 10
96.752666460499768
 20
-265.88611897150008
 30
0.0
 11
96.144926222799768
 21
-266.11601961090008
 31
0.0
  0
LINE
  8
DETAIL
  6
CONTINUOUS
 62
     5
 10
96.144926222799768
 20
-266.11601961090008
 30
0.0
 11
95.560836650299734
 21
-266.43323824720011
 31
0.0
  0
LINE
  8
DETAIL
  6
CONTINUOUS
 62
     5
 10
95.560836650299734
 20
-266.43323824720011
 30
0.0
 11
94.997040505999848
 21
-266.83878406710011
 31
0.0
  0
LINE
  8
DETAIL
  6
CONTINUOUS
 62
     5
 10
101.0074481459997
 20
-266.83878406840012
 30
0.0
 11
100.5021547674996
 21
-266.43910982739999
 31
0.0
  0
LINE
  8
DETAIL
  6
CONTINUOUS
 62
     5
 10
100.5021547674996
 20
-266.43910982739999
 30
0.0
 11
99.965401556699817
 21
-266.03783308039999
 31
0.0
  0
LINE
  8
DETAIL
  6
CONTINUOUS
 62
     5
 10
99.965401556699817
 20
-266.03783308039999
 30
0.0
 11
99.399586889999682
 21
-265.63693230289999
 31
0.0
  0
LINE
  8
DETAIL
  6
CONTINUOUS
 62
     5
 10
99.399586889999682
 20
-265.63693230289999
 30
0.0
 11
98.797515638199911
 21
-265.23047206830012
 31
0.0
  0
LINE
  8
DETAIL
  6
CONTINUOUS
 62
     5
 10
98.797515638199911
 20
-265.23047206830012
 30
0.0
 11
98.151992671899734
 21
-264.81251695010002
 31
0.0
  0
LINE
  8
DETAIL
  6
CONTINUOUS
 62
     5
 10
98.151992671899734
 20
-264.81251695010002
 30
0.0
 11
97.465416367600028
 21
-264.38504542380002
 31
0.0
  0
LINE
  8
DETAIL
  6
CONTINUOUS
 62
     5
 10
102.9519917936
 20
-270.15854811570011
 30
0.0
 11
98.002244325299671
 21
-266.11709623140001
 31
0.0
  0
LINE
  8
DETAIL
  6
CONTINUOUS
 62
     5
 10
102.24488501249969
 20
-270.15854811570011
 30
0.0
 11
97.648690934699971
 21
-266.40577136600001
 31
0.0
  0
LINE
  8
DETAIL
  6
CONTINUOUS
 62
     5
 10
93.052496856999824
 20
-278.24145188440002
 30
0.0
 11
98.002244325299671
 21
-282.28290376870012
 31
0.0
  0
LINE
  8
DETAIL
  6
CONTINUOUS
 62
     5
 10
87.042089216899967
 20
-279.10747728810009
 30
0.0
 11
93.052496856999824
 21
-284.01495457620013
 31
0.0
  0
LINE
  8
DETAIL
  6
CONTINUOUS
 62
     5
 10
94.997040504699726
 20
-281.56121593170008
 30
0.0
 11
95.470745079799599
 21
-281.96089017269998
 31
0.0
  0
LINE
  8
DETAIL
  6
CONTINUOUS
 62
     5
 10
95.470745079799599
 20
-281.96089017269998
 30
0.0
 11
95.916915144799987
 21
-282.36216691969997
 31
0.0
  0
LINE
  8
DETAIL
  6
CONTINUOUS
 62
     5
 10
95.916915144799987
 20
-282.36216691969997
 30
0.0
 11
96.333102820499789
 21
-282.76306769720009
 31
0.0
  0
LINE
  8
DETAIL
  6
CONTINUOUS
 62
     5
 10
96.333102820499789
 20
-282.76306769720009
 30
0.0
 11
96.726651744199899
 21
-283.16952793169997
 31
0.0
  0
LINE
  8
DETAIL
  6
CONTINUOUS
 62
     5
 10
96.726651744199899
 20
-283.16952793169997
 30
0.0
 11
97.104905552799664
 21
-283.58748304990007
 31
0.0
  0
LINE
  8
DETAIL
  6
CONTINUOUS
 62
     5
 10
97.104905552799664
 20
-283.58748304990007
 30
0.0
 11
97.465416367600028
 21
-284.01495457620013
 31
0.0
  0
LINE
  8
DETAIL
  6
CONTINUOUS
 62
     5
 10
-27.0
 20
-155.50000000000011
 30
0.0
 11
-27.5
 21
-155.00000000000011
 31
0.0
  0
LINE
  8
DETAIL
  6
CONTINUOUS
 62
     5
 10
-16.792893218800149
 20
-177.49289321879999
 30
0.0
 11
-17.772792206100348
 21
-176.51299423149999
 31
0.0
  0
LINE
  8
DETAIL
  6
CONTINUOUS
 62
     5
 10
103.4758240075998
 20
-349.29252271189989
 30
0.0
 11
103.11511267580001
 21
-348.86482709699999
 31
0.0
  0
LINE
  8
DETAIL
  6
CONTINUOUS
 62
     5
 10
103.11511267580001
 20
-348.86482709699999
 30
0.0
 11
102.73669662799971
 21
-348.44670842099998
 31
0.0
  0
LINE
  8
DETAIL
  6
CONTINUOUS
 62
     5
 10
102.73669662799971
 20
-348.44670842099998
 30
0.0
 11
102.3429844351999
 21
-348.04011787370018
 31
0.0
  0
LINE
  8
DETAIL
  6
CONTINUOUS
 62
     5
 10
102.3429844351999
 20
-348.04011787370018
 30
0.0
 11
101.92675038499971
 21
-347.63920188560007
 31
0.0
  0
LINE
  8
DETAIL
  6
CONTINUOUS
 62
     5
 10
101.92675038499971
 20
-347.63920188560007
 30
0.0
 11
101.48076876499999
 21
-347.23810688719999
 31
0.0
  0
LINE
  8
DETAIL
  6
CONTINUOUS
 62
     5
 10
101.48076876499999
 20
-347.23810688719999
 30
0.0
 11
101.0074481459997
 21
-346.83878406840012
 31
0.0
  0
LINE
  8
DETAIL
  6
CONTINUOUS
 62
     5
 10
-35.0
 20
-173.69999999999999
 30
0.0
 11
-35.0
 21
-174.50000000000011
 31
0.0
  0
LINE
  8
DETAIL
  6
CONTINUOUS
 62
     5
 10
-35.99645680499998
 20
-225.1999999999999
 30
0.0
 11
-35.99645680499998
 21
-403.19999999999999
 31
0.0
  0
LINE
  8
DETAIL
  6
CONTINUOUS
 62
     5
 10
-41.0
 20
-185.45517716650011
 30
0.0
 11
-41.0
 21
-183.19999999999999
 31
0.0
  0
LINE
  8
DETAIL
  6
CONTINUOUS
 62
     5
 10
-41.0
 20
-442.94482283360003
 30
0.0
 11
-41.0
 21
-445.19999999999999
 31
0.0
  0
LINE
  8
DETAIL
  6
CONTINUOUS
 62
     5
 10
-51.912734266000371
 20
-225.1999999999999
 30
0.0
 11
-51.912734266000371
 21
-403.19999999999999
 31
0.0
  0
LINE
  8
DETAIL
  6
CONTINUOUS
 62
     5
 10
-52.019312013100262
 20
-413.19999999999999
 30
0.0
 11
-52.019288294700353
 21
-430.31071040950002
 31
0.0
  0
LINE
  8
DETAIL
  6
CONTINUOUS
 62
     5
 10
-63.70756543780044
 20
-254.1999999999999
 30
0.0
 11
-63.70756543780044
 21
-374.19999999999999
 31
0.0
  0
LINE
  8
DETAIL
  6
CONTINUOUS
 62
     5
 10
-63.77822290460017
 20
-215.19999999999999
 30
0.0
 11
-63.77822290460017
 21
-210.28055658359989
 31
0.0
  0
LINE
  8
DETAIL
  6
CONTINUOUS
 62
     5
 10
-64.013618437400055
 20
-225.1999999999999
 30
0.0
 11
-64.013618437400055
 21
-254.1999999999999
 31
0.0
  0
LINE
  8
DETAIL
  6
CONTINUOUS
 62
     5
 10
-64.013618437400055
 20
-374.19999999999999
 30
0.0
 11
-64.013618437400055
 21
-403.19999999999999
 31
0.0
  0
LINE
  8
DETAIL
  6
CONTINUOUS
 62
     5
 10
-52.019288291599878
 20
-198.08928959059989
 30
0.0
 11
-52.019312013100262
 21
-215.19999999999999
 31
0.0
  0
LINE
  8
DETAIL
  6
CONTINUOUS
 62
     5
 10
-52.019288291599878
 20
-198.08928959059989
 30
0.0
 11
-52.010000605200283
 21
-197.74662947140001
 31
0.0
  0
LINE
  8
DETAIL
  6
CONTINUOUS
 62
     5
 10
-52.010000605200283
 20
-197.74662947140001
 30
0.0
 11
-51.986168755400293
 21
-197.40531494950011
 31
0.0
  0
LINE
  8
DETAIL
  6
CONTINUOUS
 62
     5
 10
-51.986168755400293
 20
-197.40531494950011
 30
0.0
 11
-51.947841991100177
 21
-197.0669645406999
 31
0.0
  0
LINE
  8
DETAIL
  6
CONTINUOUS
 62
     5
 10
-51.947841991100177
 20
-197.0669645406999
 30
0.0
 11
-51.895186866100182
 21
-196.73316737580009
 31
0.0
  0
LINE
  8
DETAIL
  6
CONTINUOUS
 62
     5
 10
-51.895186866100182
 20
-196.73316737580009
 30
0.0
 11
-51.828389011699983
 21
-196.40543982989999
 31
0.0
  0
LINE
  8
DETAIL
  6
CONTINUOUS
 62
     5
 10
-51.828389011699983
 20
-196.40543982989999
 30
0.0
 11
-51.747790928400264
 21
-196.08553216609991
 31
0.0
  0
LINE
  8
DETAIL
  6
CONTINUOUS
 62
     5
 10
-51.747790928400264
 20
-196.08553216609991
 30
0.0
 11
-51.653815839700201
 21
-195.77519457150021
 31
0.0
  0
LINE
  8
DETAIL
  6
CONTINUOUS
 62
     5
 10
-51.653815839700201
 20
-195.77519457150021
 30
0.0
 11
-51.546851509100179
 21
-195.4756748945999
 31
0.0
  0
LINE
  8
DETAIL
  6
CONTINUOUS
 62
     5
 10
-51.546851509100179
 20
-195.4756748945999
 30
0.0
 11
-51.427306120600413
 21
-195.18824233210009
 31
0.0
  0
LINE
  8
DETAIL
  6
CONTINUOUS
 62
     5
 10
-51.427306120600413
 20
-195.18824233210009
 30
0.0
 11
-51.295771757700088
 21
-194.91439269050011
 31
0.0
  0
LINE
  8
DETAIL
  6
CONTINUOUS
 62
     5
 10
-51.295771757700088
 20
-194.91439269050011
 30
0.0
 11
-51.152845583700127
 21
-194.65547356330009
 31
0.0
  0
LINE
  8
DETAIL
  6
CONTINUOUS
 62
     5
 10
-51.152845583700127
 20
-194.65547356330009
 30
0.0
 11
-50.999245371300283
 21
-194.41280992899999
 31
0.0
  0
LINE
  8
DETAIL
  6
CONTINUOUS
 62
     5
 10
-50.999245371300283
 20
-194.41280992899999
 30
0.0
 11
-50.835757821800136
 21
-194.18768084979999
 31
0.0
  0
LINE
  8
DETAIL
  6
CONTINUOUS
 62
     5
 10
-50.835757821800136
 20
-194.18768084979999
 30
0.0
 11
-50.663077019400127
 21
-193.98104672410011
 31
0.0
  0
LINE
  8
DETAIL
  6
CONTINUOUS
 62
     5
 10
-50.663077019400127
 20
-193.98104672410011
 30
0.0
 11
-50.481901242000284
 21
-193.7938264217
 31
0.0
  0
LINE
  8
DETAIL
  6
CONTINUOUS
 62
     5
 10
-50.481901242000284
 20
-193.7938264217
 30
0.0
 11
-50.293172564400273
 21
-193.62705420420011
 31
0.0
  0
LINE
  8
DETAIL
  6
CONTINUOUS
 62
     5
 10
-50.293172564400273
 20
-193.62705420420011
 30
0.0
 11
-50.097786729300417
 21
-193.4815843168
 31
0.0
  0
LINE
  8
DETAIL
  6
CONTINUOUS
 62
     5
 10
-50.097786729300417
 20
-193.4815843168
 30
0.0
 11
-49.896792918500068
 21
-193.35821508410001
 31
0.0
  0
LINE
  8
DETAIL
  6
CONTINUOUS
 62
     5
 10
-49.896792918500068
 20
-193.35821508410001
 30
0.0
 11
-49.691305005100283
 21
-193.25761547889999
 31
0.0
  0
LINE
  8
DETAIL
  6
CONTINUOUS
 62
     5
 10
-49.691305005100283
 20
-193.25761547889999
 30
0.0
 11
-49.482189135600038
 21
-193.18017756580011
 31
0.0
  0
LINE
  8
DETAIL
  6
CONTINUOUS
 62
     5
 10
-49.482189135600038
 20
-193.18017756580011
 30
0.0
 11
-49.270432217500002
 21
-193.12625405819989
 31
0.0
  0
LINE
  8
DETAIL
  6
CONTINUOUS
 62
     5
 10
-49.270432217500002
 20
-193.12625405819989
 30
0.0
 11
-49.056829530200048
 21
-193.09614191680001
 31
0.0
  0
LINE
  8
DETAIL
  6
CONTINUOUS
 62
     5
 10
-97.465416367600028
 20
-284.01495457620001
 30
0.0
 11
-97.104705035700135
 21
-283.58725896139998
 31
0.0
  0
LINE
  8
DETAIL
  6
CONTINUOUS
 62
     5
 10
-97.104705035700135
 20
-283.58725896139998
 30
0.0
 11
-96.726288988000306
 21
-283.16914028540009
 31
0.0
  0
LINE
  8
DETAIL
  6
CONTINUOUS
 62
     5
 10
-96.726288988000306
 20
-283.16914028540009
 30
0.0
 11
-96.332576795200112
 21
-282.76254973810001
 31
0.0
  0
LINE
  8
DETAIL
  6
CONTINUOUS
 62
     5
 10
-96.332576795200112
 20
-282.76254973810001
 30
0.0
 11
-95.916342745000293
 21
-282.3616337499999
 31
0.0
  0
LINE
  8
DETAIL
  6
CONTINUOUS
 62
     5
 10
-95.916342745000293
 20
-282.3616337499999
 30
0.0
 11
-95.470361125000181
 21
-281.96053875159998
 31
0.0
  0
LINE
  8
DETAIL
  6
CONTINUOUS
 62
     5
 10
-95.470361125000181
 20
-281.96053875159998
 30
0.0
 11
-94.997040505900259
 21
-281.56121593270001
 31
0.0
  0
LINE
  8
DETAIL
  6
CONTINUOUS
 62
     5
 10
27.0
 20
-155.50000000000011
 30
0.0
 11
27.5
 21
-155.00000000000011
 31
0.0
  0
LINE
  8
DETAIL
  6
CONTINUOUS
 62
     5
 10
-101.00744814459991
 20
-266.83878406709982
 30
0.0
 11
-101.53769129850021
 21
-267.32651759330003
 31
0.0
  0
LINE
  8
DETAIL
  6
CONTINUOUS
 62
     5
 10
-101.53769129850021
 20
-267.32651759330003
 30
0.0
 11
-102.0239920339
 21
-267.8832689832999
 31
0.0
  0
LINE
  8
DETAIL
  6
CONTINUOUS
 62
     5
 10
-102.0239920339
 20
-267.8832689832999
 30
0.0
 11
-102.46864696750031
 21
-268.51264540289998
 31
0.0
  0
LINE
  8
DETAIL
  6
CONTINUOUS
 62
     5
 10
-102.46864696750031
 20
-268.51264540289998
 30
0.0
 11
-102.8647662491003
 21
-269.20382535519991
 31
0.0
  0
LINE
  8
DETAIL
  6
CONTINUOUS
 62
     5
 10
-102.8647662491003
 20
-269.20382535519991
 30
0.0
 11
-103.2071761488
 21
-269.9501909615999
 31
0.0
  0
LINE
  8
DETAIL
  6
CONTINUOUS
 62
     5
 10
-103.2071761488
 20
-269.9501909615999
 30
0.0
 11
-103.4930249234003
 21
-270.7427385333001
 31
0.0
  0
LINE
  8
DETAIL
  6
CONTINUOUS
 62
     5
 10
-103.4930249234003
 20
-270.7427385333001
 30
0.0
 11
-103.7182248335002
 21
-271.5734735681001
 31
0.0
  0
LINE
  8
DETAIL
  6
CONTINUOUS
 62
     5
 10
-103.7182248335002
 20
-271.5734735681001
 30
0.0
 11
-103.8813101378
 21
-272.43275062729998
 31
0.0
  0
LINE
  8
DETAIL
  6
CONTINUOUS
 62
     5
 10
-103.8813101378
 20
-272.43275062729998
 30
0.0
 11
-103.9790989749999
 21
-273.30672065380008
 31
0.0
  0
LINE
  8
DETAIL
  6
CONTINUOUS
 62
     5
 10
-103.9790989749999
 20
-273.30672065380008
 30
0.0
 11
-104.0126519656001
 21
-274.19999999999982
 31
0.0
  0
LINE
  8
DETAIL
  6
CONTINUOUS
 62
     5
 10
-101.00744814479999
 20
-266.83878406730003
 30
0.0
 11
-101.4811527198999
 21
-267.2384583083001
 31
0.0
  0
LINE
  8
DETAIL
  6
CONTINUOUS
 62
     5
 10
-101.4811527198999
 20
-267.2384583083001
 30
0.0
 11
-101.9273227849003
 21
-267.63973505529998
 31
0.0
  0
LINE
  8
DETAIL
  6
CONTINUOUS
 62
     5
 10
-101.9273227849003
 20
-267.63973505529998
 30
0.0
 11
-102.3435104606001
 21
-268.04063583279992
 31
0.0
  0
LINE
  8
DETAIL
  6
CONTINUOUS
 62
     5
 10
-102.3435104606001
 20
-268.04063583279992
 30
0.0
 11
-102.7370593843002
 21
-268.44709606739991
 31
0.0
  0
LINE
  8
DETAIL
  6
CONTINUOUS
 62
     5
 10
-102.7370593843002
 20
-268.44709606739991
 30
0.0
 11
-103.1153131929004
 21
-268.86505118560001
 31
0.0
  0
LINE
  8
DETAIL
  6
CONTINUOUS
 62
     5
 10
-103.1153131929004
 20
-268.86505118560001
 30
0.0
 11
-103.47582400760029
 21
-269.29252271189989
 31
0.0
  0
LINE
  8
DETAIL
  6
CONTINUOUS
 62
     5
 10
-97.648690934800015
 20
-266.40577136600001
 30
0.0
 11
-102.24488501250021
 21
-270.1585481157
 31
0.0
  0
LINE
  8
DETAIL
  6
CONTINUOUS
 62
     5
 10
-98.002244325300126
 20
-266.11709623140001
 30
0.0
 11
-102.9519917937
 21
-270.1585481157
 31
0.0
  0
LINE
  8
DETAIL
  6
CONTINUOUS
 62
     5
 10
-97.465416367600028
 20
-264.38504542380002
 30
0.0
 11
-98.152341057299964
 21
-264.81274103869998
 31
0.0
  0
LINE
  8
DETAIL
  6
CONTINUOUS
 62
     5
 10
-98.152341057299964
 20
-264.81274103869998
 30
0.0
 11
-98.798102417700193
 21
-265.23085971469982
 31
0.0
  0
LINE
  8
DETAIL
  6
CONTINUOUS
 62
     5
 10
-98.798102417700193
 20
-265.23085971469982
 30
0.0
 11
-99.400329600100122
 21
-265.63745026200002
 31
0.0
  0
LINE
  8
DETAIL
  6
CONTINUOUS
 62
     5
 10
-99.400329600100122
 20
-265.63745026200002
 30
0.0
 11
-99.966135150400078
 21
-266.0383662500999
 31
0.0
  0
LINE
  8
DETAIL
  6
CONTINUOUS
 62
     5
 10
-99.966135150400078
 20
-266.0383662500999
 30
0.0
 11
-100.5026316149001
 21
-266.43946124849992
 31
0.0
  0
LINE
  8
DETAIL
  6
CONTINUOUS
 62
     5
 10
-100.5026316149001
 20
-266.43946124849992
 30
0.0
 11
-101.00744814479999
 21
-266.83878406730003
 31
0.0
  0
LINE
  8
DETAIL
  6
CONTINUOUS
 62
     5
 10
-77.757326042999921
 20
-209.83238362969999
 30
0.0
 11
-77.528030870400016
 21
-209.69999999999999
 31
0.0
  0
LINE
  8
DETAIL
  6
CONTINUOUS
 62
     5
 10
-77.757333429600294
 20
-209.83219313820001
 30
0.0
 11
-77.623526517199934
 21
-209.76603239639999
 31
0.0
  0
LINE
  8
DETAIL
  6
CONTINUOUS
 62
     5
 10
-77.623526517199934
 20
-209.76603239639999
 30
0.0
 11
-77.464650912000252
 21
-209.71701802659999
 31
0.0
  0
LINE
  8
DETAIL
  6
CONTINUOUS
 62
     5
 10
-77.464650912000252
 20
-209.71701802659999
 30
0.0
 11
-77.306548741500137
 21
-209.69999999999999
 31
0.0
  0
LINE
  8
DETAIL
  6
CONTINUOUS
 62
     5
 10
-69.085450680699978
 20
-210.28055658359989
 30
0.0
 11
-68.740779496300092
 21
-210.14668597890011
 31
0.0
  0
LINE
  8
DETAIL
  6
CONTINUOUS
 62
     5
 10
-68.740779496300092
 20
-210.14668597890011
 30
0.0
 11
-68.401815850800176
 21
-210.03018112330011
 31
0.0
  0
LINE
  8
DETAIL
  6
CONTINUOUS
 62
     5
 10
-68.401815850800176
 20
-210.03018112330011
 30
0.0
 11
-68.069575436700234
 21
-209.93103634779999
 31
0.0
  0
LINE
  8
DETAIL
  6
CONTINUOUS
 62
     5
 10
-68.069575436700234
 20
-209.93103634779999
 30
0.0
 11
-67.741011176500251
 21
-209.84926865989999
 31
0.0
  0
LINE
  8
DETAIL
  6
CONTINUOUS
 62
     5
 10
-67.741011176500251
 20
-209.84926865989999
 30
0.0
 11
-67.413532384100108
 21
-209.78465161950001
 31
0.0
  0
LINE
  8
DETAIL
  6
CONTINUOUS
 62
     5
 10
-67.413532384100108
 20
-209.78465161950001
 30
0.0
 11
-67.086785577800129
 21
-209.7379098997001
 31
0.0
  0
LINE
  8
DETAIL
  6
CONTINUOUS
 62
     5
 10
-67.086785577800129
 20
-209.7379098997001
 30
0.0
 11
-66.759401583500221
 21
-209.7097738423
 31
0.0
  0
LINE
  8
DETAIL
  6
CONTINUOUS
 62
     5
 10
-66.759401583500221
 20
-209.7097738423
 30
0.0
 11
-66.431836792699869
 21
-209.69999999999999
 31
0.0
  0
LINE
  8
DETAIL
  6
CONTINUOUS
 62
     5
 10
-76.335258646400234
 20
-210.28055658359989
 30
0.0
 11
-75.704946749300234
 21
-210.1044922935001
 31
0.0
  0
LINE
  8
DETAIL
  6
CONTINUOUS
 62
     5
 10
-75.704946749300234
 20
-210.1044922935001
 30
0.0
 11
-75.087854980500197
 21
-209.96005016550001
 31
0.0
  0
LINE
  8
DETAIL
  6
CONTINUOUS
 62
     5
 10
-75.087854980500197
 20
-209.96005016550001
 30
0.0
 11
-74.48656674790027
 21
-209.84713665460001
 31
0.0
  0
LINE
  8
DETAIL
  6
CONTINUOUS
 62
     5
 10
-74.48656674790027
 20
-209.84713665460001
 30
0.0
 11
-73.893331828100145
 21
-209.76603239639999
 31
0.0
  0
LINE
  8
DETAIL
  6
CONTINUOUS
 62
     5
 10
-73.893331828100145
 20
-209.76603239639999
 30
0.0
 11
-73.300399997699969
 21
-209.71701802659999
 31
0.0
  0
LINE
  8
DETAIL
  6
CONTINUOUS
 62
     5
 10
-73.300399997699969
 20
-209.71701802659999
 30
0.0
 11
-72.710354664600345
 21
-209.69999999999999
 31
0.0
  0
LINE
  8
DETAIL
  6
CONTINUOUS
 62
     5
 10
-82.823538144300073
 20
-193.09614191680001
 30
0.0
 11
-83.098189479300345
 21
-193.12625387860001
 31
0.0
  0
LINE
  8
DETAIL
  6
CONTINUOUS
 62
     5
 10
-83.098189479300345
 20
-193.12625387860001
 30
0.0
 11
-83.370392615700439
 21
-193.18017711109999
 31
0.0
  0
LINE
  8
DETAIL
  6
CONTINUOUS
 62
     5
 10
-83.370392615700439
 20
-193.18017711109999
 30
0.0
 11
-83.638654135000252
 21
-193.25761480829999
 31
0.0
  0
LINE
  8
DETAIL
  6
CONTINUOUS
 62
     5
 10
-83.638654135000252
 20
-193.25761480829999
 30
0.0
 11
-83.901868486900185
 21
-193.3582142636001
 31
0.0
  0
LINE
  8
DETAIL
  6
CONTINUOUS
 62
     5
 10
-83.901868486900185
 20
-193.3582142636001
 30
0.0
 11
-84.158956036700147
 21
-193.48158330699991
 31
0.0
  0
LINE
  8
DETAIL
  6
CONTINUOUS
 62
     5
 10
-84.158956036700147
 20
-193.48158330699991
 30
0.0
 11
-84.408475116500085
 21
-193.6270529963999
 31
0.0
  0
LINE
  8
DETAIL
  6
CONTINUOUS
 62
     5
 10
-84.408475116500085
 20
-193.6270529963999
 30
0.0
 11
-84.649119404400153
 21
-193.79382499680011
 31
0.0
  0
LINE
  8
DETAIL
  6
CONTINUOUS
 62
     5
 10
-84.649119404400153
 20
-193.79382499680011
 30
0.0
 11
-84.879732983700251
 21
-193.98104506609999
 31
0.0
  0
LINE
  8
DETAIL
  6
CONTINUOUS
 62
     5
 10
-84.879732983700251
 20
-193.98104506609999
 30
0.0
 11
-85.099152796700309
 21
-194.18767894300001
 31
0.0
  0
LINE
  8
DETAIL
  6
CONTINUOUS
 62
     5
 10
-85.099152796700309
 20
-194.18767894300001
 30
0.0
 11
-85.306484695700419
 21
-194.41280776350001
 31
0.0
  0
LINE
  8
DETAIL
  6
CONTINUOUS
 62
     5
 10
-85.306484695700419
 20
-194.41280776350001
 30
0.0
 11
-85.500881936899987
 21
-194.65547113900021
 31
0.0
  0
LINE
  8
DETAIL
  6
CONTINUOUS
 62
     5
 10
-85.500881936899987
 20
-194.65547113900021
 30
0.0
 11
-85.681335940300414
 21
-194.9143900064
 31
0.0
  0
LINE
  8
DETAIL
  6
CONTINUOUS
 62
     5
 10
-85.681335940300414
 20
-194.9143900064
 30
0.0
 11
-85.84698207349993
 21
-195.1882393919999
 31
0.0
  0
LINE
  8
DETAIL
  6
CONTINUOUS
 62
     5
 10
-85.84698207349993
 20
-195.1882393919999
 30
0.0
 11
-85.997053897300248
 21
-195.47567169519991
 31
0.0
  0
LINE
  8
DETAIL
  6
CONTINUOUS
 62
     5
 10
-85.997053897300248
 20
-195.47567169519991
 30
0.0
 11
-86.130846025300343
 21
-195.7751911128
 31
0.0
  0
LINE
  8
DETAIL
  6
CONTINUOUS
 62
     5
 10
-86.130846025300343
 20
-195.7751911128
 30
0.0
 11
-86.247841275300289
 21
-196.08552841759999
 31
0.0
  0
LINE
  8
DETAIL
  6
CONTINUOUS
 62
     5
 10
-86.247841275300289
 20
-196.08552841759999
 30
0.0
 11
-86.347588011500193
 21
-196.4054355001999
 31
0.0
  0
LINE
  8
DETAIL
  6
CONTINUOUS
 62
     5
 10
-86.347588011500193
 20
-196.4054355001999
 30
0.0
 11
-86.429542294100429
 21
-196.73316285400011
 31
0.0
  0
LINE
  8
DETAIL
  6
CONTINUOUS
 62
     5
 10
-86.429542294100429
 20
-196.73316285400011
 30
0.0
 11
-86.493325502900007
 21
-197.0669612257
 31
0.0
  0
LINE
  8
DETAIL
  6
CONTINUOUS
 62
     5
 10
-86.493325502900007
 20
-197.0669612257
 30
0.0
 11
-86.538695361899954
 21
-197.40531318890001
 31
0.0
  0
LINE
  8
DETAIL
  6
CONTINUOUS
 62
     5
 10
-86.538695361899954
 20
-197.40531318890001
 30
0.0
 11
-86.565497535199938
 21
-197.74662872740001
 31
0.0
  0
LINE
  8
DETAIL
  6
CONTINUOUS
 62
     5
 10
-86.565497535199938
 20
-197.74662872740001
 30
0.0
 11
-86.573631351499898
 21
-198.0892895905998
 31
0.0
  0
LINE
  8
DETAIL
  6
CONTINUOUS
 62
     5
 10
-96.261679781200201
 20
-193.09614191680001
 30
0.0
 11
-45.738320218800247
 21
-190.4483248402
 31
0.0
  0
LINE
  8
DETAIL
  6
CONTINUOUS
 62
     5
 10
35.0
 20
-173.69999999999999
 30
0.0
 11
-35.0
 21
-173.69999999999999
 31
0.0
  0
LINE
  8
DETAIL
  6
CONTINUOUS
 62
     5
 10
35.0
 20
-174.50000000000011
 30
0.0
 11
-35.0
 21
-174.50000000000011
 31
0.0
  0
LINE
  8
DETAIL
  6
CONTINUOUS
 62
     5
 10
-35.999959453100018
 20
-178.19999999999999
 30
0.0
 11
35.999959407000013
 21
-178.19999999999999
 31
0.0
  0
LINE
  8
DETAIL
  6
CONTINUOUS
 62
     5
 10
-77.527864813300312
 20
-209.69999999999999
 30
0.0
 11
-64.528196927400131
 21
-209.69999999999999
 31
0.0
  0
LINE
  8
DETAIL
  6
CONTINUOUS
 62
     5
 10
-72.710354664600345
 20
-209.69999999999999
 30
0.0
 11
-72.119806818000143
 21
-209.71706450950009
 31
0.0
  0
LINE
  8
DETAIL
  6
CONTINUOUS
 62
     5
 10
-72.119806818000143
 20
-209.71706450950009
 30
0.0
 11
-71.526586688900352
 21
-209.76611994550001
 31
0.0
  0
LINE
  8
DETAIL
  6
CONTINUOUS
 62
     5
 10
-71.526586688900352
 20
-209.76611994550001
 30
0.0
 11
-70.933290068900078
 21
-209.84727220640011
 31
0.0
  0
LINE
  8
DETAIL
  6
CONTINUOUS
 62
     5
 10
-70.933290068900078
 20
-209.84727220640011
 30
0.0
 11
-70.332129583100141
 21
-209.96020359740001
 31
0.0
  0
LINE
  8
DETAIL
  6
CONTINUOUS
 62
     5
 10
-70.332129583100141
 20
-209.96020359740001
 30
0.0
 11
-69.715317856500405
 21
-210.10459642370009
 31
0.0
  0
LINE
  8
DETAIL
  6
CONTINUOUS
 62
     5
 10
-69.715317856500405
 20
-210.10459642370009
 30
0.0
 11
-69.085450680699978
 21
-210.28055658359989
 31
0.0
  0
LINE
  8
DETAIL
  6
CONTINUOUS
 62
     5
 10
-66.431836792699869
 20
-209.69999999999999
 30
0.0
 11
-66.10409801950027
 21
-209.7097872474001
 31
0.0
  0
LINE
  8
DETAIL
  6
CONTINUOUS
 62
     5
 10
-66.10409801950027
 20
-209.7097872474001
 30
0.0
 11
-65.776574435300063
 21
-209.73794602720011
 31
0.0
  0
LINE
  8
DETAIL
  6
CONTINUOUS
 62
     5
 10
-65.776574435300063
 20
-209.73794602720011
 30
0.0
 11
-65.449713872099892
 21
-209.78472568600009
 31
0.0
  0
LINE
  8
DETAIL
  6
CONTINUOUS
 62
     5
 10
-65.449713872099892
 20
-209.78472568600009
 30
0.0
 11
-65.122172834000139
 21
-209.84937818350011
 31
0.0
  0
LINE
  8
DETAIL
  6
CONTINUOUS
 62
     5
 10
-65.122172834000139
 20
-209.84937818350011
 30
0.0
 11
-64.793622391500321
 21
-209.93116645800001
 31
0.0
  0
LINE
  8
DETAIL
  6
CONTINUOUS
 62
     5
 10
-64.793622391500321
 20
-209.93116645800001
 30
0.0
 11
-64.461466677500084
 21
-210.03030692080009
 31
0.0
  0
LINE
  8
DETAIL
  6
CONTINUOUS
 62
     5
 10
-64.461466677500084
 20
-210.03030692080009
 30
0.0
 11
-64.122661993100337
 21
-210.14676663650019
 31
0.0
  0
LINE
  8
DETAIL
  6
CONTINUOUS
 62
     5
 10
-64.122661993100337
 20
-210.14676663650019
 30
0.0
 11
-63.77822290460017
 21
-210.28055658359989
 31
0.0
  0
LINE
  8
DETAIL
  6
CONTINUOUS
 62
     5
 10
-77.306548741500137
 20
-209.69999999999999
 30
0.0
 11
-77.14831192290012
 21
-209.71706450950009
 31
0.0
  0
LINE
  8
DETAIL
  6
CONTINUOUS
 62
     5
 10
-77.14831192290012
 20
-209.71706450950009
 30
0.0
 11
-76.989359068400063
 21
-209.76611994550001
 31
0.0
  0
LINE
  8
DETAIL
  6
CONTINUOUS
 62
     5
 10
-76.989359068400063
 20
-209.76611994550001
 30
0.0
 11
-76.830385718199977
 21
-209.84727220640011
 31
0.0
  0
LINE
  8
DETAIL
  6
CONTINUOUS
 62
     5
 10
-76.830385718199977
 20
-209.84727220640011
 30
0.0
 11
-76.669305251500191
 21
-209.96020359740001
 31
0.0
  0
LINE
  8
DETAIL
  6
CONTINUOUS
 62
     5
 10
-76.669305251500191
 20
-209.96020359740001
 30
0.0
 11
-76.504031047500121
 21
-210.10459642370009
 31
0.0
  0
LINE
  8
DETAIL
  6
CONTINUOUS
 62
     5
 10
-76.504031047500121
 20
-210.10459642370009
 30
0.0
 11
-76.335258646400234
 21
-210.28055658359989
 31
0.0
  0
LINE
  8
DETAIL
  6
CONTINUOUS
 62
     5
 10
-64.298735697700067
 20
-209.83238362969999
 30
0.0
 11
-64.528030870400016
 21
-209.69999999999999
 31
0.0
  0
LINE
  8
DETAIL
  6
CONTINUOUS
 62
     5
 10
91.455008727499717
 20
-279.10747728810009
 30
0.0
 11
92.141933417299697
 21
-279.53517290299999
 31
0.0
  0
LINE
  8
DETAIL
  6
CONTINUOUS
 62
     5
 10
92.141933417299697
 20
-279.53517290299999
 30
0.0
 11
92.787694777699926
 21
-279.95329157900011
 31
0.0
  0
LINE
  8
DETAIL
  6
CONTINUOUS
 62
     5
 10
92.787694777699926
 20
-279.95329157900011
 30
0.0
 11
93.389921960099855
 21
-280.35988212640001
 31
0.0
  0
LINE
  8
DETAIL
  6
CONTINUOUS
 62
     5
 10
93.389921960099855
 20
-280.35988212640001
 30
0.0
 11
93.955727510399811
 21
-280.76079811450012
 31
0.0
  0
LINE
  8
DETAIL
  6
CONTINUOUS
 62
     5
 10
93.955727510399811
 20
-280.76079811450012
 30
0.0
 11
94.492223974899844
 21
-281.16189311290009
 31
0.0
  0
LINE
  8
DETAIL
  6
CONTINUOUS
 62
     5
 10
94.492223974899844
 20
-281.16189311290009
 30
0.0
 11
94.997040504699726
 21
-281.56121593170008
 31
0.0
  0
LINE
  8
DETAIL
  6
CONTINUOUS
 62
     5
 10
94.997040504499637
 20
-281.56121593170008
 30
0.0
 11
95.560836648699933
 21
-281.96676175179999
 31
0.0
  0
LINE
  8
DETAIL
  6
CONTINUOUS
 62
     5
 10
95.560836648699933
 20
-281.96676175179999
 30
0.0
 11
96.144926221099922
 21
-282.28398038839998
 31
0.0
  0
LINE
  8
DETAIL
  6
CONTINUOUS
 62
     5
 10
96.144926221099922
 20
-282.28398038839998
 30
0.0
 11
96.752666458799922
 21
-282.51388102800001
 31
0.0
  0
LINE
  8
DETAIL
  6
CONTINUOUS
 62
     5
 10
96.752666458799922
 20
-282.51388102800001
 30
0.0
 11
97.373985650399845
 21
-282.65343611050002
 31
0.0
  0
LINE
  8
DETAIL
  6
CONTINUOUS
 62
     5
 10
97.373985650399845
 20
-282.65343611050002
 30
0.0
 11
98.002244324399726
 21
-282.69961807590022
 31
0.0
  0
LINE
  8
DETAIL
  6
CONTINUOUS
 62
     5
 10
98.002244324399726
 20
-282.69961807590022
 30
0.0
 11
98.630502998499651
 21
-282.65343611079999
 31
0.0
  0
LINE
  8
DETAIL
  6
CONTINUOUS
 62
     5
 10
98.630502998499651
 20
-282.65343611079999
 30
0.0
 11
99.251822190100029
 21
-282.51388102850001
 31
0.0
  0
LINE
  8
DETAIL
  6
CONTINUOUS
 62
     5
 10
99.251822190100029
 20
-282.51388102850001
 30
0.0
 11
99.859562427899618
 21
-282.2839803892
 31
0.0
  0
LINE
  8
DETAIL
  6
CONTINUOUS
 62
     5
 10
99.859562427899618
 20
-282.2839803892
 30
0.0
 11
100.4436520003001
 21
-281.96676175290008
 31
0.0
  0
LINE
  8
DETAIL
  6
CONTINUOUS
 62
     5
 10
100.4436520003001
 20
-281.96676175290008
 30
0.0
 11
101.00744814459991
 21
-281.56121593300008
 31
0.0
  0
LINE
  8
DETAIL
  6
CONTINUOUS
 62
     5
 10
-63.77822290460017
 20
-210.28055658359989
 30
0.0
 11
-63.947114468400287
 21
-210.1044922935001
 31
0.0
  0
LINE
  8
DETAIL
  6
CONTINUOUS
 62
     5
 10
-63.947114468400287
 20
-210.1044922935001
 30
0.0
 11
-64.112463709499934
 21
-209.96005016550001
 31
0.0
  0
LINE
  8
DETAIL
  6
CONTINUOUS
 62
     5
 10
-64.112463709499934
 20
-209.96005016550001
 30
0.0
 11
-64.273578405900025
 21
-209.84713665460001
 31
0.0
  0
LINE
  8
DETAIL
  6
CONTINUOUS
 62
     5
 10
-64.273578405900025
 20
-209.84713665460001
 30
0.0
 11
-64.298728311200193
 21
-209.83219313820001
 31
0.0
  0
LINE
  8
DETAIL
  6
CONTINUOUS
 62
     5
 10
-91.991836685100225
 20
-274.19999999999982
 30
0.0
 11
-92.025389675600309
 21
-273.30672065409999
 31
0.0
  0
LINE
  8
DETAIL
  6
CONTINUOUS
 62
     5
 10
-92.025389675600309
 20
-273.30672065409999
 30
0.0
 11
-92.123178512800223
 21
-272.43275062779992
 31
0.0
  0
LINE
  8
DETAIL
  6
CONTINUOUS
 62
     5
 10
-92.123178512800223
 20
-272.43275062779992
 30
0.0
 11
-92.286263816999963
 21
-271.57347356889989
 31
0.0
  0
LINE
  8
DETAIL
  6
CONTINUOUS
 62
     5
 10
-92.286263816999963
 20
-271.57347356889989
 30
0.0
 11
-92.511463727000319
 21
-270.74273853430009
 31
0.0
  0
LINE
  8
DETAIL
  6
CONTINUOUS
 62
     5
 10
-92.511463727000319
 20
-270.74273853430009
 30
0.0
 11
-92.797312501400029
 21
-269.95019096279998
 31
0.0
  0
LINE
  8
DETAIL
  6
CONTINUOUS
 62
     5
 10
-92.797312501400029
 20
-269.95019096279998
 30
0.0
 11
-93.139722400900155
 21
-269.20382535649998
 31
0.0
  0
LINE
  8
DETAIL
  6
CONTINUOUS
 62
     5
 10
-93.139722400900155
 20
-269.20382535649998
 30
0.0
 11
-93.535841682400132
 21
-268.51264540419987
 31
0.0
  0
LINE
  8
DETAIL
  6
CONTINUOUS
 62
     5
 10
-93.535841682400132
 20
-268.51264540419987
 30
0.0
 11
-93.980496615700304
 21
-267.88326898470001
 31
0.0
  0
LINE
  8
DETAIL
  6
CONTINUOUS
 62
     5
 10
-93.980496615700304
 20
-267.88326898470001
 30
0.0
 11
-94.466797350800334
 21
-267.32651759459998
 31
0.0
  0
LINE
  8
DETAIL
  6
CONTINUOUS
 62
     5
 10
-94.466797350800334
 20
-267.32651759459998
 30
0.0
 11
-94.997040504500092
 21
-266.83878406840012
 31
0.0
  0
LINE
  8
DETAIL
  6
CONTINUOUS
 62
     5
 10
-91.991836685100225
 20
-354.19999999999999
 30
0.0
 11
-92.025389675600309
 21
-353.30672065409999
 31
0.0
  0
LINE
  8
DETAIL
  6
CONTINUOUS
 62
     5
 10
-92.025389675600309
 20
-353.30672065409999
 30
0.0
 11
-92.123178512800223
 21
-352.43275062779998
 31
0.0
  0
LINE
  8
DETAIL
  6
CONTINUOUS
 62
     5
 10
-92.123178512800223
 20
-352.43275062779998
 30
0.0
 11
-92.286263816999963
 21
-351.57347356889977
 31
0.0
  0
LINE
  8
DETAIL
  6
CONTINUOUS
 62
     5
 10
-92.286263816999963
 20
-351.57347356889977
 30
0.0
 11
-92.511463727000319
 21
-350.74273853430009
 31
0.0
  0
LINE
  8
DETAIL
  6
CONTINUOUS
 62
     5
 10
-92.511463727000319
 20
-350.74273853430009
 30
0.0
 11
-92.797312501400029
 21
-349.95019096279998
 31
0.0
  0
LINE
  8
DETAIL
  6
CONTINUOUS
 62
     5
 10
-92.797312501400029
 20
-349.95019096279998
 30
0.0
 11
-93.139722400900155
 21
-349.20382535650009
 31
0.0
  0
LINE
  8
DETAIL
  6
CONTINUOUS
 62
     5
 10
-93.139722400900155
 20
-349.20382535650009
 30
0.0
 11
-93.535841682400132
 21
-348.51264540420021
 31
0.0
  0
LINE
  8
DETAIL
  6
CONTINUOUS
 62
     5
 10
-93.535841682400132
 20
-348.51264540420021
 30
0.0
 11
-93.980496615700304
 21
-347.88326898470001
 31
0.0
  0
LINE
  8
DETAIL
  6
CONTINUOUS
 62
     5
 10
-93.980496615700304
 20
-347.88326898470001
 30
0.0
 11
-94.466797350800334
 21
-347.32651759459998
 31
0.0
  0
LINE
  8
DETAIL
  6
CONTINUOUS
 62
     5
 10
-94.466797350800334
 20
-347.32651759459998
 30
0.0
 11
-94.997040504500092
 21
-346.83878406840012
 31
0.0
  0
LINE
  8
DETAIL
  6
CONTINUOUS
 62
     5
 10
-104.0126519656001
 20
-274.19999999999982
 30
0.0
 11
-103.9790989751
 21
-275.09327934599992
 31
0.0
  0
LINE
  8
DETAIL
  6
CONTINUOUS
 62
     5
 10
-103.9790989751
 20
-275.09327934599992
 30
0.0
 11
-103.8813101379001
 21
-275.96724937229999
 31
0.0
  0
LINE
  8
DETAIL
  6
CONTINUOUS
 62
     5
 10
-103.8813101379001
 20
-275.96724937229999
 30
0.0
 11
-103.7182248337003
 21
-276.82652643119991
 31
0.0
  0
LINE
  8
DETAIL
  6
CONTINUOUS
 62
     5
 10
-103.7182248337003
 20
-276.82652643119991
 30
0.0
 11
-103.4930249236004
 21
-277.65726146579982
 31
0.0
  0
LINE
  8
DETAIL
  6
CONTINUOUS
 62
     5
 10
-103.4930249236004
 20
-277.65726146579982
 30
0.0
 11
-103.20717614920019
 21
-278.44980903729987
 31
0.0
  0
LINE
  8
DETAIL
  6
CONTINUOUS
 62
     5
 10
-103.20717614920019
 20
-278.44980903729987
 30
0.0
 11
-102.8647662498001
 21
-279.19617464359987
 31
0.0
  0
LINE
  8
DETAIL
  6
CONTINUOUS
 62
     5
 10
-102.8647662498001
 20
-279.19617464359987
 30
0.0
 11
-102.46864696830021
 21
-279.88735459579988
 31
0.0
  0
LINE
  8
DETAIL
  6
CONTINUOUS
 62
     5
 10
-102.46864696830021
 20
-279.88735459579988
 30
0.0
 11
-102.02399203500001
 21
-280.51673101529991
 31
0.0
  0
LINE
  8
DETAIL
  6
CONTINUOUS
 62
     5
 10
-102.02399203500001
 20
-280.51673101529991
 30
0.0
 11
-101.5376912999
 21
-281.0734824054
 31
0.0
  0
LINE
  8
DETAIL
  6
CONTINUOUS
 62
     5
 10
-101.5376912999
 20
-281.0734824054
 30
0.0
 11
-101.0074481462002
 21
-281.56121593170008
 31
0.0
  0
LINE
  8
DETAIL
  6
CONTINUOUS
 62
     5
 10
-86.573631351400309
 20
-430.31071040950002
 30
0.0
 11
-86.56549756530012
 21
-430.65337061939999
 31
0.0
  0
LINE
  8
DETAIL
  6
CONTINUOUS
 62
     5
 10
-86.56549756530012
 20
-430.65337061939999
 30
0.0
 11
-86.538695519000157
 21
-430.99468523109999
 31
0.0
  0
LINE
  8
DETAIL
  6
CONTINUOUS
 62
     5
 10
-86.538695519000157
 20
-430.99468523109999
 30
0.0
 11
-86.493325977699897
 21
-431.33303572639988
 31
0.0
  0
LINE
  8
DETAIL
  6
CONTINUOUS
 62
     5
 10
-86.493325977699897
 20
-431.33303572639988
 30
0.0
 11
-86.429543189400192
 21
-431.66683297639997
 31
0.0
  0
LINE
  8
DETAIL
  6
CONTINUOUS
 62
     5
 10
-86.429543189400192
 20
-431.66683297639997
 30
0.0
 11
-86.347589075200176
 21
-431.99456060829988
 31
0.0
  0
LINE
  8
DETAIL
  6
CONTINUOUS
 62
     5
 10
-86.347589075200176
 20
-431.99456060829988
 30
0.0
 11
-86.247842345800109
 21
-432.31446835300011
 31
0.0
  0
LINE
  8
DETAIL
  6
CONTINUOUS
 62
     5
 10
-86.247842345800109
 20
-432.31446835300011
 30
0.0
 11
-86.130847154100138
 21
-432.62480601760012
 31
0.0
  0
LINE
  8
DETAIL
  6
CONTINUOUS
 62
     5
 10
-86.130847154100138
 20
-432.62480601760012
 30
0.0
 11
-85.997055065699897
 21
-432.92432575599992
 31
0.0
  0
LINE
  8
DETAIL
  6
CONTINUOUS
 62
     5
 10
-85.997055065699897
 20
-432.92432575599992
 30
0.0
 11
-85.84698325160025
 21
-433.21175837129999
 31
0.0
  0
LINE
  8
DETAIL
  6
CONTINUOUS
 62
     5
 10
-85.84698325160025
 20
-433.21175837129999
 30
0.0
 11
-85.681337098199947
 21
-433.48560805760007
 31
0.0
  0
LINE
  8
DETAIL
  6
CONTINUOUS
 62
     5
 10
-85.681337098199947
 20
-433.48560805760007
 30
0.0
 11
-85.500883037399944
 21
-433.74452722310002
 31
0.0
  0
LINE
  8
DETAIL
  6
CONTINUOUS
 62
     5
 10
-85.500883037399944
 20
-433.74452722310002
 30
0.0
 11
-85.306485703999897
 21
-433.98719088329989
 31
0.0
  0
LINE
  8
DETAIL
  6
CONTINUOUS
 62
     5
 10
-85.306485703999897
 20
-433.98719088329989
 30
0.0
 11
-85.099153681100233
 21
-434.21231996870011
 31
0.0
  0
LINE
  8
DETAIL
  6
CONTINUOUS
 62
     5
 10
-85.099153681100233
 20
-434.21231996870011
 30
0.0
 11
-84.879733707300147
 21
-434.41895408980008
 31
0.0
  0
LINE
  8
DETAIL
  6
CONTINUOUS
 62
     5
 10
-84.879733707300147
 20
-434.41895408980008
 30
0.0
 11
-84.649119931500081
 21
-434.60617438010007
 31
0.0
  0
LINE
  8
DETAIL
  6
CONTINUOUS
 62
     5
 10
-84.649119931500081
 20
-434.60617438010007
 30
0.0
 11
-84.408475395200185
 21
-434.7729465763
 31
0.0
  0
LINE
  8
DETAIL
  6
CONTINUOUS
 62
     5
 10
-84.408475395200185
 20
-434.7729465763
 30
0.0
 11
-84.158956026500164
 21
-434.91841643439989
 31
0.0
  0
LINE
  8
DETAIL
  6
CONTINUOUS
 62
     5
 10
-84.158956026500164
 20
-434.91841643439989
 30
0.0
 11
-83.901868067200212
 21
-435.04178561510003
 31
0.0
  0
LINE
  8
DETAIL
  6
CONTINUOUS
 62
     5
 10
-83.901868067200212
 20
-435.04178561510003
 30
0.0
 11
-83.638652855600412
 21
-435.14238518779979
 31
0.0
  0
LINE
  8
DETAIL
  6
CONTINUOUS
 62
     5
 10
-83.638652855600412
 20
-435.14238518779979
 30
0.0
 11
-83.370390793200386
 21
-435.21982293479999
 31
0.0
  0
LINE
  8
DETAIL
  6
CONTINUOUS
 62
     5
 10
-83.370390793200386
 20
-435.21982293479999
 30
0.0
 11
-83.098188165300144
 21
-435.27374614910002
 31
0.0
  0
LINE
  8
DETAIL
  6
CONTINUOUS
 62
     5
 10
-83.098188165300144
 20
-435.27374614910002
 30
0.0
 11
-82.823538144300073
 21
-435.30385808320011
 31
0.0
  0
LINE
  8
DETAIL
  6
CONTINUOUS
 62
     5
 10
-104.0126519655
 20
-274.19999999999982
 30
0.0
 11
-104.00361725260019
 21
-274.80566349799977
 31
0.0
  0
LINE
  8
DETAIL
  6
CONTINUOUS
 62
     5
 10
-104.00361725260019
 20
-274.80566349799977
 30
0.0
 11
-103.9776124147002
 21
-275.41097479770002
 31
0.0
  0
LINE
  8
DETAIL
  6
CONTINUOUS
 62
     5
 10
-103.9776124147002
 20
-275.41097479770002
 30
0.0
 11
-103.9344032748004
 21
-276.01514377079991
 31
0.0
  0
LINE
  8
DETAIL
  6
CONTINUOUS
 62
     5
 10
-103.9344032748004
 20
-276.01514377079991
 30
0.0
 11
-103.87469236450031
 21
-276.62054080249982
 31
0.0
  0
LINE
  8
DETAIL
  6
CONTINUOUS
 62
     5
 10
-103.87469236450031
 20
-276.62054080249982
 30
0.0
 11
-103.7992214195001
 21
-277.22740473519991
 31
0.0
  0
LINE
  8
DETAIL
  6
CONTINUOUS
 62
     5
 10
-103.7992214195001
 20
-277.22740473519991
 30
0.0
 11
-103.7076386505
 21
-277.84134006959988
 31
0.0
  0
LINE
  8
DETAIL
  6
CONTINUOUS
 62
     5
 10
-103.7076386505
 20
-277.84134006959988
 30
0.0
 11
-103.59982644520009
 21
-278.46874143489998
 31
0.0
  0
LINE
  8
DETAIL
  6
CONTINUOUS
 62
     5
 10
-103.59982644520009
 20
-278.46874143489998
 30
0.0
 11
-103.47582400760029
 21
-279.10747728810009
 31
0.0
  0
LINE
  8
DETAIL
  6
CONTINUOUS
 62
     5
 10
-104.0126519655
 20
-354.19999999999999
 30
0.0
 11
-104.00361725260019
 21
-354.80566349800011
 31
0.0
  0
LINE
  8
DETAIL
  6
CONTINUOUS
 62
     5
 10
-104.00361725260019
 20
-354.80566349800011
 30
0.0
 11
-103.9776124147002
 21
-355.41097479770002
 31
0.0
  0
LINE
  8
DETAIL
  6
CONTINUOUS
 62
     5
 10
-103.9776124147002
 20
-355.41097479770002
 30
0.0
 11
-103.9344032748004
 21
-356.01514377080002
 31
0.0
  0
LINE
  8
DETAIL
  6
CONTINUOUS
 62
     5
 10
-103.9344032748004
 20
-356.01514377080002
 30
0.0
 11
-103.87469236450031
 21
-356.62054080249999
 31
0.0
  0
LINE
  8
DETAIL
  6
CONTINUOUS
 62
     5
 10
-103.87469236450031
 20
-356.62054080249999
 30
0.0
 11
-103.7992214195001
 21
-357.22740473520003
 31
0.0
  0
LINE
  8
DETAIL
  6
CONTINUOUS
 62
     5
 10
-103.7992214195001
 20
-357.22740473520003
 30
0.0
 11
-103.7076386505
 21
-357.84134006959988
 31
0.0
  0
LINE
  8
DETAIL
  6
CONTINUOUS
 62
     5
 10
-103.7076386505
 20
-357.84134006959988
 30
0.0
 11
-103.59982644520009
 21
-358.46874143489998
 31
0.0
  0
LINE
  8
DETAIL
  6
CONTINUOUS
 62
     5
 10
-103.59982644520009
 20
-358.46874143489998
 30
0.0
 11
-103.47582400760029
 21
-359.10747728809997
 31
0.0
  0
LINE
  8
DETAIL
  6
CONTINUOUS
 62
     5
 10
-69.085450680699978
 20
-215.19999999999999
 30
0.0
 11
-69.085450680699978
 21
-210.28055658359989
 31
0.0
  0
LINE
  8
DETAIL
  6
CONTINUOUS
 62
     5
 10
-70.071526468499997
 20
-254.1999999999999
 30
0.0
 11
-70.071526468499997
 21
-374.19999999999999
 31
0.0
  0
LINE
  8
DETAIL
  6
CONTINUOUS
 62
     5
 10
-76.335258646400234
 20
-215.19999999999999
 30
0.0
 11
-76.335258646400234
 21
-210.28055658359989
 31
0.0
  0
LINE
  8
DETAIL
  6
CONTINUOUS
 62
     5
 10
-77.398102998899958
 20
-413.19999999999999
 30
0.0
 11
-77.398102998899958
 21
-418.11944341639992
 31
0.0
  0
LINE
  8
DETAIL
  6
CONTINUOUS
 62
     5
 10
-78.277838836100273
 20
-215.19999999999999
 30
0.0
 11
-78.277838836100273
 21
-210.28055658359989
 31
0.0
  0
LINE
  8
DETAIL
  6
CONTINUOUS
 62
     5
 10
-82.70533077500022
 20
-413.19999999999999
 30
0.0
 11
-82.70533077500022
 21
-418.11944341639992
 31
0.0
  0
LINE
  8
DETAIL
  6
CONTINUOUS
 62
     5
 10
-86.573617099500098
 20
-215.1999999999999
 30
0.0
 11
-86.573631351499898
 21
-198.0892895905998
 31
0.0
  0
LINE
  8
DETAIL
  6
CONTINUOUS
 62
     5
 10
-87.042089217000012
 20
-359.10747728809997
 30
0.0
 11
-87.042089217000012
 21
-349.29252271189989
 31
0.0
  0
LINE
  8
DETAIL
  6
CONTINUOUS
 62
     5
 10
-87.042089217000012
 20
-279.10747728810009
 30
0.0
 11
-87.042089217000012
 21
-269.29252271189989
 31
0.0
  0
LINE
  8
DETAIL
  6
CONTINUOUS
 62
     5
 10
-89.955138740700022
 20
-413.19999999999999
 30
0.0
 11
-89.955138740700022
 21
-418.11944341639992
 31
0.0
  0
LINE
  8
DETAIL
  6
CONTINUOUS
 62
     5
 10
-91.89771893040006
 20
-413.19999999999999
 30
0.0
 11
-91.89771893040006
 21
-418.11944341639992
 31
0.0
  0
LINE
  8
DETAIL
  6
CONTINUOUS
 62
     5
 10
-93.052496857000278
 20
-358.24145188440002
 30
0.0
 11
-93.052496857000278
 21
-350.15854811570011
 31
0.0
  0
LINE
  8
DETAIL
  6
CONTINUOUS
 62
     5
 10
-93.052496857000278
 20
-278.24145188439991
 30
0.0
 11
-93.052496857000278
 21
-270.1585481157
 31
0.0
  0
LINE
  8
DETAIL
  6
CONTINUOUS
 62
     5
 10
-98.963982160400064
 20
-215.1999999999999
 30
0.0
 11
-98.963982160400064
 21
-254.1999999999999
 31
0.0
  0
LINE
  8
DETAIL
  6
CONTINUOUS
 62
     5
 10
-98.963982160400064
 20
-374.19999999999999
 30
0.0
 11
-98.963982160400064
 21
-413.19999999999999
 31
0.0
  0
LINE
  8
DETAIL
  6
CONTINUOUS
 62
     5
 10
-101.0
 20
-225.1999999999999
 30
0.0
 11
-101.0
 21
-198.0892895905998
 31
0.0
  0
LINE
  8
DETAIL
  6
CONTINUOUS
 62
     5
 10
-101.0
 20
-403.19999999999999
 30
0.0
 11
-101.0
 21
-430.31071040950002
 31
0.0
  0
LINE
  8
DETAIL
  6
CONTINUOUS
 62
     5
 10
-102.24488501250021
 20
-270.1585481157
 30
0.0
 11
-102.24488501250021
 21
-278.24145188439991
 31
0.0
  0
LINE
  8
DETAIL
  6
CONTINUOUS
 62
     5
 10
-102.24488501250021
 20
-350.15854811570011
 30
0.0
 11
-102.24488501250021
 21
-358.24145188440002
 31
0.0
  0
LINE
  8
DETAIL
  6
CONTINUOUS
 62
     5
 10
-102.9519917937
 20
-270.1585481157
 30
0.0
 11
-102.9519917937
 21
-278.24145188439991
 31
0.0
  0
LINE
  8
DETAIL
  6
CONTINUOUS
 62
     5
 10
-102.9519917937
 20
-350.15854811570011
 30
0.0
 11
-102.9519917937
 21
-358.24145188440002
 31
0.0
  0
LINE
  8
DETAIL
  6
CONTINUOUS
 62
     5
 10
-86.573631351400309
 20
-430.31071040950002
 30
0.0
 11
-86.573617099500098
 21
-418.69999999999999
 31
0.0
  0
LINE
  8
DETAIL
  6
CONTINUOUS
 62
     5
 10
-91.991836685300314
 20
-354.19999999999999
 30
0.0
 11
-91.982801972400011
 21
-353.59433650210002
 31
0.0
  0
LINE
  8
DETAIL
  6
CONTINUOUS
 62
     5
 10
-91.982801972400011
 20
-353.59433650210002
 30
0.0
 11
-91.956797134600038
 21
-352.98902520230013
 31
0.0
  0
LINE
  8
DETAIL
  6
CONTINUOUS
 62
     5
 10
-91.956797134600038
 20
-352.98902520230013
 30
0.0
 11
-91.913587994600221
 21
-352.38485622930011
 31
0.0
  0
LINE
  8
DETAIL
  6
CONTINUOUS
 62
     5
 10
-91.913587994600221
 20
-352.38485622930011
 30
0.0
 11
-91.853877084300166
 21
-351.77945919760009
 31
0.0
  0
LINE
  8
DETAIL
  6
CONTINUOUS
 62
     5
 10
-91.853877084300166
 20
-351.77945919760009
 30
0.0
 11
-91.778406139300387
 21
-351.17259526490011
 31
0.0
  0
LINE
  8
DETAIL
  6
CONTINUOUS
 62
     5
 10
-91.778406139300387
 20
-351.17259526490011
 30
0.0
 11
-91.686823370300317
 21
-350.55865993050003
 31
0.0
  0
LINE
  8
DETAIL
  6
CONTINUOUS
 62
     5
 10
-91.686823370300317
 20
-350.55865993050003
 30
0.0
 11
-91.579011165000338
 21
-349.93125856510011
 31
0.0
  0
LINE
  8
DETAIL
  6
CONTINUOUS
 62
     5
 10
-91.579011165000338
 20
-349.93125856510011
 30
0.0
 11
-91.455008727500172
 21
-349.29252271189989
 31
0.0
  0
LINE
  8
DETAIL
  6
CONTINUOUS
 62
     5
 10
-91.991836685300314
 20
-274.19999999999982
 30
0.0
 11
-91.982801972400011
 21
-273.59433650210002
 31
0.0
  0
LINE
  8
DETAIL
  6
CONTINUOUS
 62
     5
 10
-91.982801972400011
 20
-273.59433650210002
 30
0.0
 11
-91.956797134600038
 21
-272.98902520230001
 31
0.0
  0
LINE
  8
DETAIL
  6
CONTINUOUS
 62
     5
 10
-91.956797134600038
 20
-272.98902520230001
 30
0.0
 11
-91.913587994600221
 21
-272.3848562293
 31
0.0
  0
LINE
  8
DETAIL
  6
CONTINUOUS
 62
     5
 10
-91.913587994600221
 20
-272.3848562293
 30
0.0
 11
-91.853877084300166
 21
-271.77945919759998
 31
0.0
  0
LINE
  8
DETAIL
  6
CONTINUOUS
 62
     5
 10
-91.853877084300166
 20
-271.77945919759998
 30
0.0
 11
-91.778406139300387
 21
-271.1725952649
 31
0.0
  0
LINE
  8
DETAIL
  6
CONTINUOUS
 62
     5
 10
-91.778406139300387
 20
-271.1725952649
 30
0.0
 11
-91.686823370300317
 21
-270.55865993050003
 31
0.0
  0
LINE
  8
DETAIL
  6
CONTINUOUS
 62
     5
 10
-91.686823370300317
 20
-270.55865993050003
 30
0.0
 11
-91.579011165000338
 21
-269.93125856510011
 31
0.0
  0
LINE
  8
DETAIL
  6
CONTINUOUS
 62
     5
 10
-91.579011165000338
 20
-269.93125856510011
 30
0.0
 11
-91.455008727500172
 21
-269.29252271189989
 31
0.0
  0
LINE
  8
DETAIL
  6
CONTINUOUS
 62
     5
 10
-103.47582400760029
 20
-349.29252271189989
 30
0.0
 11
-103.59989067080009
 21
-349.93162801090011
 31
0.0
  0
LINE
  8
DETAIL
  6
CONTINUOUS
 62
     5
 10
-103.59989067080009
 20
-349.93162801090011
 30
0.0
 11
-103.7077390150002
 21
-350.55928428760012
 31
0.0
  0
LINE
  8
DETAIL
  6
CONTINUOUS
 62
     5
 10
-103.7077390150002
 20
-350.55928428760012
 30
0.0
 11
-103.79932580800001
 21
-351.17336021969999
 31
0.0
  0
LINE
  8
DETAIL
  6
CONTINUOUS
 62
     5
 10
-103.79932580800001
 20
-351.17336021969999
 30
0.0
 11
-103.87478074650021
 21
-351.78024977349992
 31
0.0
  0
LINE
  8
DETAIL
  6
CONTINUOUS
 62
     5
 10
-103.87478074650021
 20
-351.78024977349992
 30
0.0
 11
-103.9344627503001
 21
-352.38554041100002
 31
0.0
  0
LINE
  8
DETAIL
  6
CONTINUOUS
 62
     5
 10
-103.9344627503001
 20
-352.38554041100002
 30
0.0
 11
-103.9776409184001
 21
-352.9895203223
 31
0.0
  0
LINE
  8
DETAIL
  6
CONTINUOUS
 62
     5
 10
-103.9776409184001
 20
-352.9895203223
 30
0.0
 11
-104.0036275825
 21
-353.59460902010011
 31
0.0
  0
LINE
  8
DETAIL
  6
CONTINUOUS
 62
     5
 10
-104.0036275825
 20
-353.59460902010011
 30
0.0
 11
-104.0126519655
 21
-354.19999999999999
 31
0.0
  0
LINE
  8
DETAIL
  6
CONTINUOUS
 62
     5
 10
-103.47582400760029
 20
-269.29252271189989
 30
0.0
 11
-103.59989067080009
 21
-269.9316280109
 31
0.0
  0
LINE
  8
DETAIL
  6
CONTINUOUS
 62
     5
 10
-103.59989067080009
 20
-269.9316280109
 30
0.0
 11
-103.7077390150002
 21
-270.55928428760001
 31
0.0
  0
LINE
  8
DETAIL
  6
CONTINUOUS
 62
     5
 10
-103.7077390150002
 20
-270.55928428760001
 30
0.0
 11
-103.79932580800001
 21
-271.17336021969982
 31
0.0
  0
LINE
  8
DETAIL
  6
CONTINUOUS
 62
     5
 10
-103.79932580800001
 20
-271.17336021969982
 30
0.0
 11
-103.87478074650021
 21
-271.78024977349992
 31
0.0
  0
LINE
  8
DETAIL
  6
CONTINUOUS
 62
     5
 10
-103.87478074650021
 20
-271.78024977349992
 30
0.0
 11
-103.9344627503001
 21
-272.38554041100002
 31
0.0
  0
LINE
  8
DETAIL
  6
CONTINUOUS
 62
     5
 10
-103.9344627503001
 20
-272.38554041100002
 30
0.0
 11
-103.9776409184001
 21
-272.9895203223
 31
0.0
  0
LINE
  8
DETAIL
  6
CONTINUOUS
 62
     5
 10
-103.9776409184001
 20
-272.9895203223
 30
0.0
 11
-104.0036275825
 21
-273.59460902010011
 31
0.0
  0
LINE
  8
DETAIL
  6
CONTINUOUS
 62
     5
 10
-104.0036275825
 20
-273.59460902010011
 30
0.0
 11
-104.0126519655
 21
-274.19999999999982
 31
0.0
  0
LINE
  8
DETAIL
  6
CONTINUOUS
 62
     5
 10
-3.4557869610002849
 20
-1.326842872800057
 30
0.0
 11
-3.453187673399952
 21
-1.3212818535999991
 31
0.0
  0
LINE
  8
DETAIL
  6
CONTINUOUS
 62
     5
 10
-3.453187673399952
 20
-1.3212818535999991
 30
0.0
 11
-3.435996262900062
 21
-1.29368003549996
 31
0.0
  0
LINE
  8
DETAIL
  6
CONTINUOUS
 62
     5
 10
-3.435996262900062
 20
-1.29368003549996
 30
0.0
 11
-3.415929259800123
 21
-1.2694262953999671
 31
0.0
  0
LINE
  8
DETAIL
  6
CONTINUOUS
 62
     5
 10
-3.415929259800123
 20
-1.2694262953999671
 30
0.0
 11
-3.39288740560005
 21
-1.248603252400017
 31
0.0
  0
LINE
  8
DETAIL
  6
CONTINUOUS
 62
     5
 10
-3.39288740560005
 20
-1.248603252400017
 30
0.0
 11
-3.3667746303999588
 21
-1.2313457236999741
 31
0.0
  0
LINE
  8
DETAIL
  6
CONTINUOUS
 62
     5
 10
-3.3667746303999588
 20
-1.2313457236999741
 30
0.0
 11
-3.3375261300002421
 21
-1.217766674300037
 31
0.0
  0
LINE
  8
DETAIL
  6
CONTINUOUS
 62
     5
 10
-3.3375261300002421
 20
-1.217766674300037
 30
0.0
 11
-3.3049488494002621
 21
-1.207955146399968
 31
0.0
  0
LINE
  8
DETAIL
  6
CONTINUOUS
 62
     5
 10
-3.3049488494002621
 20
-1.207955146399968
 30
0.0
 11
-3.2688013002002658
 21
-1.202002127800029
 31
0.0
  0
LINE
  8
DETAIL
  6
CONTINUOUS
 62
     5
 10
-3.2688013002002658
 20
-1.202002127800029
 30
0.0
 11
-3.2291639785003099
 21
-1.200000000000045
 31
0.0
  0
LINE
  8
DETAIL
  6
CONTINUOUS
 62
     5
 10
-78.277838836100273
 20
-210.28055658359989
 30
0.0
 11
-78.108947272300156
 21
-210.1044922935001
 31
0.0
  0
LINE
  8
DETAIL
  6
CONTINUOUS
 62
     5
 10
-78.108947272300156
 20
-210.1044922935001
 30
0.0
 11
-77.943598031200054
 21
-209.96005016550001
 31
0.0
  0
LINE
  8
DETAIL
  6
CONTINUOUS
 62
     5
 10
-77.943598031200054
 20
-209.96005016550001
 30
0.0
 11
-77.782483334900007
 21
-209.84713665460001
 31
0.0
  0
LINE
  8
DETAIL
  6
CONTINUOUS
 62
     5
 10
-77.782483334900007
 20
-209.84713665460001
 30
0.0
 11
-77.757333429600294
 21
-209.83219313820001
 31
0.0
  0
LINE
  8
DETAIL
  6
CONTINUOUS
 62
     5
 10
-98.963933161100158
 20
-215.1999999999999
 30
0.0
 11
-52.019312013100262
 21
-215.19999999999999
 31
0.0
  0
LINE
  8
DETAIL
  6
CONTINUOUS
 62
     5
 10
52.019312013099807
 20
-215.19999999999999
 30
0.0
 11
60.696680874099911
 21
-215.19999999999999
 31
0.0
  0
LINE
  8
DETAIL
  6
CONTINUOUS
 62
     5
 10
-144.5
 20
-225.1999999999999
 30
0.0
 11
65.118761592600094
 21
-225.19999999999999
 31
0.0
  0
LINE
  8
DETAIL
  6
CONTINUOUS
 62
     5
 10
101.00744814619971
 20
-346.83878406840012
 30
0.0
 11
100.44365200199989
 21
-346.43323824819998
 31
0.0
  0
LINE
  8
DETAIL
  6
CONTINUOUS
 62
     5
 10
100.44365200199989
 20
-346.43323824819998
 30
0.0
 11
99.859562429599919
 21
-346.11601961170032
 31
0.0
  0
LINE
  8
DETAIL
  6
CONTINUOUS
 62
     5
 10
99.859562429599919
 20
-346.11601961170032
 30
0.0
 11
99.251822191899919
 21
-345.88611897210012
 31
0.0
  0
LINE
  8
DETAIL
  6
CONTINUOUS
 62
     5
 10
99.251822191899919
 20
-345.88611897210012
 30
0.0
 11
98.630503000299996
 21
-345.74656388950012
 31
0.0
  0
LINE
  8
DETAIL
  6
CONTINUOUS
 62
     5
 10
98.630503000299996
 20
-345.74656388950012
 30
0.0
 11
98.002244326199616
 21
-345.70038192409999
 31
0.0
  0
LINE
  8
DETAIL
  6
CONTINUOUS
 62
     5
 10
98.002244326199616
 20
-345.70038192409999
 30
0.0
 11
97.373985652199735
 21
-345.74656388920027
 31
0.0
  0
LINE
  8
DETAIL
  6
CONTINUOUS
 62
     5
 10
97.373985652199735
 20
-345.74656388920027
 30
0.0
 11
96.752666460499768
 21
-345.88611897150008
 31
0.0
  0
LINE
  8
DETAIL
  6
CONTINUOUS
 62
     5
 10
96.752666460499768
 20
-345.88611897150008
 30
0.0
 11
96.144926222799768
 21
-346.11601961090003
 31
0.0
  0
LINE
  8
DETAIL
  6
CONTINUOUS
 62
     5
 10
96.144926222799768
 20
-346.11601961090003
 30
0.0
 11
95.560836650299734
 21
-346.43323824720011
 31
0.0
  0
LINE
  8
DETAIL
  6
CONTINUOUS
 62
     5
 10
95.560836650299734
 20
-346.43323824720011
 30
0.0
 11
94.997040505999848
 21
-346.83878406710011
 31
0.0
  0
LINE
  8
DETAIL
  6
CONTINUOUS
 62
     5
 10
94.997040504499637
 20
-361.56121593170008
 30
0.0
 11
95.560836648699933
 21
-361.96676175179999
 31
0.0
  0
LINE
  8
DETAIL
  6
CONTINUOUS
 62
     5
 10
95.560836648699933
 20
-361.96676175179999
 30
0.0
 11
96.144926221099922
 21
-362.28398038839998
 31
0.0
  0
LINE
  8
DETAIL
  6
CONTINUOUS
 62
     5
 10
96.144926221099922
 20
-362.28398038839998
 30
0.0
 11
96.752666458799922
 21
-362.51388102800001
 31
0.0
  0
LINE
  8
DETAIL
  6
CONTINUOUS
 62
     5
 10
96.752666458799922
 20
-362.51388102800001
 30
0.0
 11
97.373985650399845
 21
-362.65343611050002
 31
0.0
  0
LINE
  8
DETAIL
  6
CONTINUOUS
 62
     5
 10
97.373985650399845
 20
-362.65343611050002
 30
0.0
 11
98.002244324399726
 21
-362.69961807590022
 31
0.0
  0
LINE
  8
DETAIL
  6
CONTINUOUS
 62
     5
 10
98.002244324399726
 20
-362.69961807590022
 30
0.0
 11
98.630502998499651
 21
-362.65343611079999
 31
0.0
  0
LINE
  8
DETAIL
  6
CONTINUOUS
 62
     5
 10
98.630502998499651
 20
-362.65343611079999
 30
0.0
 11
99.251822190100029
 21
-362.51388102850001
 31
0.0
  0
LINE
  8
DETAIL
  6
CONTINUOUS
 62
     5
 10
99.251822190100029
 20
-362.51388102850001
 30
0.0
 11
99.859562427899618
 21
-362.2839803892
 31
0.0
  0
LINE
  8
DETAIL
  6
CONTINUOUS
 62
     5
 10
99.859562427899618
 20
-362.2839803892
 30
0.0
 11
100.4436520003001
 21
-361.96676175290008
 31
0.0
  0
LINE
  8
DETAIL
  6
CONTINUOUS
 62
     5
 10
100.4436520003001
 20
-361.96676175290008
 30
0.0
 11
101.00744814459991
 21
-361.56121593300008
 31
0.0
  0
LINE
  8
DETAIL
  6
CONTINUOUS
 62
     5
 10
101.0074481459997
 20
-346.83878406840012
 30
0.0
 11
100.5021547674996
 21
-346.43910982739999
 31
0.0
  0
LINE
  8
DETAIL
  6
CONTINUOUS
 62
     5
 10
100.5021547674996
 20
-346.43910982739999
 30
0.0
 11
99.965401556699817
 21
-346.03783308039999
 31
0.0
  0
LINE
  8
DETAIL
  6
CONTINUOUS
 62
     5
 10
99.965401556699817
 20
-346.03783308039999
 30
0.0
 11
99.399586889999682
 21
-345.63693230289999
 31
0.0
  0
LINE
  8
DETAIL
  6
CONTINUOUS
 62
     5
 10
99.399586889999682
 20
-345.63693230289999
 30
0.0
 11
98.797515638199911
 21
-345.23047206830012
 31
0.0
  0
LINE
  8
DETAIL
  6
CONTINUOUS
 62
     5
 10
98.797515638199911
 20
-345.23047206830012
 30
0.0
 11
98.151992671899734
 21
-344.81251695010002
 31
0.0
  0
LINE
  8
DETAIL
  6
CONTINUOUS
 62
     5
 10
98.151992671899734
 20
-344.81251695010002
 30
0.0
 11
97.465416367600028
 21
-344.38504542380002
 31
0.0
  0
LINE
  8
DETAIL
  6
CONTINUOUS
 62
     5
 10
102.9519917936
 20
-350.15854811570011
 30
0.0
 11
98.002244325299671
 21
-346.11709623140001
 31
0.0
  0
LINE
  8
DETAIL
  6
CONTINUOUS
 62
     5
 10
102.24488501249969
 20
-350.15854811570011
 30
0.0
 11
97.648690934699971
 21
-346.40577136600001
 31
0.0
  0
LINE
  8
DETAIL
  6
CONTINUOUS
 62
     5
 10
93.052496856999824
 20
-358.24145188440002
 30
0.0
 11
98.002244325299671
 21
-362.28290376870001
 31
0.0
  0
LINE
  8
DETAIL
  6
CONTINUOUS
 62
     5
 10
87.042089216899967
 20
-359.10747728809997
 30
0.0
 11
93.052496856999824
 21
-364.01495457620001
 31
0.0
  0
LINE
  8
DETAIL
  6
CONTINUOUS
 62
     5
 10
94.997040504699726
 20
-361.56121593170008
 30
0.0
 11
95.470745079799599
 21
-361.96089017269992
 31
0.0
  0
LINE
  8
DETAIL
  6
CONTINUOUS
 62
     5
 10
95.470745079799599
 20
-361.96089017269992
 30
0.0
 11
95.916915144799987
 21
-362.36216691969997
 31
0.0
  0
LINE
  8
DETAIL
  6
CONTINUOUS
 62
     5
 10
95.916915144799987
 20
-362.36216691969997
 30
0.0
 11
96.333102820499789
 21
-362.76306769720009
 31
0.0
  0
LINE
  8
DETAIL
  6
CONTINUOUS
 62
     5
 10
96.333102820499789
 20
-362.76306769720009
 30
0.0
 11
96.726651744199899
 21
-363.16952793169997
 31
0.0
  0
LINE
  8
DETAIL
  6
CONTINUOUS
 62
     5
 10
96.726651744199899
 20
-363.16952793169997
 30
0.0
 11
97.104905552799664
 21
-363.58748304990007
 31
0.0
  0
LINE
  8
DETAIL
  6
CONTINUOUS
 62
     5
 10
97.104905552799664
 20
-363.58748304990007
 30
0.0
 11
97.465416367600028
 21
-364.01495457620001
 31
0.0
  0
LINE
  8
DETAIL
  6
CONTINUOUS
 62
     5
 10
-91.455008727500172
 20
-279.10747728810009
 30
0.0
 11
-91.579075390700382
 21
-278.46837198909998
 31
0.0
  0
LINE
  8
DETAIL
  6
CONTINUOUS
 62
     5
 10
-91.579075390700382
 20
-278.46837198909998
 30
0.0
 11
-91.68692373490012
 21
-277.8407157124999
 31
0.0
  0
LINE
  8
DETAIL
  6
CONTINUOUS
 62
     5
 10
-91.68692373490012
 20
-277.8407157124999
 30
0.0
 11
-91.778510527799881
 21
-277.22663978029982
 31
0.0
  0
LINE
  8
DETAIL
  6
CONTINUOUS
 62
     5
 10
-91.778510527799881
 20
-277.22663978029982
 30
0.0
 11
-91.853965466400041
 21
-276.61975022649989
 31
0.0
  0
LINE
  8
DETAIL
  6
CONTINUOUS
 62
     5
 10
-91.853965466400041
 20
-276.61975022649989
 30
0.0
 11
-91.913647470099932
 21
-276.01445958909989
 31
0.0
  0
LINE
  8
DETAIL
  6
CONTINUOUS
 62
     5
 10
-91.913647470099932
 20
-276.01445958909989
 30
0.0
 11
-91.956825638199916
 21
-275.41047967769998
 31
0.0
  0
LINE
  8
DETAIL
  6
CONTINUOUS
 62
     5
 10
-91.956825638199916
 20
-275.41047967769998
 30
0.0
 11
-91.982812302399907
 21
-274.80539097999991
 31
0.0
  0
LINE
  8
DETAIL
  6
CONTINUOUS
 62
     5
 10
-91.982812302399907
 20
-274.80539097999991
 30
0.0
 11
-91.991836685300314
 21
-274.19999999999982
 31
0.0
  0
LINE
  8
DETAIL
  6
CONTINUOUS
 62
     5
 10
-104.0126519656001
 20
-354.19999999999999
 30
0.0
 11
-103.9790989751
 21
-355.09327934599992
 31
0.0
  0
LINE
  8
DETAIL
  6
CONTINUOUS
 62
     5
 10
-103.9790989751
 20
-355.09327934599992
 30
0.0
 11
-103.8813101379001
 21
-355.9672493723001
 31
0.0
  0
LINE
  8
DETAIL
  6
CONTINUOUS
 62
     5
 10
-103.8813101379001
 20
-355.9672493723001
 30
0.0
 11
-103.7182248337003
 21
-356.82652643120002
 31
0.0
  0
LINE
  8
DETAIL
  6
CONTINUOUS
 62
     5
 10
-103.7182248337003
 20
-356.82652643120002
 30
0.0
 11
-103.4930249236004
 21
-357.65726146579999
 31
0.0
  0
LINE
  8
DETAIL
  6
CONTINUOUS
 62
     5
 10
-103.4930249236004
 20
-357.65726146579999
 30
0.0
 11
-103.20717614920019
 21
-358.44980903730021
 31
0.0
  0
LINE
  8
DETAIL
  6
CONTINUOUS
 62
     5
 10
-103.20717614920019
 20
-358.44980903730021
 30
0.0
 11
-102.8647662498001
 21
-359.19617464359987
 31
0.0
  0
LINE
  8
DETAIL
  6
CONTINUOUS
 62
     5
 10
-102.8647662498001
 20
-359.19617464359987
 30
0.0
 11
-102.46864696830021
 21
-359.88735459579988
 31
0.0
  0
LINE
  8
DETAIL
  6
CONTINUOUS
 62
     5
 10
-102.46864696830021
 20
-359.88735459579988
 30
0.0
 11
-102.02399203500001
 21
-360.51673101529991
 31
0.0
  0
LINE
  8
DETAIL
  6
CONTINUOUS
 62
     5
 10
-102.02399203500001
 20
-360.51673101529991
 30
0.0
 11
-101.5376912999
 21
-361.07348240540011
 31
0.0
  0
LINE
  8
DETAIL
  6
CONTINUOUS
 62
     5
 10
-101.5376912999
 20
-361.07348240540011
 30
0.0
 11
-101.0074481462002
 21
-361.56121593170008
 31
0.0
  0
LINE
  8
DETAIL
  6
CONTINUOUS
 62
     5
 10
-109.9597760003999
 20
-403.19999999999999
 30
0.0
 11
-109.9597760003999
 21
-374.19999999999999
 31
0.0
  0
LINE
  8
DETAIL
  6
CONTINUOUS
 62
     5
 10
-109.9597760003999
 20
-254.1999999999999
 30
0.0
 11
-109.9597760003999
 21
-225.1999999999999
 31
0.0
  0
LINE
  8
DETAIL
  6
CONTINUOUS
 62
     5
 10
-116.03346724559989
 20
-374.19999999999999
 30
0.0
 11
-116.03346724559989
 21
-336.69999999999982
 31
0.0
  0
LINE
  8
DETAIL
  6
CONTINUOUS
 62
     5
 10
-116.03346724559989
 20
-291.69999999999982
 30
0.0
 11
-116.03346724559989
 21
-254.1999999999999
 31
0.0
  0
LINE
  8
DETAIL
  6
CONTINUOUS
 62
     5
 10
-122.5
 20
-403.19999999999999
 30
0.0
 11
-122.5
 21
-336.69999999999982
 31
0.0
  0
LINE
  8
DETAIL
  6
CONTINUOUS
 62
     5
 10
-122.5
 20
-291.69999999999982
 30
0.0
 11
-122.5
 21
-225.1999999999999
 31
0.0
  0
LINE
  8
DETAIL
  6
CONTINUOUS
 62
     5
 10
-130.92554217930001
 20
-403.19999999999999
 30
0.0
 11
-130.92554217930001
 21
-336.69999999999982
 31
0.0
  0
LINE
  8
DETAIL
  6
CONTINUOUS
 62
     5
 10
-130.92554217930001
 20
-291.69999999999982
 30
0.0
 11
-130.92554217930001
 21
-225.1999999999999
 31
0.0
  0
LINE
  8
DETAIL
  6
CONTINUOUS
 62
     5
 10
-138.38572075460019
 20
-403.19999999999999
 30
0.0
 11
-138.38572075460019
 21
-336.69999999999982
 31
0.0
  0
LINE
  8
DETAIL
  6
CONTINUOUS
 62
     5
 10
-138.38572075460019
 20
-291.69999999999982
 30
0.0
 11
-138.38572075460019
 21
-225.1999999999999
 31
0.0
  0
LINE
  8
DETAIL
  6
CONTINUOUS
 62
     5
 10
-139.80441937700019
 20
-403.19999999999999
 30
0.0
 11
-139.80441937700019
 21
-336.69999999999982
 31
0.0
  0
LINE
  8
DETAIL
  6
CONTINUOUS
 62
     5
 10
-139.80441937700019
 20
-291.69999999999982
 30
0.0
 11
-139.80441937700019
 21
-225.1999999999999
 31
0.0
  0
LINE
  8
DETAIL
  6
CONTINUOUS
 62
     5
 10
-144.5
 20
-403.19999999999987
 30
0.0
 11
-144.5
 21
-336.69999999999982
 31
0.0
  0
LINE
  8
DETAIL
  6
CONTINUOUS
 62
     5
 10
-144.5
 20
-291.69999999999982
 30
0.0
 11
-144.5
 21
-225.1999999999999
 31
0.0
  0
LINE
  8
DETAIL
  6
CONTINUOUS
 62
     5
 10
-65.081725113300308
 20
-119.7565633115
 30
0.0
 11
-64.706893758900151
 21
-119.1514725185
 31
0.0
  0
LINE
  8
DETAIL
  6
CONTINUOUS
 62
     5
 10
-64.706893758900151
 20
-119.1514725185
 30
0.0
 11
-64.197529421499894
 21
-118.25768523720011
 31
0.0
  0
LINE
  8
DETAIL
  6
CONTINUOUS
 62
     5
 10
-64.197529421499894
 20
-118.25768523720011
 30
0.0
 11
-63.702900226599922
 21
-117.3162642085001
 31
0.0
  0
LINE
  8
DETAIL
  6
CONTINUOUS
 62
     5
 10
-63.702900226599922
 20
-117.3162642085001
 30
0.0
 11
-63.224521021700177
 21
-116.32315937929999
 31
0.0
  0
LINE
  8
DETAIL
  6
CONTINUOUS
 62
     5
 10
-63.224521021700177
 20
-116.32315937929999
 30
0.0
 11
-62.761783239499891
 21
-115.2725478524
 31
0.0
  0
LINE
  8
DETAIL
  6
CONTINUOUS
 62
     5
 10
-62.761783239499891
 20
-115.2725478524
 30
0.0
 11
-62.313962663200073
 21
-114.1546006037
 31
0.0
  0
LINE
  8
DETAIL
  6
CONTINUOUS
 62
     5
 10
-62.313962663200073
 20
-114.1546006037
 30
0.0
 11
-61.88086379690003
 21
-112.9592146256001
 31
0.0
  0
LINE
  8
DETAIL
  6
CONTINUOUS
 62
     5
 10
-61.88086379690003
 20
-112.9592146256001
 30
0.0
 11
-61.463317060600268
 21
-111.6805846431
 31
0.0
  0
LINE
  8
DETAIL
  6
CONTINUOUS
 62
     5
 10
-61.463317060600268
 20
-111.6805846431
 30
0.0
 11
-61.062795917499898
 21
-110.3100424037
 31
0.0
  0
LINE
  8
DETAIL
  6
CONTINUOUS
 62
     5
 10
-61.062795917499898
 20
-110.3100424037
 30
0.0
 11
-60.68181868369993
 21
-108.8461035066001
 31
0.0
  0
LINE
  8
DETAIL
  6
CONTINUOUS
 62
     5
 10
-60.68181868369993
 20
-108.8461035066001
 30
0.0
 11
-60.323824846500429
 21
-107.28644779540009
 31
0.0
  0
LINE
  8
DETAIL
  6
CONTINUOUS
 62
     5
 10
-60.323824846500429
 20
-107.28644779540009
 30
0.0
 11
-59.990291802000229
 21
-105.6268943834
 31
0.0
  0
LINE
  8
DETAIL
  6
CONTINUOUS
 62
     5
 10
-59.990291802000229
 20
-105.6268943834
 30
0.0
 11
-59.68057583890004
 21
-103.86039514400009
 31
0.0
  0
LINE
  8
DETAIL
  6
CONTINUOUS
 62
     5
 10
-59.68057583890004
 20
-103.86039514400009
 30
0.0
 11
-59.395654882800052
 21
-101.9976924419
 31
0.0
  0
LINE
  8
DETAIL
  6
CONTINUOUS
 62
     5
 10
-59.395654882800052
 20
-101.9976924419
 30
0.0
 11
-59.134908702700159
 21
-100.0336378304
 31
0.0
  0
LINE
  8
DETAIL
  6
CONTINUOUS
 62
     5
 10
-59.134908702700159
 20
-100.0336378304
 30
0.0
 11
-58.898885885700111
 21
-98.015352198800088
 31
0.0
  0
LINE
  8
DETAIL
  6
CONTINUOUS
 62
     5
 10
-58.898885885700111
 20
-98.015352198800088
 30
0.0
 11
-58.685697062300278
 21
-95.971374057500043
 31
0.0
  0
LINE
  8
DETAIL
  6
CONTINUOUS
 62
     5
 10
-58.685697062300278
 20
-95.971374057500043
 30
0.0
 11
-58.631248591200347
 21
-95.400000000000091
 31
0.0
  0
LINE
  8
DETAIL
  6
CONTINUOUS
 62
     5
 10
-64.262866780800323
 20
-118.9922488812999
 30
0.0
 11
-63.863367064800059
 21
-118.4888569248
 31
0.0
  0
LINE
  8
DETAIL
  6
CONTINUOUS
 62
     5
 10
-63.863367064800059
 20
-118.4888569248
 30
0.0
 11
-63.476637460500108
 21
-117.9760647291
 31
0.0
  0
LINE
  8
DETAIL
  6
CONTINUOUS
 62
     5
 10
-63.476637460500108
 20
-117.9760647291
 30
0.0
 11
-63.101828580800429
 21
-117.45364471489999
 31
0.0
  0
LINE
  8
DETAIL
  6
CONTINUOUS
 62
     5
 10
-63.101828580800429
 20
-117.45364471489999
 30
0.0
 11
-62.738862926500133
 21
-116.9214898542
 31
0.0
  0
LINE
  8
DETAIL
  6
CONTINUOUS
 62
     5
 10
-62.738862926500133
 20
-116.9214898542
 30
0.0
 11
-62.388089502700041
 21
-116.381005065
 31
0.0
  0
LINE
  8
DETAIL
  6
CONTINUOUS
 62
     5
 10
-62.388089502700041
 20
-116.381005065
 30
0.0
 11
-62.050198979999998
 21
-115.8339643387001
 31
0.0
  0
LINE
  8
DETAIL
  6
CONTINUOUS
 62
     5
 10
-62.050198979999998
 20
-115.8339643387001
 30
0.0
 11
-61.724068747500041
 21
-115.2792936686
 31
0.0
  0
LINE
  8
DETAIL
  6
CONTINUOUS
 62
     5
 10
-61.724068747500041
 20
-115.2792936686
 30
0.0
 11
-61.409800741600073
 21
-114.7182969207001
 31
0.0
  0
LINE
  8
DETAIL
  6
CONTINUOUS
 62
     5
 10
-61.409800741600073
 20
-114.7182969207001
 30
0.0
 11
-61.104596064100413
 21
-114.14559864900011
 31
0.0
  0
LINE
  8
DETAIL
  6
CONTINUOUS
 62
     5
 10
-61.104596064100413
 20
-114.14559864900011
 30
0.0
 11
-60.806060784499998
 21
-113.5568645611002
 31
0.0
  0
LINE
  8
DETAIL
  6
CONTINUOUS
 62
     5
 10
-60.806060784499998
 20
-113.5568645611002
 30
0.0
 11
-60.513693017600417
 21
-112.94983575729999
 31
0.0
  0
LINE
  8
DETAIL
  6
CONTINUOUS
 62
     5
 10
-60.513693017600417
 20
-112.94983575729999
 30
0.0
 11
-60.225647533699878
 21
-112.3192994912999
 31
0.0
  0
LINE
  8
DETAIL
  6
CONTINUOUS
 62
     5
 10
-60.225647533699878
 20
-112.3192994912999
 30
0.0
 11
-59.94404334050023
 21
-111.66941345490009
 31
0.0
  0
LINE
  8
DETAIL
  6
CONTINUOUS
 62
     5
 10
-59.94404334050023
 20
-111.66941345490009
 30
0.0
 11
-59.670325859300192
 21
-111.00266519420011
 31
0.0
  0
LINE
  8
DETAIL
  6
CONTINUOUS
 62
     5
 10
-59.670325859300192
 20
-111.00266519420011
 30
0.0
 11
-59.404492740000023
 21
-110.3190881459
 31
0.0
  0
LINE
  8
DETAIL
  6
CONTINUOUS
 62
     5
 10
-59.404492740000023
 20
-110.3190881459
 30
0.0
 11
-59.147813844600023
 21
-109.6217435265
 31
0.0
  0
LINE
  8
DETAIL
  6
CONTINUOUS
 62
     5
 10
-59.147813844600023
 20
-109.6217435265
 30
0.0
 11
-58.898041357199872
 21
-108.904299443
 31
0.0
  0
LINE
  8
DETAIL
  6
CONTINUOUS
 62
     5
 10
-58.898041357199872
 20
-108.904299443
 30
0.0
 11
-58.653950160300163
 21
-108.16291689400001
 31
0.0
  0
LINE
  8
DETAIL
  6
CONTINUOUS
 62
     5
 10
-58.653950160300163
 20
-108.16291689400001
 30
0.0
 11
-58.41487345880023
 21
-107.39384621809999
 31
0.0
  0
LINE
  8
DETAIL
  6
CONTINUOUS
 62
     5
 10
-58.41487345880023
 20
-107.39384621809999
 30
0.0
 11
-58.17952364770008
 21
-106.5910600612
 31
0.0
  0
LINE
  8
DETAIL
  6
CONTINUOUS
 62
     5
 10
-58.17952364770008
 20
-106.5910600612
 30
0.0
 11
-57.949644366200118
 21
-105.7577104177
 31
0.0
  0
LINE
  8
DETAIL
  6
CONTINUOUS
 62
     5
 10
-57.949644366200118
 20
-105.7577104177
 30
0.0
 11
-57.725668861600298
 21
-104.8945060618001
 31
0.0
  0
LINE
  8
DETAIL
  6
CONTINUOUS
 62
     5
 10
-57.725668861600298
 20
-104.8945060618001
 30
0.0
 11
-57.508282501100439
 21
-104.00395721850001
 31
0.0
  0
LINE
  8
DETAIL
  6
CONTINUOUS
 62
     5
 10
-57.508282501100439
 20
-104.00395721850001
 30
0.0
 11
-57.298475451900231
 21
-103.09019409700009
 31
0.0
  0
LINE
  8
DETAIL
  6
CONTINUOUS
 62
     5
 10
-57.298475451900231
 20
-103.09019409700009
 30
0.0
 11
-57.095240458500029
 21
-102.14930259180009
 31
0.0
  0
LINE
  8
DETAIL
  6
CONTINUOUS
 62
     5
 10
-57.095240458500029
 20
-102.14930259180009
 30
0.0
 11
-56.898170767600277
 21
-101.1796490791
 31
0.0
  0
LINE
  8
DETAIL
  6
CONTINUOUS
 62
     5
 10
-56.898170767600277
 20
-101.1796490791
 30
0.0
 11
-56.706638592399941
 21
-100.17718339850011
 31
0.0
  0
LINE
  8
DETAIL
  6
CONTINUOUS
 62
     5
 10
-56.706638592399941
 20
-100.17718339850011
 30
0.0
 11
-56.519791368100407
 21
-99.135511116999965
 31
0.0
  0
LINE
  8
DETAIL
  6
CONTINUOUS
 62
     5
 10
-56.519791368100407
 20
-99.135511116999965
 30
0.0
 11
-56.338520052000149
 21
-98.061104908399898
 31
0.0
  0
LINE
  8
DETAIL
  6
CONTINUOUS
 62
     5
 10
-56.338520052000149
 20
-98.061104908399898
 30
0.0
 11
-56.162929980300312
 21
-96.954970245800041
 31
0.0
  0
LINE
  8
DETAIL
  6
CONTINUOUS
 62
     5
 10
-56.162929980300312
 20
-96.954970245800041
 30
0.0
 11
-55.993926537200423
 21
-95.82818751979994
 31
0.0
  0
LINE
  8
DETAIL
  6
CONTINUOUS
 62
     5
 10
-55.993926537200423
 20
-95.82818751979994
 30
0.0
 11
-55.933007921200442
 21
-95.400000000000091
 31
0.0
  0
LINE
  8
DETAIL
  6
CONTINUOUS
 62
     5
 10
-64.982594401200004
 20
-119.8409668871
 30
0.0
 11
-64.672518684900297
 21
-119.48455529820011
 31
0.0
  0
LINE
  8
DETAIL
  6
CONTINUOUS
 62
     5
 10
-64.672518684900297
 20
-119.48455529820011
 30
0.0
 11
-64.262866780800323
 21
-118.9922488812999
 31
0.0
  0
LINE
  8
DETAIL
  6
CONTINUOUS
 62
     5
 10
-277.86956901720009
 20
-308.06971364089998
 30
0.0
 11
-176.19234984290009
 21
-292.63967145219988
 31
0.0
  0
LINE
  8
DETAIL
  6
CONTINUOUS
 62
     5
 10
-176.19234984290009
 20
-292.63967145219988
 30
0.0
 11
-174.12564902790021
 21
-292.35243383699998
 31
0.0
  0
LINE
  8
DETAIL
  6
CONTINUOUS
 62
     5
 10
-174.12564902790021
 20
-292.35243383699998
 30
0.0
 11
-172.05602250470019
 21
-292.11746776689978
 31
0.0
  0
LINE
  8
DETAIL
  6
CONTINUOUS
 62
     5
 10
-172.05602250470019
 20
-292.11746776689978
 30
0.0
 11
-169.98461431600029
 21
-291.93479625439988
 31
0.0
  0
LINE
  8
DETAIL
  6
CONTINUOUS
 62
     5
 10
-169.98461431600029
 20
-291.93479625439988
 30
0.0
 11
-167.91168336890041
 21
-291.80434575729998
 31
0.0
  0
LINE
  8
DETAIL
  6
CONTINUOUS
 62
     5
 10
-167.91168336890041
 20
-291.80434575729998
 30
0.0
 11
-165.83748835680029
 21
-291.7260800542
 31
0.0
  0
LINE
  8
DETAIL
  6
CONTINUOUS
 62
     5
 10
-165.83748835680029
 20
-291.7260800542
 30
0.0
 11
-163.7631749757002
 21
-291.69999999999982
 31
0.0
  0
LINE
  8
DETAIL
  6
CONTINUOUS
 62
     5
 10
-116.03346724559989
 20
-254.1999999999999
 30
0.0
 11
-63.70756543780044
 21
-254.1999999999999
 31
0.0
  0
LINE
  8
DETAIL
  6
CONTINUOUS
 62
     5
 10
93.184517636799683
 20
-254.19999999999999
 30
0.0
 11
116.0334672455997
 21
-254.19999999999999
 31
0.0
  0
LINE
  8
DETAIL
  6
CONTINUOUS
 62
     5
 10
-93.052496857000278
 20
-264.38504542380002
 30
0.0
 11
-97.465416367600028
 21
-264.38504542380002
 31
0.0
  0
LINE
  8
DETAIL
  6
CONTINUOUS
 62
     5
 10
93.052496856999824
 20
-264.38504542380002
 30
0.0
 11
97.465416367600028
 21
-264.38504542380002
 31
0.0
  0
LINE
  8
DETAIL
  6
CONTINUOUS
 62
     5
 10
-87.042089217000012
 20
-269.29252271189989
 30
0.0
 11
-91.455008727500172
 21
-269.29252271189989
 31
0.0
  0
LINE
  8
DETAIL
  6
CONTINUOUS
 62
     5
 10
87.042089216899967
 20
-269.29252271189989
 30
0.0
 11
91.455008727499717
 21
-269.29252271189989
 31
0.0
  0
LINE
  8
DETAIL
  6
CONTINUOUS
 62
     5
 10
102.9519917936
 20
-270.15854811570011
 30
0.0
 11
102.24488501249969
 21
-270.15854811570011
 31
0.0
  0
LINE
  8
DETAIL
  6
CONTINUOUS
 62
     5
 10
-102.9519917937
 20
-270.1585481157
 30
0.0
 11
-102.24488501250021
 21
-270.1585481157
 31
0.0
  0
LINE
  8
DETAIL
  6
CONTINUOUS
 62
     5
 10
102.9519917936
 20
-278.24145188440002
 30
0.0
 11
102.24488501249969
 21
-278.24145188440002
 31
0.0
  0
LINE
  8
DETAIL
  6
CONTINUOUS
 62
     5
 10
-102.9519917937
 20
-278.24145188439991
 30
0.0
 11
-102.24488501250021
 21
-278.24145188439991
 31
0.0
  0
LINE
  8
DETAIL
  6
CONTINUOUS
 62
     5
 10
-87.042089217000012
 20
-279.10747728810009
 30
0.0
 11
-91.455008727500172
 21
-279.10747728810009
 31
0.0
  0
LINE
  8
DETAIL
  6
CONTINUOUS
 62
     5
 10
87.042089216899967
 20
-279.10747728810009
 30
0.0
 11
91.455008727499717
 21
-279.10747728810009
 31
0.0
  0
LINE
  8
DETAIL
  6
CONTINUOUS
 62
     5
 10
-93.052496857000278
 20
-284.01495457620001
 30
0.0
 11
-97.465416367600028
 21
-284.01495457620001
 31
0.0
  0
LINE
  8
DETAIL
  6
CONTINUOUS
 62
     5
 10
93.052496856999824
 20
-284.01495457620013
 30
0.0
 11
97.465416367600028
 21
-284.01495457620013
 31
0.0
  0
LINE
  8
DETAIL
  6
CONTINUOUS
 62
     5
 10
144.8709572655998
 20
-288.47940250910011
 30
0.0
 11
147.34409566089971
 21
-288.48006010120002
 31
0.0
  0
LINE
  8
DETAIL
  6
CONTINUOUS
 62
     5
 10
147.34409559539969
 20
-288.48025835999988
 30
0.0
 11
147.5889047649998
 21
-288.48266852149999
 31
0.0
  0
LINE
  8
DETAIL
  6
CONTINUOUS
 62
     5
 10
147.5889047649998
 20
-288.48266852149999
 30
0.0
 11
148.83680447519961
 21
-288.56718425219998
 31
0.0
  0
LINE
  8
DETAIL
  6
CONTINUOUS
 62
     5
 10
148.83680447519961
 20
-288.56718425219998
 30
0.0
 11
150.07759556869999
 21
-288.77301248999993
 31
0.0
  0
LINE
  8
DETAIL
  6
CONTINUOUS
 62
     5
 10
150.07759556869999
 20
-288.77301248999993
 30
0.0
 11
151.30549305589969
 21
-289.09833055950003
 31
0.0
  0
LINE
  8
DETAIL
  6
CONTINUOUS
 62
     5
 10
151.30549305589969
 20
-289.09833055950003
 30
0.0
 11
152.51459013189969
 21
-289.54244213919992
 31
0.0
  0
LINE
  8
DETAIL
  6
CONTINUOUS
 62
     5
 10
152.51459013189969
 20
-289.54244213919992
 30
0.0
 11
153.69933329319969
 21
-290.1024219034
 31
0.0
  0
LINE
  8
DETAIL
  6
CONTINUOUS
 62
     5
 10
153.69933329319969
 20
-290.1024219034
 30
0.0
 11
154.85393921939979
 21
-290.77643667699999
 31
0.0
  0
LINE
  8
DETAIL
  6
CONTINUOUS
 62
     5
 10
154.85393921939979
 20
-290.77643667699999
 30
0.0
 11
155.97319055679961
 21
-291.56051368729999
 31
0.0
  0
LINE
  8
DETAIL
  6
CONTINUOUS
 62
     5
 10
155.97319055679961
 20
-291.56051368729999
 30
0.0
 11
156.14196731509989
 21
-291.69999999999999
 31
0.0
  0
LINE
  8
DETAIL
  6
CONTINUOUS
 62
     5
 10
144.87095719999979
 20
-288.47960076790002
 30
0.0
 11
145.1157663695999
 21
-288.48201092940002
 31
0.0
  0
LINE
  8
DETAIL
  6
CONTINUOUS
 62
     5
 10
145.1157663695999
 20
-288.48201092940002
 30
0.0
 11
146.36366607989979
 21
-288.56652666010001
 31
0.0
  0
LINE
  8
DETAIL
  6
CONTINUOUS
 62
     5
 10
146.36366607989979
 20
-288.56652666010001
 30
0.0
 11
147.60445717330001
 21
-288.77235489790002
 31
0.0
  0
LINE
  8
DETAIL
  6
CONTINUOUS
 62
     5
 10
147.60445717330001
 20
-288.77235489790002
 30
0.0
 11
148.8323546604997
 21
-289.09767296740011
 31
0.0
  0
LINE
  8
DETAIL
  6
CONTINUOUS
 62
     5
 10
148.8323546604997
 20
-289.09767296740011
 30
0.0
 11
150.04145173649979
 21
-289.54178454710001
 31
0.0
  0
LINE
  8
DETAIL
  6
CONTINUOUS
 62
     5
 10
150.04145173649979
 20
-289.54178454710001
 30
0.0
 11
151.22619489779979
 21
-290.10176431139979
 31
0.0
  0
LINE
  8
DETAIL
  6
CONTINUOUS
 62
     5
 10
151.22619489779979
 20
-290.10176431139979
 30
0.0
 11
152.38080082399981
 21
-290.77577908500012
 31
0.0
  0
LINE
  8
DETAIL
  6
CONTINUOUS
 62
     5
 10
152.38080082399981
 20
-290.77577908500012
 30
0.0
 11
153.50005216139971
 21
-291.55985609520008
 31
0.0
  0
LINE
  8
DETAIL
  6
CONTINUOUS
 62
     5
 10
153.50005216139971
 20
-291.55985609520008
 30
0.0
 11
153.66962459819979
 21
-291.69999999999999
 31
0.0
  0
LINE
  8
DETAIL
  6
CONTINUOUS
 62
     5
 10
176.1923498428996
 20
-292.63967145219988
 30
0.0
 11
174.12564902779971
 21
-292.35243383699998
 31
0.0
  0
LINE
  8
DETAIL
  6
CONTINUOUS
 62
     5
 10
174.12564902779971
 20
-292.35243383699998
 30
0.0
 11
172.05602250469971
 21
-292.11746776690012
 31
0.0
  0
LINE
  8
DETAIL
  6
CONTINUOUS
 62
     5
 10
172.05602250469971
 20
-292.11746776690012
 30
0.0
 11
169.98461431599981
 21
-291.93479625439988
 31
0.0
  0
LINE
  8
DETAIL
  6
CONTINUOUS
 62
     5
 10
169.98461431599981
 20
-291.93479625439988
 30
0.0
 11
167.91168336889999
 21
-291.80434575729998
 31
0.0
  0
LINE
  8
DETAIL
  6
CONTINUOUS
 62
     5
 10
167.91168336889999
 20
-291.80434575729998
 30
0.0
 11
165.83748835679989
 21
-291.72608005420011
 31
0.0
  0
LINE
  8
DETAIL
  6
CONTINUOUS
 62
     5
 10
165.83748835679989
 20
-291.72608005420011
 30
0.0
 11
163.76317497569971
 21
-291.69999999999999
 31
0.0
  0
LINE
  8
DETAIL
  6
CONTINUOUS
 62
     5
 10
277.86956901719992
 20
-308.06971364090009
 30
0.0
 11
176.1923498428996
 21
-292.63967145219988
 31
0.0
  0
LINE
  8
DETAIL
  6
CONTINUOUS
 62
     5
 10
144.5
 20
-338.34725040360001
 30
0.0
 11
144.88551291790009
 21
-338.43446443459987
 31
0.0
  0
LINE
  8
DETAIL
  6
CONTINUOUS
 62
     5
 10
144.88551291790009
 20
-338.43446443459987
 30
0.0
 11
144.99296772240001
 21
-338.45354454009998
 31
0.0
  0
LINE
  8
DETAIL
  6
CONTINUOUS
 62
     5
 10
91.455008727499717
 20
-359.10747728809997
 30
0.0
 11
92.141933417299697
 21
-359.5351729030001
 31
0.0
  0
LINE
  8
DETAIL
  6
CONTINUOUS
 62
     5
 10
92.141933417299697
 20
-359.5351729030001
 30
0.0
 11
92.787694777699926
 21
-359.95329157900011
 31
0.0
  0
LINE
  8
DETAIL
  6
CONTINUOUS
 62
     5
 10
92.787694777699926
 20
-359.95329157900011
 30
0.0
 11
93.389921960099855
 21
-360.35988212640001
 31
0.0
  0
LINE
  8
DETAIL
  6
CONTINUOUS
 62
     5
 10
93.389921960099855
 20
-360.35988212640001
 30
0.0
 11
93.955727510399811
 21
-360.76079811450012
 31
0.0
  0
LINE
  8
DETAIL
  6
CONTINUOUS
 62
     5
 10
93.955727510399811
 20
-360.76079811450012
 30
0.0
 11
94.492223974899844
 21
-361.16189311290009
 31
0.0
  0
LINE
  8
DETAIL
  6
CONTINUOUS
 62
     5
 10
94.492223974899844
 20
-361.16189311290009
 30
0.0
 11
94.997040504699726
 21
-361.56121593170008
 31
0.0
  0
LINE
  8
DETAIL
  6
CONTINUOUS
 62
     5
 10
-91.455008727500172
 20
-269.29252271189989
 30
0.0
 11
-92.141933417300152
 21
-268.86482709699999
 31
0.0
  0
LINE
  8
DETAIL
  6
CONTINUOUS
 62
     5
 10
-92.141933417300152
 20
-268.86482709699999
 30
0.0
 11
-92.787694777700381
 21
-268.44670842099998
 31
0.0
  0
LINE
  8
DETAIL
  6
CONTINUOUS
 62
     5
 10
-92.787694777700381
 20
-268.44670842099998
 30
0.0
 11
-93.38992196010031
 21
-268.04011787370018
 31
0.0
  0
LINE
  8
DETAIL
  6
CONTINUOUS
 62
     5
 10
-93.38992196010031
 20
-268.04011787370018
 30
0.0
 11
-93.955727510400266
 21
-267.63920188560007
 31
0.0
  0
LINE
  8
DETAIL
  6
CONTINUOUS
 62
     5
 10
-93.955727510400266
 20
-267.63920188560007
 30
0.0
 11
-94.492223974900298
 21
-267.23810688719982
 31
0.0
  0
LINE
  8
DETAIL
  6
CONTINUOUS
 62
     5
 10
-94.492223974900298
 20
-267.23810688719982
 30
0.0
 11
-94.99704050470018
 21
-266.83878406840012
 31
0.0
  0
LINE
  8
DETAIL
  6
CONTINUOUS
 62
     5
 10
-94.997040504500092
 20
-266.83878406840012
 30
0.0
 11
-95.560836648700388
 21
-266.43323824819998
 31
0.0
  0
LINE
  8
DETAIL
  6
CONTINUOUS
 62
     5
 10
-95.560836648700388
 20
-266.43323824819998
 30
0.0
 11
-96.144926221099922
 21
-266.11601961169998
 31
0.0
  0
LINE
  8
DETAIL
  6
CONTINUOUS
 62
     5
 10
-96.144926221099922
 20
-266.11601961169998
 30
0.0
 11
-96.752666458800377
 21
-265.88611897210001
 31
0.0
  0
LINE
  8
DETAIL
  6
CONTINUOUS
 62
     5
 10
-96.752666458800377
 20
-265.88611897210001
 30
0.0
 11
-97.3739856504003
 21
-265.74656388950012
 31
0.0
  0
LINE
  8
DETAIL
  6
CONTINUOUS
 62
     5
 10
-97.3739856504003
 20
-265.74656388950012
 30
0.0
 11
-98.002244324400181
 21
-265.70038192409987
 31
0.0
  0
LINE
  8
DETAIL
  6
CONTINUOUS
 62
     5
 10
-98.002244324400181
 20
-265.70038192409987
 30
0.0
 11
-98.630502998500106
 21
-265.74656388919988
 31
0.0
  0
LINE
  8
DETAIL
  6
CONTINUOUS
 62
     5
 10
-98.630502998500106
 20
-265.74656388919988
 30
0.0
 11
-99.251822190100029
 21
-265.88611897150008
 31
0.0
  0
LINE
  8
DETAIL
  6
CONTINUOUS
 62
     5
 10
-99.251822190100029
 20
-265.88611897150008
 30
0.0
 11
-99.859562427900073
 21
-266.11601961090003
 31
0.0
  0
LINE
  8
DETAIL
  6
CONTINUOUS
 62
     5
 10
-99.859562427900073
 20
-266.11601961090003
 30
0.0
 11
-100.4436520003001
 21
-266.43323824719982
 31
0.0
  0
LINE
  8
DETAIL
  6
CONTINUOUS
 62
     5
 10
-100.4436520003001
 20
-266.43323824719982
 30
0.0
 11
-101.00744814459991
 21
-266.83878406709982
 31
0.0
  0
LINE
  8
DETAIL
  6
CONTINUOUS
 62
     5
 10
-101.0074481462002
 20
-281.56121593170008
 30
0.0
 11
-100.44365200199989
 21
-281.96676175179982
 31
0.0
  0
LINE
  8
DETAIL
  6
CONTINUOUS
 62
     5
 10
-100.44365200199989
 20
-281.96676175179982
 30
0.0
 11
-99.859562429600373
 21
-282.28398038839998
 31
0.0
  0
LINE
  8
DETAIL
  6
CONTINUOUS
 62
     5
 10
-99.859562429600373
 20
-282.28398038839998
 30
0.0
 11
-99.251822191899919
 21
-282.5138810279999
 31
0.0
  0
LINE
  8
DETAIL
  6
CONTINUOUS
 62
     5
 10
-99.251822191899919
 20
-282.5138810279999
 30
0.0
 11
-98.630503000299996
 21
-282.65343611050002
 31
0.0
  0
LINE
  8
DETAIL
  6
CONTINUOUS
 62
     5
 10
-98.630503000299996
 20
-282.65343611050002
 30
0.0
 11
-98.002244326300115
 21
-282.69961807589988
 31
0.0
  0
LINE
  8
DETAIL
  6
CONTINUOUS
 62
     5
 10
-98.002244326300115
 20
-282.69961807589988
 30
0.0
 11
-97.37398565220019
 21
-282.65343611079987
 31
0.0
  0
LINE
  8
DETAIL
  6
CONTINUOUS
 62
     5
 10
-97.37398565220019
 20
-282.65343611079987
 30
0.0
 11
-96.752666460600267
 21
-282.51388102850001
 31
0.0
  0
LINE
  8
DETAIL
  6
CONTINUOUS
 62
     5
 10
-96.752666460600267
 20
-282.51388102850001
 30
0.0
 11
-96.144926222800223
 21
-282.2839803892
 31
0.0
  0
LINE
  8
DETAIL
  6
CONTINUOUS
 62
     5
 10
-96.144926222800223
 20
-282.2839803892
 30
0.0
 11
-95.560836650400233
 21
-281.96676175290008
 31
0.0
  0
LINE
  8
DETAIL
  6
CONTINUOUS
 62
     5
 10
-95.560836650400233
 20
-281.96676175290008
 30
0.0
 11
-94.997040506000303
 21
-281.56121593300008
 31
0.0
  0
LINE
  8
DETAIL
  6
CONTINUOUS
 62
     5
 10
-101.0074481460001
 20
-281.56121593170008
 30
0.0
 11
-100.5021547675001
 21
-281.96089017269992
 31
0.0
  0
LINE
  8
DETAIL
  6
CONTINUOUS
 62
     5
 10
-100.5021547675001
 20
-281.96089017269992
 30
0.0
 11
-99.965401556700272
 21
-282.36216691969992
 31
0.0
  0
LINE
  8
DETAIL
  6
CONTINUOUS
 62
     5
 10
-99.965401556700272
 20
-282.36216691969992
 30
0.0
 11
-99.399586890000137
 21
-282.76306769720009
 31
0.0
  0
LINE
  8
DETAIL
  6
CONTINUOUS
 62
     5
 10
-99.399586890000137
 20
-282.76306769720009
 30
0.0
 11
-98.797515638199911
 21
-283.16952793169997
 31
0.0
  0
LINE
  8
DETAIL
  6
CONTINUOUS
 62
     5
 10
-98.797515638199911
 20
-283.16952793169997
 30
0.0
 11
-98.151992671900189
 21
-283.58748304990002
 31
0.0
  0
LINE
  8
DETAIL
  6
CONTINUOUS
 62
     5
 10
-98.151992671900189
 20
-283.58748304990002
 30
0.0
 11
-97.465416367600028
 21
-284.01495457620001
 31
0.0
  0
LINE
  8
DETAIL
  6
CONTINUOUS
 62
     5
 10
-87.042089217000012
 20
-269.29252271189989
 30
0.0
 11
-93.052496857000278
 21
-264.38504542380002
 31
0.0
  0
LINE
  8
DETAIL
  6
CONTINUOUS
 62
     5
 10
-93.052496857000278
 20
-270.1585481157
 30
0.0
 11
-98.002244325300126
 21
-266.11709623140001
 31
0.0
  0
LINE
  8
DETAIL
  6
CONTINUOUS
 62
     5
 10
-102.24488501250021
 20
-278.24145188439991
 30
0.0
 11
-97.648690934800015
 21
-281.99422863410001
 31
0.0
  0
LINE
  8
DETAIL
  6
CONTINUOUS
 62
     5
 10
-102.9519917937
 20
-278.24145188439991
 30
0.0
 11
-98.002244325300126
 21
-282.28290376870012
 31
0.0
  0
LINE
  8
DETAIL
  6
CONTINUOUS
 62
     5
 10
-94.99704050470018
 20
-266.83878406840012
 30
0.0
 11
-95.470745079900098
 21
-266.43910982739999
 31
0.0
  0
LINE
  8
DETAIL
  6
CONTINUOUS
 62
     5
 10
-95.470745079900098
 20
-266.43910982739999
 30
0.0
 11
-95.916915144799987
 21
-266.03783308039999
 31
0.0
  0
LINE
  8
DETAIL
  6
CONTINUOUS
 62
     5
 10
-95.916915144799987
 20
-266.03783308039999
 30
0.0
 11
-96.333102820500244
 21
-265.63693230289999
 31
0.0
  0
LINE
  8
DETAIL
  6
CONTINUOUS
 62
     5
 10
-96.333102820500244
 20
-265.63693230289999
 30
0.0
 11
-96.726651744200353
 21
-265.23047206829978
 31
0.0
  0
LINE
  8
DETAIL
  6
CONTINUOUS
 62
     5
 10
-96.726651744200353
 20
-265.23047206829978
 30
0.0
 11
-97.104905552900163
 21
-264.81251695010002
 31
0.0
  0
LINE
  8
DETAIL
  6
CONTINUOUS
 62
     5
 10
-97.104905552900163
 20
-264.81251695010002
 30
0.0
 11
-97.465416367600028
 21
-264.38504542380002
 31
0.0
  0
LINE
  8
DETAIL
  6
CONTINUOUS
 62
     5
 10
-103.47582400760029
 20
-279.10747728810009
 30
0.0
 11
-103.11511267580001
 21
-279.53517290299999
 31
0.0
  0
LINE
  8
DETAIL
  6
CONTINUOUS
 62
     5
 10
-103.11511267580001
 20
-279.53517290299999
 30
0.0
 11
-102.7366966280001
 21
-279.95329157900011
 31
0.0
  0
LINE
  8
DETAIL
  6
CONTINUOUS
 62
     5
 10
-102.7366966280001
 20
-279.95329157900011
 30
0.0
 11
-102.34298443520041
 21
-280.35988212640001
 31
0.0
  0
LINE
  8
DETAIL
  6
CONTINUOUS
 62
     5
 10
-102.34298443520041
 20
-280.35988212640001
 30
0.0
 11
-101.9267503850001
 21
-280.76079811450012
 31
0.0
  0
LINE
  8
DETAIL
  6
CONTINUOUS
 62
     5
 10
-101.9267503850001
 20
-280.76079811450012
 30
0.0
 11
-101.48076876499999
 21
-281.16189311290009
 31
0.0
  0
LINE
  8
DETAIL
  6
CONTINUOUS
 62
     5
 10
-101.48076876499999
 20
-281.16189311290009
 30
0.0
 11
-101.0074481460001
 21
-281.56121593170008
 31
0.0
  0
LINE
  8
DETAIL
  6
CONTINUOUS
 62
     5
 10
-91.455008727500172
 20
-359.10747728809997
 30
0.0
 11
-91.579075390700382
 21
-358.46837198909998
 31
0.0
  0
LINE
  8
DETAIL
  6
CONTINUOUS
 62
     5
 10
-91.579075390700382
 20
-358.46837198909998
 30
0.0
 11
-91.68692373490012
 21
-357.84071571250001
 31
0.0
  0
LINE
  8
DETAIL
  6
CONTINUOUS
 62
     5
 10
-91.68692373490012
 20
-357.84071571250001
 30
0.0
 11
-91.778510527799881
 21
-357.22663978029999
 31
0.0
  0
LINE
  8
DETAIL
  6
CONTINUOUS
 62
     5
 10
-91.778510527799881
 20
-357.22663978029999
 30
0.0
 11
-91.853965466400041
 21
-356.61975022649989
 31
0.0
  0
LINE
  8
DETAIL
  6
CONTINUOUS
 62
     5
 10
-91.853965466400041
 20
-356.61975022649989
 30
0.0
 11
-91.913647470099932
 21
-356.01445958910011
 31
0.0
  0
LINE
  8
DETAIL
  6
CONTINUOUS
 62
     5
 10
-91.913647470099932
 20
-356.01445958910011
 30
0.0
 11
-91.956825638199916
 21
-355.41047967769998
 31
0.0
  0
LINE
  8
DETAIL
  6
CONTINUOUS
 62
     5
 10
-91.956825638199916
 20
-355.41047967769998
 30
0.0
 11
-91.982812302399907
 21
-354.80539097999991
 31
0.0
  0
LINE
  8
DETAIL
  6
CONTINUOUS
 62
     5
 10
-91.982812302399907
 20
-354.80539097999991
 30
0.0
 11
-91.991836685300314
 21
-354.19999999999999
 31
0.0
  0
LINE
  8
DETAIL
  6
CONTINUOUS
 62
     5
 10
-271.11788884150019
 20
-352.56032854789999
 30
0.0
 11
-169.44066966720041
 21
-337.1302863592
 31
0.0
  0
LINE
  8
DETAIL
  6
CONTINUOUS
 62
     5
 10
-169.44066966720041
 20
-337.1302863592
 30
0.0
 11
-168.5033828407004
 21
-336.9998362865
 31
0.0
  0
LINE
  8
DETAIL
  6
CONTINUOUS
 62
     5
 10
-168.5033828407004
 20
-336.9998362865
 30
0.0
 11
-167.56195962410041
 21
-336.89250962839992
 31
0.0
  0
LINE
  8
DETAIL
  6
CONTINUOUS
 62
     5
 10
-167.56195962410041
 20
-336.89250962839992
 30
0.0
 11
-166.61599284170009
 21
-336.80854579160001
 31
0.0
  0
LINE
  8
DETAIL
  6
CONTINUOUS
 62
     5
 10
-166.61599284170009
 20
-336.80854579160001
 30
0.0
 11
-165.66690391760039
 21
-336.74832868989972
 31
0.0
  0
LINE
  8
DETAIL
  6
CONTINUOUS
 62
     5
 10
-165.66690391760039
 20
-336.74832868989972
 30
0.0
 11
-164.7161060886001
 21
-336.71210809279989
 31
0.0
  0
LINE
  8
DETAIL
  6
CONTINUOUS
 62
     5
 10
-164.7161060886001
 20
-336.71210809279989
 30
0.0
 11
-163.7631749757002
 21
-336.69999999999982
 31
0.0
  0
LINE
  8
DETAIL
  6
CONTINUOUS
 62
     5
 10
146.12293268049959
 20
-289.75006577459999
 30
0.0
 11
145.1830801647998
 21
-289.87071479619999
 31
0.0
  0
LINE
  8
DETAIL
  6
CONTINUOUS
 62
     5
 10
145.1830801647998
 20
-289.87071479619999
 30
0.0
 11
144.5
 21
-290.02545827649999
 31
0.0
  0
LINE
  8
DETAIL
  6
CONTINUOUS
 62
     5
 10
145.50852999169999
 20
-291.69545652620008
 30
0.0
 11
145.56406998319969
 21
-291.69265760120021
 31
0.0
  0
LINE
  8
DETAIL
  6
CONTINUOUS
 62
     5
 10
145.56406998319969
 20
-291.69265760120021
 30
0.0
 11
145.61961651319959
 21
-291.69013267410008
 31
0.0
  0
LINE
  8
DETAIL
  6
CONTINUOUS
 62
     5
 10
145.61961651319959
 20
-291.69013267410008
 30
0.0
 11
145.73072648179999
 21
-291.68590493329998
 31
0.0
  0
LINE
  8
DETAIL
  6
CONTINUOUS
 62
     5
 10
145.73072648179999
 20
-291.68590493329998
 30
0.0
 11
145.78628856649991
 21
-291.68420217099992
 31
0.0
  0
LINE
  8
DETAIL
  6
CONTINUOUS
 62
     5
 10
145.78628856649991
 20
-291.68420217099992
 30
0.0
 11
145.89742355149971
 21
-291.68161896679999
 31
0.0
  0
LINE
  8
DETAIL
  6
CONTINUOUS
 62
     5
 10
145.89742355149971
 20
-291.68161896679999
 30
0.0
 11
145.9915194340997
 21
-291.68028912909989
 31
0.0
  0
LINE
  8
DETAIL
  6
CONTINUOUS
 62
     5
 10
144.87063813119991
 20
-289.67959279159999
 30
0.0
 11
144.5
 21
-289.69418443159998
 31
0.0
  0
LINE
  8
DETAIL
  6
CONTINUOUS
 62
     5
 10
144.5
 20
-288.49391527799997
 30
0.0
 11
144.87095719999979
 21
-288.47960076790002
 31
0.0
  0
LINE
  8
DETAIL
  6
CONTINUOUS
 62
     5
 10
145.99151942859999
 20
-291.68028912919999
 30
0.0
 11
146.10266847369991
 21
-291.67973083919992
 31
0.0
  0
LINE
  8
DETAIL
  6
CONTINUOUS
 62
     5
 10
146.10266847369991
 20
-291.67973083919992
 30
0.0
 11
146.21381742249969
 21
-291.68026916749989
 31
0.0
  0
LINE
  8
DETAIL
  6
CONTINUOUS
 62
     5
 10
146.21381742249969
 20
-291.68026916749989
 30
0.0
 11
146.32496085779991
 21
-291.68190408779992
 31
0.0
  0
LINE
  8
DETAIL
  6
CONTINUOUS
 62
     5
 10
146.32496085779991
 20
-291.68190408779992
 30
0.0
 11
146.43609336259991
 21
-291.68463552039998
 31
0.0
  0
LINE
  8
DETAIL
  6
CONTINUOUS
 62
     5
 10
146.43609336259991
 20
-291.68463552039998
 30
0.0
 11
146.6027597768998
 21
-291.6907883240001
 31
0.0
  0
LINE
  8
DETAIL
  6
CONTINUOUS
 62
     5
 10
146.6027597768998
 20
-291.6907883240001
 30
0.0
 11
146.72725491899971
 21
-291.6969953757
 31
0.0
  0
LINE
  8
DETAIL
  6
CONTINUOUS
 62
     5
 10
163.76317497569971
 20
-291.69999999999999
 30
0.0
 11
93.052496856999824
 21
-291.69999999999999
 31
0.0
  0
LINE
  8
DETAIL
  6
CONTINUOUS
 62
     5
 10
-163.7631749757002
 20
-291.69999999999982
 30
0.0
 11
-93.052496857000278
 21
-291.69999999999982
 31
0.0
  0
LINE
  8
DETAIL
  6
CONTINUOUS
 62
     5
 10
-93.052496857000278
 20
-291.69999999999982
 30
0.0
 11
-92.337985203300377
 21
-291.72273575679992
 31
0.0
  0
LINE
  8
DETAIL
  6
CONTINUOUS
 62
     5
 10
-92.337985203300377
 20
-291.72273575679992
 30
0.0
 11
-91.62634418530024
 21
-291.79057838509988
 31
0.0
  0
LINE
  8
DETAIL
  6
CONTINUOUS
 62
     5
 10
-91.62634418530024
 20
-291.79057838509988
 30
0.0
 11
-90.916861922300086
 21
-291.90366425879972
 31
0.0
  0
LINE
  8
DETAIL
  6
CONTINUOUS
 62
     5
 10
-90.916861922300086
 20
-291.90366425879972
 30
0.0
 11
-90.21167405640017
 21
-292.06158425659999
 31
0.0
  0
LINE
  8
DETAIL
  6
CONTINUOUS
 62
     5
 10
-90.21167405640017
 20
-292.06158425659999
 30
0.0
 11
-89.512215859000207
 21
-292.26415532639987
 31
0.0
  0
LINE
  8
DETAIL
  6
CONTINUOUS
 62
     5
 10
-89.512215859000207
 20
-292.26415532639987
 30
0.0
 11
-88.819876562300124
 21
-292.51083563439988
 31
0.0
  0
LINE
  8
DETAIL
  6
CONTINUOUS
 62
     5
 10
-88.819876562300124
 20
-292.51083563439988
 30
0.0
 11
-88.136074056700181
 21
-292.80126091730011
 31
0.0
  0
LINE
  8
DETAIL
  6
CONTINUOUS
 62
     5
 10
-88.136074056700181
 20
-292.80126091730011
 30
0.0
 11
-87.462157638000008
 21
-293.13471541060011
 31
0.0
  0
LINE
  8
DETAIL
  6
CONTINUOUS
 62
     5
 10
-87.462157638000008
 20
-293.13471541060011
 30
0.0
 11
-86.799516400000357
 21
-293.51065657299989
 31
0.0
  0
LINE
  8
DETAIL
  6
CONTINUOUS
 62
     5
 10
-86.799516400000357
 20
-293.51065657299989
 30
0.0
 11
-86.149448838100398
 21
-293.92820047219988
 31
0.0
  0
LINE
  8
DETAIL
  6
CONTINUOUS
 62
     5
 10
-86.149448838100398
 20
-293.92820047219988
 30
0.0
 11
-85.513304065299963
 21
-294.38663065679998
 31
0.0
  0
LINE
  8
DETAIL
  6
CONTINUOUS
 62
     5
 10
-85.513304065299963
 20
-294.38663065679998
 30
0.0
 11
-84.892319321900231
 21
-294.88490214400008
 31
0.0
  0
LINE
  8
DETAIL
  6
CONTINUOUS
 62
     5
 10
-84.892319321900231
 20
-294.88490214400008
 30
0.0
 11
-84.287792877900301
 21
-295.42213034050002
 31
0.0
  0
LINE
  8
DETAIL
  6
CONTINUOUS
 62
     5
 10
-84.287792877900301
 20
-295.42213034050002
 30
0.0
 11
-83.700890757000252
 21
-295.9971176265999
 31
0.0
  0
LINE
  8
DETAIL
  6
CONTINUOUS
 62
     5
 10
-83.700890757000252
 20
-295.9971176265999
 30
0.0
 11
-83.132849933400394
 21
-296.60881838950002
 31
0.0
  0
LINE
  8
DETAIL
  6
CONTINUOUS
 62
     5
 10
-83.132849933400394
 20
-296.60881838950002
 30
0.0
 11
-82.584755825900174
 21
-297.25589201489993
 31
0.0
  0
LINE
  8
DETAIL
  6
CONTINUOUS
 62
     5
 10
-82.584755825900174
 20
-297.25589201489993
 30
0.0
 11
-82.057774153200171
 21
-297.93714028940002
 31
0.0
  0
LINE
  8
DETAIL
  6
CONTINUOUS
 62
     5
 10
-82.057774153200171
 20
-297.93714028940002
 30
0.0
 11
-81.552900990600392
 21
-298.65109039779998
 31
0.0
  0
LINE
  8
DETAIL
  6
CONTINUOUS
 62
     5
 10
-81.552900990600392
 20
-298.65109039779998
 30
0.0
 11
-81.071221415500077
 21
-299.39640117319982
 31
0.0
  0
LINE
  8
DETAIL
  6
CONTINUOUS
 62
     5
 10
-81.071221415500077
 20
-299.39640117319982
 30
0.0
 11
-80.613634139600435
 21
-300.1714794582
 31
0.0
  0
LINE
  8
DETAIL
  6
CONTINUOUS
 62
     5
 10
-80.613634139600435
 20
-300.1714794582
 30
0.0
 11
-80.181134862800263
 21
-300.97485193049999
 31
0.0
  0
LINE
  8
DETAIL
  6
CONTINUOUS
 62
     5
 10
-80.181134862800263
 20
-300.97485193049999
 30
0.0
 11
-79.774517697200281
 21
-301.80481791739999
 31
0.0
  0
LINE
  8
DETAIL
  6
CONTINUOUS
 62
     5
 10
-79.774517697200281
 20
-301.80481791739999
 30
0.0
 11
-79.394680948600126
 21
-302.65978380370012
 31
0.0
  0
LINE
  8
DETAIL
  6
CONTINUOUS
 62
     5
 10
-79.394680948600126
 20
-302.65978380370012
 30
0.0
 11
-79.042307735699978
 21
-303.53795509439999
 31
0.0
  0
LINE
  8
DETAIL
  6
CONTINUOUS
 62
     5
 10
-79.042307735699978
 20
-303.53795509439999
 30
0.0
 11
-78.718191737400048
 21
-304.43763071220002
 31
0.0
  0
LINE
  8
DETAIL
  6
CONTINUOUS
 62
     5
 10
-78.718191737400048
 20
-304.43763071220002
 30
0.0
 11
-78.422899579200021
 21
-305.3569367877999
 31
0.0
  0
LINE
  8
DETAIL
  6
CONTINUOUS
 62
     5
 10
-78.422899579200021
 20
-305.3569367877999
 30
0.0
 11
-78.157113922699864
 21
-306.2940784781
 31
0.0
  0
LINE
  8
DETAIL
  6
CONTINUOUS
 62
     5
 10
-78.157113922699864
 20
-306.2940784781
 30
0.0
 11
-77.921280337900043
 21
-307.2471176265999
 31
0.0
  0
LINE
  8
DETAIL
  6
CONTINUOUS
 62
     5
 10
-77.921280337900043
 20
-307.2471176265999
 30
0.0
 11
-77.71596497290011
 21
-308.21418007540001
 31
0.0
  0
LINE
  8
DETAIL
  6
CONTINUOUS
 62
     5
 10
-77.71596497290011
 20
-308.21418007540001
 30
0.0
 11
-77.541488754900001
 21
-309.193278986
 31
0.0
  0
LINE
  8
DETAIL
  6
CONTINUOUS
 62
     5
 10
-77.541488754900001
 20
-309.193278986
 30
0.0
 11
-77.398296760200083
 21
-310.18247597520008
 31
0.0
  0
LINE
  8
DETAIL
  6
CONTINUOUS
 62
     5
 10
-77.398296760200083
 20
-310.18247597520008
 30
0.0
 11
-77.286582688900126
 21
-311.17975151909991
 31
0.0
  0
LINE
  8
DETAIL
  6
CONTINUOUS
 62
     5
 10
-77.286582688900126
 20
-311.17975151909991
 30
0.0
 11
-77.206666962099916
 21
-312.18311861609982
 31
0.0
  0
LINE
  8
DETAIL
  6
CONTINUOUS
 62
     5
 10
-77.206666962099916
 20
-312.18311861609982
 30
0.0
 11
-77.158614493599998
 21
-313.19054131709993
 31
0.0
  0
LINE
  8
DETAIL
  6
CONTINUOUS
 62
     5
 10
-77.158614493599998
 20
-313.19054131709993
 30
0.0
 11
-77.142618469199988
 21
-314.19999999999982
 31
0.0
  0
LINE
  8
DETAIL
  6
CONTINUOUS
 62
     5
 10
-77.142618469199988
 20
-314.19999999999982
 30
0.0
 11
-77.158614493599998
 21
-315.20945868289999
 31
0.0
  0
LINE
  8
DETAIL
  6
CONTINUOUS
 62
     5
 10
-77.158614493599998
 20
-315.20945868289999
 30
0.0
 11
-77.206666962099916
 21
-316.21688138400009
 31
0.0
  0
LINE
  8
DETAIL
  6
CONTINUOUS
 62
     5
 10
-77.206666962099916
 20
-316.21688138400009
 30
0.0
 11
-77.286582688900126
 21
-317.22024848090012
 31
0.0
  0
LINE
  8
DETAIL
  6
CONTINUOUS
 62
     5
 10
-77.286582688900126
 20
-317.22024848090012
 30
0.0
 11
-77.398296760200083
 21
-318.21752402489977
 31
0.0
  0
LINE
  8
DETAIL
  6
CONTINUOUS
 62
     5
 10
-77.398296760200083
 20
-318.21752402489977
 30
0.0
 11
-77.541488754900001
 21
-319.2067210140001
 31
0.0
  0
LINE
  8
DETAIL
  6
CONTINUOUS
 62
     5
 10
-77.541488754900001
 20
-319.2067210140001
 30
0.0
 11
-77.71596497290011
 21
-320.18581992460008
 31
0.0
  0
LINE
  8
DETAIL
  6
CONTINUOUS
 62
     5
 10
-77.71596497290011
 20
-320.18581992460008
 30
0.0
 11
-77.921280337900043
 21
-321.15288237350001
 31
0.0
  0
LINE
  8
DETAIL
  6
CONTINUOUS
 62
     5
 10
-77.921280337900043
 20
-321.15288237350001
 30
0.0
 11
-78.157113922699864
 21
-322.10592152200002
 31
0.0
  0
LINE
  8
DETAIL
  6
CONTINUOUS
 62
     5
 10
-78.157113922699864
 20
-322.10592152200002
 30
0.0
 11
-78.422899579200021
 21
-323.04306321220002
 31
0.0
  0
LINE
  8
DETAIL
  6
CONTINUOUS
 62
     5
 10
-78.422899579200021
 20
-323.04306321220002
 30
0.0
 11
-78.718191737400048
 21
-323.96236928779967
 31
0.0
  0
LINE
  8
DETAIL
  6
CONTINUOUS
 62
     5
 10
-78.718191737400048
 20
-323.96236928779967
 30
0.0
 11
-79.042307735699978
 21
-324.86204490569997
 31
0.0
  0
LINE
  8
DETAIL
  6
CONTINUOUS
 62
     5
 10
-79.042307735699978
 20
-324.86204490569997
 30
0.0
 11
-79.394680948600126
 21
-325.74021619629991
 31
0.0
  0
LINE
  8
DETAIL
  6
CONTINUOUS
 62
     5
 10
-79.394680948600126
 20
-325.74021619629991
 30
0.0
 11
-79.774517697200281
 21
-326.59518208269992
 31
0.0
  0
LINE
  8
DETAIL
  6
CONTINUOUS
 62
     5
 10
-79.774517697200281
 20
-326.59518208269992
 30
0.0
 11
-80.181134862800263
 21
-327.42514806960003
 31
0.0
  0
LINE
  8
DETAIL
  6
CONTINUOUS
 62
     5
 10
-80.181134862800263
 20
-327.42514806960003
 30
0.0
 11
-80.613634139600435
 21
-328.22852054179998
 31
0.0
  0
LINE
  8
DETAIL
  6
CONTINUOUS
 62
     5
 10
-80.613634139600435
 20
-328.22852054179998
 30
0.0
 11
-81.071221415500077
 21
-329.00359882679999
 31
0.0
  0
LINE
  8
DETAIL
  6
CONTINUOUS
 62
     5
 10
-81.071221415500077
 20
-329.00359882679999
 30
0.0
 11
-81.552900990600392
 21
-329.74890960219989
 31
0.0
  0
LINE
  8
DETAIL
  6
CONTINUOUS
 62
     5
 10
-81.552900990600392
 20
-329.74890960219989
 30
0.0
 11
-82.057774153200171
 21
-330.46285971069977
 31
0.0
  0
LINE
  8
DETAIL
  6
CONTINUOUS
 62
     5
 10
-82.057774153200171
 20
-330.46285971069977
 30
0.0
 11
-82.584755825900174
 21
-331.14410798509988
 31
0.0
  0
LINE
  8
DETAIL
  6
CONTINUOUS
 62
     5
 10
-82.584755825900174
 20
-331.14410798509988
 30
0.0
 11
-83.132849933400394
 21
-331.79118161060001
 31
0.0
  0
LINE
  8
DETAIL
  6
CONTINUOUS
 62
     5
 10
-83.132849933400394
 20
-331.79118161060001
 30
0.0
 11
-83.700890757000252
 21
-332.40288237350001
 31
0.0
  0
LINE
  8
DETAIL
  6
CONTINUOUS
 62
     5
 10
-83.700890757000252
 20
-332.40288237350001
 30
0.0
 11
-84.287792877900301
 21
-332.97786965959989
 31
0.0
  0
LINE
  8
DETAIL
  6
CONTINUOUS
 62
     5
 10
-84.287792877900301
 20
-332.97786965959989
 30
0.0
 11
-84.892319321900231
 21
-333.51509785609983
 31
0.0
  0
LINE
  8
DETAIL
  6
CONTINUOUS
 62
     5
 10
-84.892319321900231
 20
-333.51509785609983
 30
0.0
 11
-85.513304065299963
 21
-334.01336934329993
 31
0.0
  0
LINE
  8
DETAIL
  6
CONTINUOUS
 62
     5
 10
-85.513304065299963
 20
-334.01336934329993
 30
0.0
 11
-86.149448838100398
 21
-334.47179952779987
 31
0.0
  0
LINE
  8
DETAIL
  6
CONTINUOUS
 62
     5
 10
-86.149448838100398
 20
-334.47179952779987
 30
0.0
 11
-86.799516400000357
 21
-334.88934342710002
 31
0.0
  0
LINE
  8
DETAIL
  6
CONTINUOUS
 62
     5
 10
-86.799516400000357
 20
-334.88934342710002
 30
0.0
 11
-87.462157638000008
 21
-335.26528458939993
 31
0.0
  0
LINE
  8
DETAIL
  6
CONTINUOUS
 62
     5
 10
-87.462157638000008
 20
-335.26528458939993
 30
0.0
 11
-88.136074056700181
 21
-335.59873908280002
 31
0.0
  0
LINE
  8
DETAIL
  6
CONTINUOUS
 62
     5
 10
-88.136074056700181
 20
-335.59873908280002
 30
0.0
 11
-88.819876562300124
 21
-335.88916436570003
 31
0.0
  0
LINE
  8
DETAIL
  6
CONTINUOUS
 62
     5
 10
-88.819876562300124
 20
-335.88916436570003
 30
0.0
 11
-89.512215859000207
 21
-336.13584467359988
 31
0.0
  0
LINE
  8
DETAIL
  6
CONTINUOUS
 62
     5
 10
-89.512215859000207
 20
-336.13584467359988
 30
0.0
 11
-90.21167405640017
 21
-336.33841574349992
 31
0.0
  0
LINE
  8
DETAIL
  6
CONTINUOUS
 62
     5
 10
-90.21167405640017
 20
-336.33841574349992
 30
0.0
 11
-90.916861922300086
 21
-336.49633574120003
 31
0.0
  0
LINE
  8
DETAIL
  6
CONTINUOUS
 62
     5
 10
-90.916861922300086
 20
-336.49633574120003
 30
0.0
 11
-91.62634418530024
 21
-336.60942161489987
 31
0.0
  0
LINE
  8
DETAIL
  6
CONTINUOUS
 62
     5
 10
-91.62634418530024
 20
-336.60942161489987
 30
0.0
 11
-92.337985203300377
 21
-336.67726424329987
 31
0.0
  0
LINE
  8
DETAIL
  6
CONTINUOUS
 62
     5
 10
-92.337985203300377
 20
-336.67726424329987
 30
0.0
 11
-93.052496857000278
 21
-336.69999999999982
 31
0.0
  0
LINE
  8
DETAIL
  6
CONTINUOUS
 62
     5
 10
169.4406696671999
 20
-337.1302863592
 30
0.0
 11
168.50338284069991
 21
-336.99983628650011
 31
0.0
  0
LINE
  8
DETAIL
  6
CONTINUOUS
 62
     5
 10
168.50338284069991
 20
-336.99983628650011
 30
0.0
 11
167.5619596240999
 21
-336.89250962840009
 31
0.0
  0
LINE
  8
DETAIL
  6
CONTINUOUS
 62
     5
 10
167.5619596240999
 20
-336.89250962840009
 30
0.0
 11
166.61599284159999
 21
-336.80854579160001
 31
0.0
  0
LINE
  8
DETAIL
  6
CONTINUOUS
 62
     5
 10
166.61599284159999
 20
-336.80854579160001
 30
0.0
 11
165.66690391759991
 21
-336.74832868990012
 31
0.0
  0
LINE
  8
DETAIL
  6
CONTINUOUS
 62
     5
 10
165.66690391759991
 20
-336.74832868990012
 30
0.0
 11
164.7161060886001
 21
-336.71210809280001
 31
0.0
  0
LINE
  8
DETAIL
  6
CONTINUOUS
 62
     5
 10
164.7161060886001
 20
-336.71210809280001
 30
0.0
 11
163.76317497569971
 21
-336.69999999999999
 31
0.0
  0
LINE
  8
DETAIL
  6
CONTINUOUS
 62
     5
 10
271.11788884149968
 20
-352.56032854789999
 30
0.0
 11
169.4406696671999
 21
-337.1302863592
 31
0.0
  0
LINE
  8
DETAIL
  6
CONTINUOUS
 62
     5
 10
64.298735697700067
 20
-418.56761637039989
 30
0.0
 11
64.528030870400016
 21
-418.69999999999999
 31
0.0
  0
LINE
  8
DETAIL
  6
CONTINUOUS
 62
     5
 10
64.298728123299952
 20
-418.56781169279998
 30
0.0
 11
64.273349976399913
 21
-418.55272779360013
 31
0.0
  0
LINE
  8
DETAIL
  6
CONTINUOUS
 62
     5
 10
64.273349976399913
 20
-418.55272779360013
 30
0.0
 11
64.112269509799717
 21
-418.43979640269998
 31
0.0
  0
LINE
  8
DETAIL
  6
CONTINUOUS
 62
     5
 10
64.112269509799717
 20
-418.43979640269998
 30
0.0
 11
63.946995305699602
 21
-418.29540357629998
 31
0.0
  0
LINE
  8
DETAIL
  6
CONTINUOUS
 62
     5
 10
63.946995305699602
 20
-418.29540357629998
 30
0.0
 11
63.778222904599723
 21
-418.11944341639992
 31
0.0
  0
LINE
  8
DETAIL
  6
CONTINUOUS
 62
     5
 10
144.5
 20
-338.49012280139999
 30
0.0
 11
147.2465387317998
 21
-338.28632931369998
 31
0.0
  0
LINE
  8
DETAIL
  6
CONTINUOUS
 62
     5
 10
147.43138248170001
 20
-343.27945158739999
 30
0.0
 11
144.5
 21
-343.49696050249992
 31
0.0
  0
LINE
  8
DETAIL
  6
CONTINUOUS
 62
     5
 10
151.31774281729989
 20
-343.28048494640012
 30
0.0
 11
146.93660044219999
 21
-343.6055662112999
 31
0.0
  0
LINE
  8
DETAIL
  6
CONTINUOUS
 62
     5
 10
163.76317497569971
 20
-336.69999999999999
 30
0.0
 11
93.052496856999824
 21
-336.69999999999999
 31
0.0
  0
LINE
  8
DETAIL
  6
CONTINUOUS
 62
     5
 10
-163.7631749757002
 20
-336.69999999999982
 30
0.0
 11
-93.052496857000278
 21
-336.69999999999982
 31
0.0
  0
LINE
  8
DETAIL
  6
CONTINUOUS
 62
     5
 10
-93.052496857000278
 20
-344.38504542380002
 30
0.0
 11
-97.465416367600028
 21
-344.38504542380002
 31
0.0
  0
LINE
  8
DETAIL
  6
CONTINUOUS
 62
     5
 10
93.052496856999824
 20
-344.38504542380002
 30
0.0
 11
97.465416367600028
 21
-344.38504542380002
 31
0.0
  0
LINE
  8
DETAIL
  6
CONTINUOUS
 62
     5
 10
-87.042089217000012
 20
-349.29252271189989
 30
0.0
 11
-91.455008727500172
 21
-349.29252271189989
 31
0.0
  0
LINE
  8
DETAIL
  6
CONTINUOUS
 62
     5
 10
87.042089216899967
 20
-349.29252271189989
 30
0.0
 11
91.455008727499717
 21
-349.29252271189989
 31
0.0
  0
LINE
  8
DETAIL
  6
CONTINUOUS
 62
     5
 10
102.9519917936
 20
-350.15854811570011
 30
0.0
 11
102.24488501249969
 21
-350.15854811570011
 31
0.0
  0
LINE
  8
DETAIL
  6
CONTINUOUS
 62
     5
 10
-102.9519917937
 20
-350.15854811570011
 30
0.0
 11
-102.24488501250021
 21
-350.15854811570011
 31
0.0
  0
LINE
  8
DETAIL
  6
CONTINUOUS
 62
     5
 10
102.9519917936
 20
-358.24145188440002
 30
0.0
 11
102.24488501249969
 21
-358.24145188440002
 31
0.0
  0
LINE
  8
DETAIL
  6
CONTINUOUS
 62
     5
 10
-102.9519917937
 20
-358.24145188440002
 30
0.0
 11
-102.24488501250021
 21
-358.24145188440002
 31
0.0
  0
LINE
  8
DETAIL
  6
CONTINUOUS
 62
     5
 10
-87.042089217000012
 20
-359.10747728809997
 30
0.0
 11
-91.455008727500172
 21
-359.10747728809997
 31
0.0
  0
LINE
  8
DETAIL
  6
CONTINUOUS
 62
     5
 10
87.042089216899967
 20
-359.10747728809997
 30
0.0
 11
91.455008727499717
 21
-359.10747728809997
 31
0.0
  0
LINE
  8
DETAIL
  6
CONTINUOUS
 62
     5
 10
-93.052496857000278
 20
-364.01495457620001
 30
0.0
 11
-97.465416367600028
 21
-364.01495457620001
 31
0.0
  0
LINE
  8
DETAIL
  6
CONTINUOUS
 62
     5
 10
93.052496856999824
 20
-364.01495457620001
 30
0.0
 11
97.465416367600028
 21
-364.01495457620001
 31
0.0
  0
LINE
  8
DETAIL
  6
CONTINUOUS
 62
     5
 10
147.2465387317998
 20
-338.28632931369998
 30
0.0
 11
147.95314970189969
 21
-338.28651719710001
 31
0.0
  0
LINE
  8
DETAIL
  6
CONTINUOUS
 62
     5
 10
147.9978546702996
 20
-339.49411752690003
 30
0.0
 11
150.39722251719971
 21
-339.49475550390002
 31
0.0
  0
LINE
  8
DETAIL
  6
CONTINUOUS
 62
     5
 10
148.07229634150011
 20
-341.50498544719989
 30
0.0
 11
150.54543473690001
 21
-341.50564303930008
 31
0.0
  0
LINE
  8
DETAIL
  6
CONTINUOUS
 62
     5
 10
147.43138248170001
 20
-343.27945158739999
 30
0.0
 11
151.31774281729989
 21
-343.28048494640012
 31
0.0
  0
LINE
  8
DETAIL
  6
CONTINUOUS
 62
     5
 10
144.5
 20
-343.60491833440011
 30
0.0
 11
146.93660044219999
 21
-343.6055662112999
 31
0.0
  0
LINE
  8
DETAIL
  6
CONTINUOUS
 62
     5
 10
93.052496856999824
 20
-336.69999999999999
 30
0.0
 11
92.337985203299922
 21
-336.67726424329987
 31
0.0
  0
LINE
  8
DETAIL
  6
CONTINUOUS
 62
     5
 10
92.337985203299922
 20
-336.67726424329987
 30
0.0
 11
91.626344185299786
 21
-336.60942161489999
 31
0.0
  0
LINE
  8
DETAIL
  6
CONTINUOUS
 62
     5
 10
91.626344185299786
 20
-336.60942161489999
 30
0.0
 11
90.916861922300086
 21
-336.49633574120003
 31
0.0
  0
LINE
  8
DETAIL
  6
CONTINUOUS
 62
     5
 10
90.916861922300086
 20
-336.49633574120003
 30
0.0
 11
90.211674056399715
 21
-336.33841574349998
 31
0.0
  0
LINE
  8
DETAIL
  6
CONTINUOUS
 62
     5
 10
90.211674056399715
 20
-336.33841574349998
 30
0.0
 11
89.512215858999753
 21
-336.13584467359988
 31
0.0
  0
LINE
  8
DETAIL
  6
CONTINUOUS
 62
     5
 10
89.512215858999753
 20
-336.13584467359988
 30
0.0
 11
88.819876562299669
 21
-335.88916436570003
 31
0.0
  0
LINE
  8
DETAIL
  6
CONTINUOUS
 62
     5
 10
88.819876562299669
 20
-335.88916436570003
 30
0.0
 11
88.136074056699726
 21
-335.59873908280002
 31
0.0
  0
LINE
  8
DETAIL
  6
CONTINUOUS
 62
     5
 10
88.136074056699726
 20
-335.59873908280002
 30
0.0
 11
87.462157638000008
 21
-335.26528458939993
 31
0.0
  0
LINE
  8
DETAIL
  6
CONTINUOUS
 62
     5
 10
87.462157638000008
 20
-335.26528458939993
 30
0.0
 11
86.799516399999902
 21
-334.88934342710007
 31
0.0
  0
LINE
  8
DETAIL
  6
CONTINUOUS
 62
     5
 10
86.799516399999902
 20
-334.88934342710007
 30
0.0
 11
86.149448838099943
 21
-334.47179952779987
 31
0.0
  0
LINE
  8
DETAIL
  6
CONTINUOUS
 62
     5
 10
86.149448838099943
 20
-334.47179952779987
 30
0.0
 11
85.513304065299963
 21
-334.01336934329998
 31
0.0
  0
LINE
  8
DETAIL
  6
CONTINUOUS
 62
     5
 10
85.513304065299963
 20
-334.01336934329998
 30
0.0
 11
84.892319321799732
 21
-333.51509785610011
 31
0.0
  0
LINE
  8
DETAIL
  6
CONTINUOUS
 62
     5
 10
84.892319321799732
 20
-333.51509785610011
 30
0.0
 11
84.287792877899847
 21
-332.97786965959989
 31
0.0
  0
LINE
  8
DETAIL
  6
CONTINUOUS
 62
     5
 10
84.287792877899847
 20
-332.97786965959989
 30
0.0
 11
83.700890756999797
 21
-332.40288237350001
 31
0.0
  0
LINE
  8
DETAIL
  6
CONTINUOUS
 62
     5
 10
83.700890756999797
 20
-332.40288237350001
 30
0.0
 11
83.132849933399939
 21
-331.79118161060001
 31
0.0
  0
LINE
  8
DETAIL
  6
CONTINUOUS
 62
     5
 10
83.132849933399939
 20
-331.79118161060001
 30
0.0
 11
82.58475582589972
 21
-331.14410798509988
 31
0.0
  0
LINE
  8
DETAIL
  6
CONTINUOUS
 62
     5
 10
82.58475582589972
 20
-331.14410798509988
 30
0.0
 11
82.057774153199716
 21
-330.46285971070012
 31
0.0
  0
LINE
  8
DETAIL
  6
CONTINUOUS
 62
     5
 10
82.057774153199716
 20
-330.46285971070012
 30
0.0
 11
81.552900990599937
 21
-329.74890960219989
 31
0.0
  0
LINE
  8
DETAIL
  6
CONTINUOUS
 62
     5
 10
81.552900990599937
 20
-329.74890960219989
 30
0.0
 11
81.071221415500077
 21
-329.00359882679999
 31
0.0
  0
LINE
  8
DETAIL
  6
CONTINUOUS
 62
     5
 10
81.071221415500077
 20
-329.00359882679999
 30
0.0
 11
80.613634139599981
 21
-328.22852054179998
 31
0.0
  0
LINE
  8
DETAIL
  6
CONTINUOUS
 62
     5
 10
80.613634139599981
 20
-328.22852054179998
 30
0.0
 11
80.181134862799809
 21
-327.42514806960003
 31
0.0
  0
LINE
  8
DETAIL
  6
CONTINUOUS
 62
     5
 10
80.181134862799809
 20
-327.42514806960003
 30
0.0
 11
79.774517697199826
 21
-326.59518208269992
 31
0.0
  0
LINE
  8
DETAIL
  6
CONTINUOUS
 62
     5
 10
79.774517697199826
 20
-326.59518208269992
 30
0.0
 11
79.394680948599671
 21
-325.74021619630003
 31
0.0
  0
LINE
  8
DETAIL
  6
CONTINUOUS
 62
     5
 10
79.394680948599671
 20
-325.74021619630003
 30
0.0
 11
79.042307735699978
 21
-324.86204490569997
 31
0.0
  0
LINE
  8
DETAIL
  6
CONTINUOUS
 62
     5
 10
79.042307735699978
 20
-324.86204490569997
 30
0.0
 11
78.718191737400048
 21
-323.96236928780002
 31
0.0
  0
LINE
  8
DETAIL
  6
CONTINUOUS
 62
     5
 10
78.718191737400048
 20
-323.96236928780002
 30
0.0
 11
78.422899579200021
 21
-323.04306321220002
 31
0.0
  0
LINE
  8
DETAIL
  6
CONTINUOUS
 62
     5
 10
78.422899579200021
 20
-323.04306321220002
 30
0.0
 11
78.157113922699864
 21
-322.10592152200002
 31
0.0
  0
LINE
  8
DETAIL
  6
CONTINUOUS
 62
     5
 10
78.157113922699864
 20
-322.10592152200002
 30
0.0
 11
77.921280337799999
 21
-321.15288237350001
 31
0.0
  0
LINE
  8
DETAIL
  6
CONTINUOUS
 62
     5
 10
77.921280337799999
 20
-321.15288237350001
 30
0.0
 11
77.71596497290011
 21
-320.18581992460008
 31
0.0
  0
LINE
  8
DETAIL
  6
CONTINUOUS
 62
     5
 10
77.71596497290011
 20
-320.18581992460008
 30
0.0
 11
77.541488754900001
 21
-319.2067210140001
 31
0.0
  0
LINE
  8
DETAIL
  6
CONTINUOUS
 62
     5
 10
77.541488754900001
 20
-319.2067210140001
 30
0.0
 11
77.398296760199628
 21
-318.21752402490011
 31
0.0
  0
LINE
  8
DETAIL
  6
CONTINUOUS
 62
     5
 10
77.398296760199628
 20
-318.21752402490011
 30
0.0
 11
77.286582688899671
 21
-317.22024848090012
 31
0.0
  0
LINE
  8
DETAIL
  6
CONTINUOUS
 62
     5
 10
77.286582688899671
 20
-317.22024848090012
 30
0.0
 11
77.206666962099916
 21
-316.21688138400009
 31
0.0
  0
LINE
  8
DETAIL
  6
CONTINUOUS
 62
     5
 10
77.206666962099916
 20
-316.21688138400009
 30
0.0
 11
77.158614493599998
 21
-315.20945868289999
 31
0.0
  0
LINE
  8
DETAIL
  6
CONTINUOUS
 62
     5
 10
77.158614493599998
 20
-315.20945868289999
 30
0.0
 11
77.142618469099943
 21
-314.19999999999999
 31
0.0
  0
LINE
  8
DETAIL
  6
CONTINUOUS
 62
     5
 10
77.142618469099943
 20
-314.19999999999999
 30
0.0
 11
77.158614493599998
 21
-313.19054131709999
 31
0.0
  0
LINE
  8
DETAIL
  6
CONTINUOUS
 62
     5
 10
77.158614493599998
 20
-313.19054131709999
 30
0.0
 11
77.206666962099916
 21
-312.18311861609999
 31
0.0
  0
LINE
  8
DETAIL
  6
CONTINUOUS
 62
     5
 10
77.206666962099916
 20
-312.18311861609999
 30
0.0
 11
77.286582688899671
 21
-311.17975151910002
 31
0.0
  0
LINE
  8
DETAIL
  6
CONTINUOUS
 62
     5
 10
77.286582688899671
 20
-311.17975151910002
 30
0.0
 11
77.398296760199628
 21
-310.18247597520008
 31
0.0
  0
LINE
  8
DETAIL
  6
CONTINUOUS
 62
     5
 10
77.398296760199628
 20
-310.18247597520008
 30
0.0
 11
77.541488754900001
 21
-309.193278986
 31
0.0
  0
LINE
  8
DETAIL
  6
CONTINUOUS
 62
     5
 10
77.541488754900001
 20
-309.193278986
 30
0.0
 11
77.71596497290011
 21
-308.21418007540001
 31
0.0
  0
LINE
  8
DETAIL
  6
CONTINUOUS
 62
     5
 10
77.71596497290011
 20
-308.21418007540001
 30
0.0
 11
77.921280337799999
 21
-307.24711762660002
 31
0.0
  0
LINE
  8
DETAIL
  6
CONTINUOUS
 62
     5
 10
77.921280337799999
 20
-307.24711762660002
 30
0.0
 11
78.157113922699864
 21
-306.29407847810012
 31
0.0
  0
LINE
  8
DETAIL
  6
CONTINUOUS
 62
     5
 10
78.157113922699864
 20
-306.29407847810012
 30
0.0
 11
78.422899579200021
 21
-305.35693678780001
 31
0.0
  0
LINE
  8
DETAIL
  6
CONTINUOUS
 62
     5
 10
78.422899579200021
 20
-305.35693678780001
 30
0.0
 11
78.718191737400048
 21
-304.43763071220002
 31
0.0
  0
LINE
  8
DETAIL
  6
CONTINUOUS
 62
     5
 10
78.718191737400048
 20
-304.43763071220002
 30
0.0
 11
79.042307735699978
 21
-303.53795509439999
 31
0.0
  0
LINE
  8
DETAIL
  6
CONTINUOUS
 62
     5
 10
79.042307735699978
 20
-303.53795509439999
 30
0.0
 11
79.394680948599671
 21
-302.65978380370012
 31
0.0
  0
LINE
  8
DETAIL
  6
CONTINUOUS
 62
     5
 10
79.394680948599671
 20
-302.65978380370012
 30
0.0
 11
79.774517697199826
 21
-301.80481791739999
 31
0.0
  0
LINE
  8
DETAIL
  6
CONTINUOUS
 62
     5
 10
79.774517697199826
 20
-301.80481791739999
 30
0.0
 11
80.181134862799809
 21
-300.97485193050011
 31
0.0
  0
LINE
  8
DETAIL
  6
CONTINUOUS
 62
     5
 10
80.181134862799809
 20
-300.97485193050011
 30
0.0
 11
80.613634139599981
 21
-300.17147945820011
 31
0.0
  0
LINE
  8
DETAIL
  6
CONTINUOUS
 62
     5
 10
80.613634139599981
 20
-300.17147945820011
 30
0.0
 11
81.071221415500077
 21
-299.39640117319999
 31
0.0
  0
LINE
  8
DETAIL
  6
CONTINUOUS
 62
     5
 10
81.071221415500077
 20
-299.39640117319999
 30
0.0
 11
81.552900990599937
 21
-298.65109039779998
 31
0.0
  0
LINE
  8
DETAIL
  6
CONTINUOUS
 62
     5
 10
81.552900990599937
 20
-298.65109039779998
 30
0.0
 11
82.057774153199716
 21
-297.93714028940002
 31
0.0
  0
LINE
  8
DETAIL
  6
CONTINUOUS
 62
     5
 10
82.057774153199716
 20
-297.93714028940002
 30
0.0
 11
82.58475582589972
 21
-297.25589201489998
 31
0.0
  0
LINE
  8
DETAIL
  6
CONTINUOUS
 62
     5
 10
82.58475582589972
 20
-297.25589201489998
 30
0.0
 11
83.132849933399939
 21
-296.60881838950007
 31
0.0
  0
LINE
  8
DETAIL
  6
CONTINUOUS
 62
     5
 10
83.132849933399939
 20
-296.60881838950007
 30
0.0
 11
83.700890756999797
 21
-295.99711762660002
 31
0.0
  0
LINE
  8
DETAIL
  6
CONTINUOUS
 62
     5
 10
83.700890756999797
 20
-295.99711762660002
 30
0.0
 11
84.287792877899847
 21
-295.42213034050002
 31
0.0
  0
LINE
  8
DETAIL
  6
CONTINUOUS
 62
     5
 10
84.287792877899847
 20
-295.42213034050002
 30
0.0
 11
84.892319321799732
 21
-294.88490214400008
 31
0.0
  0
LINE
  8
DETAIL
  6
CONTINUOUS
 62
     5
 10
84.892319321799732
 20
-294.88490214400008
 30
0.0
 11
85.513304065299963
 21
-294.38663065679998
 31
0.0
  0
LINE
  8
DETAIL
  6
CONTINUOUS
 62
     5
 10
85.513304065299963
 20
-294.38663065679998
 30
0.0
 11
86.149448838099943
 21
-293.92820047219988
 31
0.0
  0
LINE
  8
DETAIL
  6
CONTINUOUS
 62
     5
 10
86.149448838099943
 20
-293.92820047219988
 30
0.0
 11
86.799516399999902
 21
-293.51065657299989
 31
0.0
  0
LINE
  8
DETAIL
  6
CONTINUOUS
 62
     5
 10
86.799516399999902
 20
-293.51065657299989
 30
0.0
 11
87.462157638000008
 21
-293.13471541060011
 31
0.0
  0
LINE
  8
DETAIL
  6
CONTINUOUS
 62
     5
 10
87.462157638000008
 20
-293.13471541060011
 30
0.0
 11
88.136074056699726
 21
-292.80126091730011
 31
0.0
  0
LINE
  8
DETAIL
  6
CONTINUOUS
 62
     5
 10
88.136074056699726
 20
-292.80126091730011
 30
0.0
 11
88.819876562299669
 21
-292.51083563439988
 31
0.0
  0
LINE
  8
DETAIL
  6
CONTINUOUS
 62
     5
 10
88.819876562299669
 20
-292.51083563439988
 30
0.0
 11
89.512215858999753
 21
-292.26415532639987
 31
0.0
  0
LINE
  8
DETAIL
  6
CONTINUOUS
 62
     5
 10
89.512215858999753
 20
-292.26415532639987
 30
0.0
 11
90.211674056399715
 21
-292.06158425659999
 31
0.0
  0
LINE
  8
DETAIL
  6
CONTINUOUS
 62
     5
 10
90.211674056399715
 20
-292.06158425659999
 30
0.0
 11
90.916861922300086
 21
-291.90366425880012
 31
0.0
  0
LINE
  8
DETAIL
  6
CONTINUOUS
 62
     5
 10
90.916861922300086
 20
-291.90366425880012
 30
0.0
 11
91.626344185299786
 21
-291.79057838510028
 31
0.0
  0
LINE
  8
DETAIL
  6
CONTINUOUS
 62
     5
 10
91.626344185299786
 20
-291.79057838510028
 30
0.0
 11
92.337985203299922
 21
-291.72273575680009
 31
0.0
  0
LINE
  8
DETAIL
  6
CONTINUOUS
 62
     5
 10
92.337985203299922
 20
-291.72273575680009
 30
0.0
 11
93.052496856999824
 21
-291.69999999999999
 31
0.0
  0
LINE
  8
DETAIL
  6
CONTINUOUS
 62
     5
 10
-91.455008727500172
 20
-349.29252271189989
 30
0.0
 11
-92.141933417300152
 21
-348.86482709699999
 31
0.0
  0
LINE
  8
DETAIL
  6
CONTINUOUS
 62
     5
 10
-92.141933417300152
 20
-348.86482709699999
 30
0.0
 11
-92.787694777700381
 21
-348.44670842099998
 31
0.0
  0
LINE
  8
DETAIL
  6
CONTINUOUS
 62
     5
 10
-92.787694777700381
 20
-348.44670842099998
 30
0.0
 11
-93.38992196010031
 21
-348.04011787370018
 31
0.0
  0
LINE
  8
DETAIL
  6
CONTINUOUS
 62
     5
 10
-93.38992196010031
 20
-348.04011787370018
 30
0.0
 11
-93.955727510400266
 21
-347.63920188560007
 31
0.0
  0
LINE
  8
DETAIL
  6
CONTINUOUS
 62
     5
 10
-93.955727510400266
 20
-347.63920188560007
 30
0.0
 11
-94.492223974900298
 21
-347.23810688719999
 31
0.0
  0
LINE
  8
DETAIL
  6
CONTINUOUS
 62
     5
 10
-94.492223974900298
 20
-347.23810688719999
 30
0.0
 11
-94.99704050470018
 21
-346.83878406840012
 31
0.0
  0
LINE
  8
DETAIL
  6
CONTINUOUS
 62
     5
 10
-94.997040504500092
 20
-346.83878406840012
 30
0.0
 11
-95.560836648700388
 21
-346.43323824819998
 31
0.0
  0
LINE
  8
DETAIL
  6
CONTINUOUS
 62
     5
 10
-95.560836648700388
 20
-346.43323824819998
 30
0.0
 11
-96.144926221099922
 21
-346.11601961170032
 31
0.0
  0
LINE
  8
DETAIL
  6
CONTINUOUS
 62
     5
 10
-96.144926221099922
 20
-346.11601961170032
 30
0.0
 11
-96.752666458800377
 21
-345.88611897210012
 31
0.0
  0
LINE
  8
DETAIL
  6
CONTINUOUS
 62
     5
 10
-96.752666458800377
 20
-345.88611897210012
 30
0.0
 11
-97.3739856504003
 21
-345.74656388950012
 31
0.0
  0
LINE
  8
DETAIL
  6
CONTINUOUS
 62
     5
 10
-97.3739856504003
 20
-345.74656388950012
 30
0.0
 11
-98.002244324400181
 21
-345.70038192409999
 31
0.0
  0
LINE
  8
DETAIL
  6
CONTINUOUS
 62
     5
 10
-98.002244324400181
 20
-345.70038192409999
 30
0.0
 11
-98.630502998500106
 21
-345.74656388920027
 31
0.0
  0
LINE
  8
DETAIL
  6
CONTINUOUS
 62
     5
 10
-98.630502998500106
 20
-345.74656388920027
 30
0.0
 11
-99.251822190100029
 21
-345.88611897150008
 31
0.0
  0
LINE
  8
DETAIL
  6
CONTINUOUS
 62
     5
 10
-99.251822190100029
 20
-345.88611897150008
 30
0.0
 11
-99.859562427900073
 21
-346.11601961090003
 31
0.0
  0
LINE
  8
DETAIL
  6
CONTINUOUS
 62
     5
 10
-99.859562427900073
 20
-346.11601961090003
 30
0.0
 11
-100.4436520003001
 21
-346.43323824720011
 31
0.0
  0
LINE
  8
DETAIL
  6
CONTINUOUS
 62
     5
 10
-100.4436520003001
 20
-346.43323824720011
 30
0.0
 11
-101.00744814459991
 21
-346.83878406710011
 31
0.0
  0
LINE
  8
DETAIL
  6
CONTINUOUS
 62
     5
 10
-101.0074481462002
 20
-361.56121593170008
 30
0.0
 11
-100.44365200199989
 21
-361.96676175179999
 31
0.0
  0
LINE
  8
DETAIL
  6
CONTINUOUS
 62
     5
 10
-100.44365200199989
 20
-361.96676175179999
 30
0.0
 11
-99.859562429600373
 21
-362.28398038839998
 31
0.0
  0
LINE
  8
DETAIL
  6
CONTINUOUS
 62
     5
 10
-99.859562429600373
 20
-362.28398038839998
 30
0.0
 11
-99.251822191899919
 21
-362.51388102800001
 31
0.0
  0
LINE
  8
DETAIL
  6
CONTINUOUS
 62
     5
 10
-99.251822191899919
 20
-362.51388102800001
 30
0.0
 11
-98.630503000299996
 21
-362.65343611050002
 31
0.0
  0
LINE
  8
DETAIL
  6
CONTINUOUS
 62
     5
 10
-98.630503000299996
 20
-362.65343611050002
 30
0.0
 11
-98.002244326300115
 21
-362.69961807590022
 31
0.0
  0
LINE
  8
DETAIL
  6
CONTINUOUS
 62
     5
 10
-98.002244326300115
 20
-362.69961807590022
 30
0.0
 11
-97.37398565220019
 21
-362.65343611079999
 31
0.0
  0
LINE
  8
DETAIL
  6
CONTINUOUS
 62
     5
 10
-97.37398565220019
 20
-362.65343611079999
 30
0.0
 11
-96.752666460600267
 21
-362.51388102850001
 31
0.0
  0
LINE
  8
DETAIL
  6
CONTINUOUS
 62
     5
 10
-96.752666460600267
 20
-362.51388102850001
 30
0.0
 11
-96.144926222800223
 21
-362.2839803892
 31
0.0
  0
LINE
  8
DETAIL
  6
CONTINUOUS
 62
     5
 10
-96.144926222800223
 20
-362.2839803892
 30
0.0
 11
-95.560836650400233
 21
-361.96676175290008
 31
0.0
  0
LINE
  8
DETAIL
  6
CONTINUOUS
 62
     5
 10
-95.560836650400233
 20
-361.96676175290008
 30
0.0
 11
-94.997040506000303
 21
-361.56121593300008
 31
0.0
  0
LINE
  8
DETAIL
  6
CONTINUOUS
 62
     5
 10
-101.0074481460001
 20
-361.56121593170008
 30
0.0
 11
-100.5021547675001
 21
-361.96089017269992
 31
0.0
  0
LINE
  8
DETAIL
  6
CONTINUOUS
 62
     5
 10
-100.5021547675001
 20
-361.96089017269992
 30
0.0
 11
-99.965401556700272
 21
-362.36216691969997
 31
0.0
  0
LINE
  8
DETAIL
  6
CONTINUOUS
 62
     5
 10
-99.965401556700272
 20
-362.36216691969997
 30
0.0
 11
-99.399586890000137
 21
-362.76306769720009
 31
0.0
  0
LINE
  8
DETAIL
  6
CONTINUOUS
 62
     5
 10
-99.399586890000137
 20
-362.76306769720009
 30
0.0
 11
-98.797515638199911
 21
-363.16952793169997
 31
0.0
  0
LINE
  8
DETAIL
  6
CONTINUOUS
 62
     5
 10
-98.797515638199911
 20
-363.16952793169997
 30
0.0
 11
-98.151992671900189
 21
-363.58748304990007
 31
0.0
  0
LINE
  8
DETAIL
  6
CONTINUOUS
 62
     5
 10
-98.151992671900189
 20
-363.58748304990007
 30
0.0
 11
-97.465416367600028
 21
-364.01495457620001
 31
0.0
  0
LINE
  8
DETAIL
  6
CONTINUOUS
 62
     5
 10
-87.042089217000012
 20
-349.29252271189989
 30
0.0
 11
-93.052496857000278
 21
-344.38504542380002
 31
0.0
  0
LINE
  8
DETAIL
  6
CONTINUOUS
 62
     5
 10
-93.052496857000278
 20
-350.15854811570011
 30
0.0
 11
-98.002244325300126
 21
-346.11709623140001
 31
0.0
  0
LINE
  8
DETAIL
  6
CONTINUOUS
 62
     5
 10
-102.24488501250021
 20
-358.24145188440002
 30
0.0
 11
-97.648690934800015
 21
-361.99422863410001
 31
0.0
  0
LINE
  8
DETAIL
  6
CONTINUOUS
 62
     5
 10
-102.9519917937
 20
-358.24145188440002
 30
0.0
 11
-98.002244325300126
 21
-362.28290376870001
 31
0.0
  0
LINE
  8
DETAIL
  6
CONTINUOUS
 62
     5
 10
-94.99704050470018
 20
-346.83878406840012
 30
0.0
 11
-95.470745079900098
 21
-346.43910982739999
 31
0.0
  0
LINE
  8
DETAIL
  6
CONTINUOUS
 62
     5
 10
-95.470745079900098
 20
-346.43910982739999
 30
0.0
 11
-95.916915144799987
 21
-346.03783308039999
 31
0.0
  0
LINE
  8
DETAIL
  6
CONTINUOUS
 62
     5
 10
-95.916915144799987
 20
-346.03783308039999
 30
0.0
 11
-96.333102820500244
 21
-345.63693230289999
 31
0.0
  0
LINE
  8
DETAIL
  6
CONTINUOUS
 62
     5
 10
-96.333102820500244
 20
-345.63693230289999
 30
0.0
 11
-96.726651744200353
 21
-345.23047206829978
 31
0.0
  0
LINE
  8
DETAIL
  6
CONTINUOUS
 62
     5
 10
-96.726651744200353
 20
-345.23047206829978
 30
0.0
 11
-97.104905552900163
 21
-344.81251695010002
 31
0.0
  0
LINE
  8
DETAIL
  6
CONTINUOUS
 62
     5
 10
-97.104905552900163
 20
-344.81251695010002
 30
0.0
 11
-97.465416367600028
 21
-344.38504542380002
 31
0.0
  0
LINE
  8
DETAIL
  6
CONTINUOUS
 62
     5
 10
-103.47582400760029
 20
-359.10747728809997
 30
0.0
 11
-103.11511267580001
 21
-359.5351729030001
 31
0.0
  0
LINE
  8
DETAIL
  6
CONTINUOUS
 62
     5
 10
-103.11511267580001
 20
-359.5351729030001
 30
0.0
 11
-102.7366966280001
 21
-359.95329157900011
 31
0.0
  0
LINE
  8
DETAIL
  6
CONTINUOUS
 62
     5
 10
-102.7366966280001
 20
-359.95329157900011
 30
0.0
 11
-102.34298443520041
 21
-360.35988212640001
 31
0.0
  0
LINE
  8
DETAIL
  6
CONTINUOUS
 62
     5
 10
-102.34298443520041
 20
-360.35988212640001
 30
0.0
 11
-101.9267503850001
 21
-360.76079811450012
 31
0.0
  0
LINE
  8
DETAIL
  6
CONTINUOUS
 62
     5
 10
-101.9267503850001
 20
-360.76079811450012
 30
0.0
 11
-101.48076876499999
 21
-361.16189311290009
 31
0.0
  0
LINE
  8
DETAIL
  6
CONTINUOUS
 62
     5
 10
-101.48076876499999
 20
-361.16189311290009
 30
0.0
 11
-101.0074481460001
 21
-361.56121593170008
 31
0.0
  0
LINE
  8
DETAIL
  6
CONTINUOUS
 62
     5
 10
-82.70533077500022
 20
-418.11944341639992
 30
0.0
 11
-83.335642672000176
 21
-418.29550770659989
 31
0.0
  0
LINE
  8
DETAIL
  6
CONTINUOUS
 62
     5
 10
-83.335642672000176
 20
-418.29550770659989
 30
0.0
 11
-83.952734440800214
 21
-418.43994983450011
 31
0.0
  0
LINE
  8
DETAIL
  6
CONTINUOUS
 62
     5
 10
-83.952734440800214
 20
-418.43994983450011
 30
0.0
 11
-84.554022673400141
 21
-418.5528633455001
 31
0.0
  0
LINE
  8
DETAIL
  6
CONTINUOUS
 62
     5
 10
-84.554022673400141
 20
-418.5528633455001
 30
0.0
 11
-85.147257593200266
 21
-418.63396760370011
 31
0.0
  0
LINE
  8
DETAIL
  6
CONTINUOUS
 62
     5
 10
-85.147257593200266
 20
-418.63396760370011
 30
0.0
 11
-85.740189423599986
 21
-418.68298197349998
 31
0.0
  0
LINE
  8
DETAIL
  6
CONTINUOUS
 62
     5
 10
-85.740189423599986
 20
-418.68298197349998
 30
0.0
 11
-86.33023475680011
 21
-418.69999999999999
 31
0.0
  0
LINE
  8
DETAIL
  6
CONTINUOUS
 62
     5
 10
116.0334672455997
 20
-374.19999999999999
 30
0.0
 11
63.707565437799992
 21
-374.19999999999999
 31
0.0
  0
LINE
  8
DETAIL
  6
CONTINUOUS
 62
     5
 10
-116.03346724559989
 20
-374.19999999999999
 30
0.0
 11
-63.70756543780044
 21
-374.19999999999999
 31
0.0
  0
LINE
  8
DETAIL
  6
CONTINUOUS
 62
     5
 10
-144.5
 20
-403.19999999999987
 30
0.0
 11
144.5
 21
-403.19999999999999
 31
0.0
  0
LINE
  8
DETAIL
  6
CONTINUOUS
 62
     5
 10
64.749512999799663
 20
-418.69999999999999
 30
0.0
 11
64.591276181199646
 21
-418.68293549060007
 31
0.0
  0
LINE
  8
DETAIL
  6
CONTINUOUS
 62
     5
 10
64.591276181199646
 20
-418.68293549060007
 30
0.0
 11
64.432323326599999
 21
-418.63388005450003
 31
0.0
  0
LINE
  8
DETAIL
  6
CONTINUOUS
 62
     5
 10
64.432323326599999
 20
-418.63388005450003
 30
0.0
 11
64.298728123299952
 21
-418.56781169279998
 31
0.0
  0
LINE
  8
DETAIL
  6
CONTINUOUS
 62
     5
 10
-91.377206137300163
 20
-418.56761637039989
 30
0.0
 11
-91.147910964700259
 21
-418.69999999999999
 31
0.0
  0
LINE
  8
DETAIL
  6
CONTINUOUS
 62
     5
 10
-91.377213711700279
 20
-418.56781169279998
 30
0.0
 11
-91.402591858600317
 21
-418.55272779360013
 31
0.0
  0
LINE
  8
DETAIL
  6
CONTINUOUS
 62
     5
 10
-91.402591858600317
 20
-418.55272779360013
 30
0.0
 11
-91.563672325300104
 21
-418.43979640269998
 31
0.0
  0
LINE
  8
DETAIL
  6
CONTINUOUS
 62
     5
 10
-91.563672325300104
 20
-418.43979640269998
 30
0.0
 11
-91.728946529300174
 21
-418.29540357629998
 31
0.0
  0
LINE
  8
DETAIL
  6
CONTINUOUS
 62
     5
 10
-91.728946529300174
 20
-418.29540357629998
 30
0.0
 11
-91.89771893040006
 21
-418.11944341639992
 31
0.0
  0
LINE
  8
DETAIL
  6
CONTINUOUS
 62
     5
 10
72.970611060100055
 20
-418.11944341639992
 30
0.0
 11
72.340299163000054
 21
-418.29550770659989
 31
0.0
  0
LINE
  8
DETAIL
  6
CONTINUOUS
 62
     5
 10
72.340299163000054
 20
-418.29550770659989
 30
0.0
 11
71.723207394200017
 21
-418.43994983450011
 31
0.0
  0
LINE
  8
DETAIL
  6
CONTINUOUS
 62
     5
 10
71.723207394200017
 20
-418.43994983450011
 30
0.0
 11
71.12191916160009
 21
-418.5528633455001
 31
0.0
  0
LINE
  8
DETAIL
  6
CONTINUOUS
 62
     5
 10
71.12191916160009
 20
-418.5528633455001
 30
0.0
 11
70.528684241799965
 21
-418.63396760370011
 31
0.0
  0
LINE
  8
DETAIL
  6
CONTINUOUS
 62
     5
 10
70.528684241799965
 20
-418.63396760370011
 30
0.0
 11
69.93575241139979
 21
-418.68298197349998
 31
0.0
  0
LINE
  8
DETAIL
  6
CONTINUOUS
 62
     5
 10
69.93575241139979
 20
-418.68298197349998
 30
0.0
 11
69.345707078199666
 21
-418.69999999999999
 31
0.0
  0
LINE
  8
DETAIL
  6
CONTINUOUS
 62
     5
 10
96.261679781199746
 20
-435.30385808320011
 30
0.0
 11
45.738320218799799
 21
-437.95167515980012
 31
0.0
  0
LINE
  8
DETAIL
  6
CONTINUOUS
 62
     5
 10
98.963933161099703
 20
-413.19999999999999
 30
0.0
 11
52.019312013099807
 21
-413.19999999999999
 31
0.0
  0
LINE
  8
DETAIL
  6
CONTINUOUS
 62
     5
 10
-52.019312013100262
 20
-413.19999999999999
 30
0.0
 11
-98.963933161100158
 21
-413.19999999999999
 31
0.0
  0
LINE
  8
DETAIL
  6
CONTINUOUS
 62
     5
 10
77.527864813299857
 20
-418.69999999999999
 30
0.0
 11
64.528196927399676
 21
-418.69999999999999
 31
0.0
  0
LINE
  8
DETAIL
  6
CONTINUOUS
 62
     5
 10
-78.148077021700374
 20
-418.69999999999999
 30
0.0
 11
-91.147744907600099
 21
-418.69999999999999
 31
0.0
  0
LINE
  8
DETAIL
  6
CONTINUOUS
 62
     5
 10
69.345707078199666
 20
-418.69999999999999
 30
0.0
 11
68.755159231699963
 21
-418.68293549060007
 31
0.0
  0
LINE
  8
DETAIL
  6
CONTINUOUS
 62
     5
 10
68.755159231699963
 20
-418.68293549060007
 30
0.0
 11
68.161939102599717
 21
-418.63388005450003
 31
0.0
  0
LINE
  8
DETAIL
  6
CONTINUOUS
 62
     5
 10
68.161939102599717
 20
-418.63388005450003
 30
0.0
 11
67.568642482599898
 21
-418.55272779360013
 31
0.0
  0
LINE
  8
DETAIL
  6
CONTINUOUS
 62
     5
 10
67.568642482599898
 20
-418.55272779360013
 30
0.0
 11
66.967481996799961
 21
-418.43979640269998
 31
0.0
  0
LINE
  8
DETAIL
  6
CONTINUOUS
 62
     5
 10
66.967481996799961
 20
-418.43979640269998
 30
0.0
 11
66.350670270099727
 21
-418.29540357629998
 31
0.0
  0
LINE
  8
DETAIL
  6
CONTINUOUS
 62
     5
 10
66.350670270099727
 20
-418.29540357629998
 30
0.0
 11
65.720803094299754
 21
-418.11944341639992
 31
0.0
  0
LINE
  8
DETAIL
  6
CONTINUOUS
 62
     5
 10
-86.33023475680011
 20
-418.69999999999999
 30
0.0
 11
-86.920782603400312
 21
-418.68293549060007
 31
0.0
  0
LINE
  8
DETAIL
  6
CONTINUOUS
 62
     5
 10
-86.920782603400312
 20
-418.68293549060007
 30
0.0
 11
-87.514002732400058
 21
-418.63388005450003
 31
0.0
  0
LINE
  8
DETAIL
  6
CONTINUOUS
 62
     5
 10
-87.514002732400058
 20
-418.63388005450003
 30
0.0
 11
-88.107299352400332
 21
-418.55272779360013
 31
0.0
  0
LINE
  8
DETAIL
  6
CONTINUOUS
 62
     5
 10
-88.107299352400332
 20
-418.55272779360013
 30
0.0
 11
-88.708459838300314
 21
-418.43979640269998
 31
0.0
  0
LINE
  8
DETAIL
  6
CONTINUOUS
 62
     5
 10
-88.708459838300314
 20
-418.43979640269998
 30
0.0
 11
-89.325271564900049
 21
-418.29540357629998
 31
0.0
  0
LINE
  8
DETAIL
  6
CONTINUOUS
 62
     5
 10
-89.325271564900049
 20
-418.29540357629998
 30
0.0
 11
-89.955138740700022
 21
-418.11944341639992
 31
0.0
  0
LINE
  8
DETAIL
  6
CONTINUOUS
 62
     5
 10
75.624224948099709
 20
-418.70000000010009
 30
0.0
 11
75.296486174899655
 21
-418.69021275260002
 31
0.0
  0
LINE
  8
DETAIL
  6
CONTINUOUS
 62
     5
 10
75.296486174899655
 20
-418.69021275260002
 30
0.0
 11
74.968962590699903
 21
-418.66205397290008
 31
0.0
  0
LINE
  8
DETAIL
  6
CONTINUOUS
 62
     5
 10
74.968962590699903
 20
-418.66205397290008
 30
0.0
 11
74.642102027499732
 21
-418.61527431410002
 31
0.0
  0
LINE
  8
DETAIL
  6
CONTINUOUS
 62
     5
 10
74.642102027499732
 20
-418.61527431410002
 30
0.0
 11
74.314560989399979
 21
-418.5506218165001
 31
0.0
  0
LINE
  8
DETAIL
  6
CONTINUOUS
 62
     5
 10
74.314560989399979
 20
-418.5506218165001
 30
0.0
 11
73.986010546899706
 21
-418.46883354200003
 31
0.0
  0
LINE
  8
DETAIL
  6
CONTINUOUS
 62
     5
 10
73.986010546899706
 20
-418.46883354200003
 30
0.0
 11
73.653854832899924
 21
-418.36969307919998
 31
0.0
  0
LINE
  8
DETAIL
  6
CONTINUOUS
 62
     5
 10
73.653854832899924
 20
-418.36969307919998
 30
0.0
 11
73.315050148499722
 21
-418.25323336349987
 31
0.0
  0
LINE
  8
DETAIL
  6
CONTINUOUS
 62
     5
 10
73.315050148499722
 20
-418.25323336349987
 30
0.0
 11
72.970611060100055
 21
-418.11944341639992
 31
0.0
  0
LINE
  8
DETAIL
  6
CONTINUOUS
 62
     5
 10
-80.051716886900067
 20
-418.70000000010009
 30
0.0
 11
-80.37945566010012
 21
-418.69021275260002
 31
0.0
  0
LINE
  8
DETAIL
  6
CONTINUOUS
 62
     5
 10
-80.37945566010012
 20
-418.69021275260002
 30
0.0
 11
-80.706979244299873
 21
-418.66205397290008
 31
0.0
  0
LINE
  8
DETAIL
  6
CONTINUOUS
 62
     5
 10
-80.706979244299873
 20
-418.66205397290008
 30
0.0
 11
-81.033839807500044
 21
-418.61527431410002
 31
0.0
  0
LINE
  8
DETAIL
  6
CONTINUOUS
 62
     5
 10
-81.033839807500044
 20
-418.61527431410002
 30
0.0
 11
-81.361380845600252
 21
-418.5506218165001
 31
0.0
  0
LINE
  8
DETAIL
  6
CONTINUOUS
 62
     5
 10
-81.361380845600252
 20
-418.5506218165001
 30
0.0
 11
-81.68993128810007
 21
-418.46883354200003
 31
0.0
  0
LINE
  8
DETAIL
  6
CONTINUOUS
 62
     5
 10
-81.68993128810007
 20
-418.46883354200003
 30
0.0
 11
-82.022087002100307
 21
-418.36969307919998
 31
0.0
  0
LINE
  8
DETAIL
  6
CONTINUOUS
 62
     5
 10
-82.022087002100307
 20
-418.36969307919998
 30
0.0
 11
-82.360891686500054
 21
-418.25323336349987
 31
0.0
  0
LINE
  8
DETAIL
  6
CONTINUOUS
 62
     5
 10
-82.360891686500054
 20
-418.25323336349987
 30
0.0
 11
-82.70533077500022
 21
-418.11944341639992
 31
0.0
  0
LINE
  8
DETAIL
  6
CONTINUOUS
 62
     5
 10
-96.261679781200201
 20
-435.30385808320011
 30
0.0
 11
-45.738320218800247
 21
-437.95167515980012
 31
0.0
  0
LINE
  8
DETAIL
  6
CONTINUOUS
 62
     5
 10
-90.926428835300158
 20
-418.69999999999999
 30
0.0
 11
-91.08466565380013
 21
-418.68293549060007
 31
0.0
  0
LINE
  8
DETAIL
  6
CONTINUOUS
 62
     5
 10
-91.08466565380013
 20
-418.68293549060007
 30
0.0
 11
-91.243618508400232
 21
-418.63388005450003
 31
0.0
  0
LINE
  8
DETAIL
  6
CONTINUOUS
 62
     5
 10
-91.243618508400232
 20
-418.63388005450003
 30
0.0
 11
-91.377213711700279
 21
-418.56781169279998
 31
0.0
  0
LINE
  8
DETAIL
  6
CONTINUOUS
 62
     5
 10
-49.056829530200048
 20
-435.30385808320011
 30
0.0
 11
-49.27043969639999
 21
-435.27374623700013
 31
0.0
  0
LINE
  8
DETAIL
  6
CONTINUOUS
 62
     5
 10
-49.27043969639999
 20
-435.27374623700013
 30
0.0
 11
-49.48219986210006
 21
-435.21982316690003
 31
0.0
  0
LINE
  8
DETAIL
  6
CONTINUOUS
 62
     5
 10
-49.48219986210006
 20
-435.21982316690003
 30
0.0
 11
-49.691313340800207
 21
-435.14238555790013
 31
0.0
  0
LINE
  8
DETAIL
  6
CONTINUOUS
 62
     5
 10
-49.691313340800207
 20
-435.14238555790013
 30
0.0
 11
-49.896797222100297
 21
-435.04178611439988
 31
0.0
  0
LINE
  8
DETAIL
  6
CONTINUOUS
 62
     5
 10
-49.896797222100297
 20
-435.04178611439988
 30
0.0
 11
-50.097789642300093
 21
-434.91841709689999
 31
0.0
  0
LINE
  8
DETAIL
  6
CONTINUOUS
 62
     5
 10
-50.097789642300093
 20
-434.91841709689999
 30
0.0
 11
-50.293174757600347
 21
-434.77294742229998
 31
0.0
  0
LINE
  8
DETAIL
  6
CONTINUOUS
 62
     5
 10
-50.293174757600347
 20
-434.77294742229998
 30
0.0
 11
-50.481902802300283
 21
-434.60617543130002
 31
0.0
  0
LINE
  8
DETAIL
  6
CONTINUOUS
 62
     5
 10
-50.481902802300283
 20
-434.60617543130002
 30
0.0
 11
-50.663078129699898
 21
-434.41895536639998
 31
0.0
  0
LINE
  8
DETAIL
  6
CONTINUOUS
 62
     5
 10
-50.663078129699898
 20
-434.41895536639998
 30
0.0
 11
-50.835758561400333
 21
-434.21232148980022
 31
0.0
  0
LINE
  8
DETAIL
  6
CONTINUOUS
 62
     5
 10
-50.835758561400333
 20
-434.21232148980022
 30
0.0
 11
-50.999245828200401
 21
-433.98719266429998
 31
0.0
  0
LINE
  8
DETAIL
  6
CONTINUOUS
 62
     5
 10
-50.999245828200401
 20
-433.98719266429998
 30
0.0
 11
-51.152845820500261
 21
-433.74452927470003
 31
0.0
  0
LINE
  8
DETAIL
  6
CONTINUOUS
 62
     5
 10
-51.152845820500261
 20
-433.74452927470003
 30
0.0
 11
-51.295771829200021
 21
-433.4856103866
 31
0.0
  0
LINE
  8
DETAIL
  6
CONTINUOUS
 62
     5
 10
-51.295771829200021
 20
-433.4856103866
 30
0.0
 11
-51.427306067800153
 21
-433.21176097530002
 31
0.0
  0
LINE
  8
DETAIL
  6
CONTINUOUS
 62
     5
 10
-51.427306067800153
 20
-433.21176097530002
 30
0.0
 11
-51.546851366199917
 21
-432.92432864170007
 31
0.0
  0
LINE
  8
DETAIL
  6
CONTINUOUS
 62
     5
 10
-51.546851366199917
 20
-432.92432864170007
 30
0.0
 11
-51.653815634500013
 21
-432.62480918980009
 31
0.0
  0
LINE
  8
DETAIL
  6
CONTINUOUS
 62
     5
 10
-51.653815634500013
 20
-432.62480918980009
 30
0.0
 11
-51.747790678999991
 21
-432.31447184749999
 31
0.0
  0
LINE
  8
DETAIL
  6
CONTINUOUS
 62
     5
 10
-51.747790678999991
 20
-432.31447184749999
 30
0.0
 11
-51.828388681899924
 21
-431.99456472430012
 31
0.0
  0
LINE
  8
DETAIL
  6
CONTINUOUS
 62
     5
 10
-51.828388681899924
 20
-431.99456472430012
 30
0.0
 11
-51.895186567599922
 21
-431.66683732759998
 31
0.0
  0
LINE
  8
DETAIL
  6
CONTINUOUS
 62
     5
 10
-51.895186567599922
 20
-431.66683732759998
 30
0.0
 11
-51.947841924600198
 21
-431.33303891109989
 31
0.0
  0
LINE
  8
DETAIL
  6
CONTINUOUS
 62
     5
 10
-51.947841924600198
 20
-431.33303891109989
 30
0.0
 11
-51.986168854799871
 21
-430.99468690219987
 31
0.0
  0
LINE
  8
DETAIL
  6
CONTINUOUS
 62
     5
 10
-51.986168854799871
 20
-430.99468690219987
 30
0.0
 11
-52.010000703699923
 21
-430.65337131790011
 31
0.0
  0
LINE
  8
DETAIL
  6
CONTINUOUS
 62
     5
 10
-52.010000703699923
 20
-430.65337131790011
 30
0.0
 11
-52.019288294700353
 21
-430.31071040950002
 31
0.0
  0
LINE
  8
DETAIL
  6
CONTINUOUS
 62
     5
 10
82.823538144300073
 20
-435.30385808320011
 30
0.0
 11
83.09818947929989
 21
-435.27374612139988
 31
0.0
  0
LINE
  8
DETAIL
  6
CONTINUOUS
 62
     5
 10
83.09818947929989
 20
-435.27374612139988
 30
0.0
 11
83.370392615699984
 21
-435.21982288890001
 31
0.0
  0
LINE
  8
DETAIL
  6
CONTINUOUS
 62
     5
 10
83.370392615699984
 20
-435.21982288890001
 30
0.0
 11
83.638654134999797
 21
-435.14238519179997
 31
0.0
  0
LINE
  8
DETAIL
  6
CONTINUOUS
 62
     5
 10
83.638654134999797
 20
-435.14238519179997
 30
0.0
 11
83.90186848689973
 21
-435.04178573640002
 31
0.0
  0
LINE
  8
DETAIL
  6
CONTINUOUS
 62
     5
 10
83.90186848689973
 20
-435.04178573640002
 30
0.0
 11
84.158956036600102
 21
-434.91841669310003
 31
0.0
  0
LINE
  8
DETAIL
  6
CONTINUOUS
 62
     5
 10
84.158956036600102
 20
-434.91841669310003
 30
0.0
 11
84.408475116500085
 21
-434.77294700369998
 31
0.0
  0
LINE
  8
DETAIL
  6
CONTINUOUS
 62
     5
 10
84.408475116500085
 20
-434.77294700369998
 30
0.0
 11
84.649119404399698
 21
-434.6061750033
 31
0.0
  0
LINE
  8
DETAIL
  6
CONTINUOUS
 62
     5
 10
84.649119404399698
 20
-434.6061750033
 30
0.0
 11
84.879732983699796
 21
-434.41895493390012
 31
0.0
  0
LINE
  8
DETAIL
  6
CONTINUOUS
 62
     5
 10
84.879732983699796
 20
-434.41895493390012
 30
0.0
 11
85.099152796699855
 21
-434.21232105700011
 31
0.0
  0
LINE
  8
DETAIL
  6
CONTINUOUS
 62
     5
 10
85.099152796699855
 20
-434.21232105700011
 30
0.0
 11
85.306484695699965
 21
-433.98719223660009
 31
0.0
  0
LINE
  8
DETAIL
  6
CONTINUOUS
 62
     5
 10
85.306484695699965
 20
-433.98719223660009
 30
0.0
 11
85.500881936899987
 21
-433.74452886109998
 31
0.0
  0
LINE
  8
DETAIL
  6
CONTINUOUS
 62
     5
 10
85.500881936899987
 20
-433.74452886109998
 30
0.0
 11
85.681335940199915
 21
-433.48560999360012
 31
0.0
  0
LINE
  8
DETAIL
  6
CONTINUOUS
 62
     5
 10
85.681335940199915
 20
-433.48560999360012
 30
0.0
 11
85.84698207349993
 21
-433.21176060810012
 31
0.0
  0
LINE
  8
DETAIL
  6
CONTINUOUS
 62
     5
 10
85.84698207349993
 20
-433.21176060810012
 30
0.0
 11
85.997053897299793
 21
-432.92432830489997
 31
0.0
  0
LINE
  8
DETAIL
  6
CONTINUOUS
 62
     5
 10
85.997053897299793
 20
-432.92432830489997
 30
0.0
 11
86.130846025199844
 21
-432.62480888720012
 31
0.0
  0
LINE
  8
DETAIL
  6
CONTINUOUS
 62
     5
 10
86.130846025199844
 20
-432.62480888720012
 30
0.0
 11
86.247841275299834
 21
-432.31447158249989
 31
0.0
  0
LINE
  8
DETAIL
  6
CONTINUOUS
 62
     5
 10
86.247841275299834
 20
-432.31447158249989
 30
0.0
 11
86.347588011499738
 21
-431.99456449989998
 31
0.0
  0
LINE
  8
DETAIL
  6
CONTINUOUS
 62
     5
 10
86.347588011499738
 20
-431.99456449989998
 30
0.0
 11
86.429542294099974
 21
-431.66683714610008
 31
0.0
  0
LINE
  8
DETAIL
  6
CONTINUOUS
 62
     5
 10
86.429542294099974
 20
-431.66683714610008
 30
0.0
 11
86.493325502900007
 21
-431.33303877430012
 31
0.0
  0
LINE
  8
DETAIL
  6
CONTINUOUS
 62
     5
 10
86.493325502900007
 20
-431.33303877430012
 30
0.0
 11
86.538695361899954
 21
-430.99468681109988
 31
0.0
  0
LINE
  8
DETAIL
  6
CONTINUOUS
 62
     5
 10
86.538695361899954
 20
-430.99468681109988
 30
0.0
 11
86.565497535199938
 21
-430.65337127260011
 31
0.0
  0
LINE
  8
DETAIL
  6
CONTINUOUS
 62
     5
 10
86.565497535199938
 20
-430.65337127260011
 30
0.0
 11
86.573631351499898
 21
-430.31071040950002
 31
0.0
  0
LINE
  8
DETAIL
  6
CONTINUOUS
 62
     5
 10
35.999959453100018
 20
-450.19999999999999
 30
0.0
 11
-35.999959407000013
 21
-450.19999999999999
 31
0.0
  0
LINE
  8
DETAIL
  6
CONTINUOUS
 62
     5
 10
-470.49427215410009
 20
-1.327292472799968
 30
0.0
 11
-470.50441660270008
 21
-1.3080919302999521
 31
0.0
  0
LINE
  8
DETAIL
  6
CONTINUOUS
 62
     5
 10
-470.50441660270008
 20
-1.3080919302999521
 30
0.0
 11
-470.52447452270007
 21
-1.2801656904998711
 31
0.0
  0
LINE
  8
DETAIL
  6
CONTINUOUS
 62
     5
 10
-470.52447452270007
 20
-1.2801656904998711
 30
0.0
 11
-470.5479478151999
 21
-1.256145897599936
 31
0.0
  0
LINE
  8
DETAIL
  6
CONTINUOUS
 62
     5
 10
-470.5479478151999
 20
-1.256145897599936
 30
0.0
 11
-470.57493664460031
 21
-1.236220060299956
 31
0.0
  0
LINE
  8
DETAIL
  6
CONTINUOUS
 62
     5
 10
-470.57493664460031
 20
-1.236220060299956
 30
0.0
 11
-470.60550902290021
 21
-1.22053530339997
 31
0.0
  0
LINE
  8
DETAIL
  6
CONTINUOUS
 62
     5
 10
-470.60550902290021
 20
-1.22053530339997
 30
0.0
 11
-470.63989167880032
 21
-1.20919702599997
 31
0.0
  0
LINE
  8
DETAIL
  6
CONTINUOUS
 62
     5
 10
-470.63989167880032
 20
-1.20919702599997
 30
0.0
 11
-470.67836518659988
 21
-1.202314996999917
 31
0.0
  0
LINE
  8
DETAIL
  6
CONTINUOUS
 62
     5
 10
-470.67836518659988
 20
-1.202314996999917
 30
0.0
 11
-470.72083602150002
 21
-1.199999999999932
 31
0.0
  0
LINE
  8
DETAIL
  6
CONTINUOUS
 62
     5
 10
-345.89987745110011
 20
-35.0
 30
0.0
 11
-345.89987745110011
 21
-211.0
 31
0.0
  0
LINE
  8
DETAIL
  6
CONTINUOUS
 62
     5
 10
-390.89987745110011
 20
-35.0
 30
0.0
 11
-390.89987745110011
 21
-211.0
 31
0.0
  0
LINE
  8
DETAIL
  6
CONTINUOUS
 62
     5
 10
-418.70000000000027
 20
-35.0
 30
0.0
 11
-418.70000000000027
 21
-45.399999999999977
 31
0.0
  0
LINE
  8
DETAIL
  6
CONTINUOUS
 62
     5
 10
-470.45000000000027
 20
-0.7029437251999298
 30
0.0
 11
-470.45132997430028
 21
-0.6105172333000155
 31
0.0
  0
LINE
  8
DETAIL
  6
CONTINUOUS
 62
     5
 10
-470.45132997430028
 20
-0.6105172333000155
 30
0.0
 11
-470.45532354670007
 21
-0.523712785799944
 31
0.0
  0
LINE
  8
DETAIL
  6
CONTINUOUS
 62
     5
 10
-470.45532354670007
 20
-0.523712785799944
 30
0.0
 11
-470.4619736953
 21
-0.4428074758999401
 31
0.0
  0
LINE
  8
DETAIL
  6
CONTINUOUS
 62
     5
 10
-470.4619736953
 20
-0.4428074758999401
 30
0.0
 11
-470.47130878480039
 21
-0.3680400088999249
 31
0.0
  0
LINE
  8
DETAIL
  6
CONTINUOUS
 62
     5
 10
-470.47130878480039
 20
-0.3680400088999249
 30
0.0
 11
-470.48334014070042
 21
-0.2996268317999693
 31
0.0
  0
LINE
  8
DETAIL
  6
CONTINUOUS
 62
     5
 10
-470.48334014070042
 20
-0.2996268317999693
 30
0.0
 11
-470.49811185950011
 21
-0.2378181440000162
 31
0.0
  0
LINE
  8
DETAIL
  6
CONTINUOUS
 62
     5
 10
-470.49811185950011
 20
-0.2378181440000162
 30
0.0
 11
-470.51565123310002
 21
-0.1828365919999442
 31
0.0
  0
LINE
  8
DETAIL
  6
CONTINUOUS
 62
     5
 10
-470.51565123310002
 20
-0.1828365919999442
 30
0.0
 11
-470.53602000000052
 21
-0.1348190213999487
 31
0.0
  0
LINE
  8
DETAIL
  6
CONTINUOUS
 62
     5
 10
-470.53602000000052
 20
-0.1348190213999487
 30
0.0
 11
-470.55927252190031
 21
-0.0938974757999631
 31
0.0
  0
LINE
  8
DETAIL
  6
CONTINUOUS
 62
     5
 10
-470.55927252190031
 20
-0.0938974757999631
 30
0.0
 11
-470.58545822000002
 21
-0.0602314556999772
 31
0.0
  0
LINE
  8
DETAIL
  6
CONTINUOUS
 62
     5
 10
-470.58545822000002
 20
-0.0602314556999772
 30
0.0
 11
-470.61460961810008
 21
-0.0339390159999766
 31
0.0
  0
LINE
  8
DETAIL
  6
CONTINUOUS
 62
     5
 10
-470.61460961810008
 20
-0.0339390159999766
 30
0.0
 11
-470.64683177020021
 21
-0.0151015330999371
 31
0.0
  0
LINE
  8
DETAIL
  6
CONTINUOUS
 62
     5
 10
-470.64683177020021
 20
-0.0151015330999371
 30
0.0
 11
-470.6822550582001
 21
-0.0037778733999403
 31
0.0
  0
LINE
  8
DETAIL
  6
CONTINUOUS
 62
     5
 10
-470.6822550582001
 20
-0.0037778733999403
 30
0.0
 11
-470.72083602150002
 21
0.0
 31
0.0
  0
LINE
  8
DETAIL
  6
CONTINUOUS
 62
     5
 10
-469.0
 20
-94.199999999999932
 30
0.0
 11
-469.0
 21
-95.399999999999977
 31
0.0
  0
LINE
  8
DETAIL
  6
CONTINUOUS
 62
     5
 10
-470.72083602150002
 20
-1.199999999999932
 30
0.0
 11
-470.72083602150002
 21
0.0
 31
0.0
  0
LINE
  8
DETAIL
  6
CONTINUOUS
 62
     5
 10
-472.60000000000042
 20
-1.199999999999932
 30
0.0
 11
-472.60000000000042
 21
0.0
 31
0.0
  0
LINE
  8
DETAIL
  6
CONTINUOUS
 62
     5
 10
-473.80000000000018
 20
-4.5467842369998834
 30
0.0
 11
-473.80000000000018
 21
-2.3999999999999768
 31
0.0
  0
LINE
  8
DETAIL
  6
CONTINUOUS
 62
     5
 10
-473.80000000000018
 20
-4.5467842369998834
 30
0.0
 11
-473.80000000000018
 21
-35.0
 31
0.0
  0
LINE
  8
DETAIL
  6
CONTINUOUS
 62
     5
 10
-475.0
 20
-2.3999999999999768
 30
0.0
 11
-475.0
 21
-35.0
 31
0.0
  0
LINE
  8
DETAIL
  6
CONTINUOUS
 62
     5
 10
-470.72083602150002
 20
-2.3999999999999768
 30
0.0
 11
-470.68225505830009
 21
-2.2653912344999299
 31
0.0
  0
LINE
  8
DETAIL
  6
CONTINUOUS
 62
     5
 10
-470.68225505830009
 20
-2.2653912344999299
 30
0.0
 11
-470.6468317703002
 21
-2.131189095499963
 31
0.0
  0
LINE
  8
DETAIL
  6
CONTINUOUS
 62
     5
 10
-470.6468317703002
 20
-2.131189095499963
 30
0.0
 11
-470.61460961830022
 21
-1.997811711499935
 31
0.0
  0
LINE
  8
DETAIL
  6
CONTINUOUS
 62
     5
 10
-470.61460961830022
 20
-1.997811711499935
 30
0.0
 11
-470.58545822010001
 21
-1.865693759899955
 31
0.0
  0
LINE
  8
DETAIL
  6
CONTINUOUS
 62
     5
 10
-470.58545822010001
 20
-1.865693759899955
 30
0.0
 11
-470.55927252190031
 21
-1.735251064299973
 31
0.0
  0
LINE
  8
DETAIL
  6
CONTINUOUS
 62
     5
 10
-470.55927252190031
 20
-1.735251064299973
 30
0.0
 11
-470.53601999990042
 21
-1.6069330829000139
 31
0.0
  0
LINE
  8
DETAIL
  6
CONTINUOUS
 62
     5
 10
-470.53601999990042
 20
-1.6069330829000139
 30
0.0
 11
-470.51565123300043
 21
-1.4812038179999261
 31
0.0
  0
LINE
  8
DETAIL
  6
CONTINUOUS
 62
     5
 10
-470.51565123300043
 20
-1.4812038179999261
 30
0.0
 11
-470.49811185930002
 21
-1.358381248199976
 31
0.0
  0
LINE
  8
DETAIL
  6
CONTINUOUS
 62
     5
 10
-470.49811185930002
 20
-1.358381248199976
 30
0.0
 11
-470.48334014070042
 21
-1.2387797133000049
 31
0.0
  0
LINE
  8
DETAIL
  6
CONTINUOUS
 62
     5
 10
-470.48334014070042
 20
-1.2387797133000049
 30
0.0
 11
-470.47130878500002
 21
-1.12283963809989
 31
0.0
  0
LINE
  8
DETAIL
  6
CONTINUOUS
 62
     5
 10
-470.47130878500002
 20
-1.12283963809989
 30
0.0
 11
-470.46197369560008
 21
-1.0109724948999881
 31
0.0
  0
LINE
  8
DETAIL
  6
CONTINUOUS
 62
     5
 10
-470.46197369560008
 20
-1.0109724948999881
 30
0.0
 11
-470.45532354700032
 21
-0.9034886337999524
 31
0.0
  0
LINE
  8
DETAIL
  6
CONTINUOUS
 62
     5
 10
-470.45532354700032
 20
-0.9034886337999524
 30
0.0
 11
-470.45132997450042
 21
-0.800702838599932
 31
0.0
  0
LINE
  8
DETAIL
  6
CONTINUOUS
 62
     5
 10
-470.45132997450042
 20
-0.800702838599932
 30
0.0
 11
-470.45000000000027
 21
-0.7029437251999298
 31
0.0
  0
ARC
  8
DETAIL
  6
CONTINUOUS
 62
     5
 10
-467.5
 20
-45.399999999999977
 30
0.0
 40
48.799999999999997
 50
270.0
 51
0.0
  0
ARC
  8
DETAIL
  6
CONTINUOUS
 62
     5
 10
467.5
 20
-45.400000000000091
 30
0.0
 40
48.799999999999997
 50
180.0
 51
270.0
  0
ARC
  8
DETAIL
  6
CONTINUOUS
 62
     5
 10
-21.800000000000178
 20
-161.50000000000011
 30
0.0
 40
6.0
 50
90.0
 51
180.0
  0
ARC
  8
DETAIL
  6
CONTINUOUS
 62
     5
 10
21.799999999999731
 20
-161.50000000000011
 30
0.0
 40
6.0
 50
0.0
 51
90.0
  0
ARC
  8
DETAIL
  6
CONTINUOUS
 62
     5
 10
-32.800000000000182
 20
-168.69999999999999
 30
0.0
 40
5.0
 50
270.0
 51
0.0
  0
ARC
  8
DETAIL
  6
CONTINUOUS
 62
     5
 10
32.799999999999727
 20
-168.69999999999999
 30
0.0
 40
5.0
 50
180.0
 51
270.0
  0
ARC
  8
DETAIL
  6
CONTINUOUS
 62
     5
 10
36.0
 20
-445.19999999999999
 30
0.0
 40
5.0
 50
270.0
 51
0.0
  0
ARC
  8
DETAIL
  6
CONTINUOUS
 62
     5
 10
-36.0
 20
-445.19999999999999
 30
0.0
 40
5.0
 50
180.0
 51
270.0
  0
ARC
  8
DETAIL
  6
CONTINUOUS
 62
     5
 10
46.0
 20
-442.94482283360003
 30
0.0
 40
5.0
 50
93.000000000005599
 51
180.0
  0
ARC
  8
DETAIL
  6
CONTINUOUS
 62
     5
 10
-46.0
 20
-442.94482283360003
 30
0.0
 40
5.0
 50
0.0
 51
86.999999999994415
  0
ARC
  8
DETAIL
  6
CONTINUOUS
 62
     5
 10
-96.0
 20
-430.31071040950002
 30
0.0
 40
5.0
 50
180.0
 51
266.99999999999437
  0
ARC
  8
DETAIL
  6
CONTINUOUS
 62
     5
 10
96.0
 20
-430.31071040950002
 30
0.0
 40
5.0
 50
273.00000000000563
 51
0.0
  0
ARC
  8
DETAIL
  6
CONTINUOUS
 62
     5
 10
-36.0
 20
-183.19999999999999
 30
0.0
 40
5.0
 50
90.0
 51
180.0
  0
ARC
  8
DETAIL
  6
CONTINUOUS
 62
     5
 10
36.0
 20
-183.19999999999999
 30
0.0
 40
5.0
 50
0.0
 51
90.0
  0
ARC
  8
DETAIL
  6
CONTINUOUS
 62
     5
 10
-46.0
 20
-185.45517716650011
 30
0.0
 40
5.0
 50
273.00000000000563
 51
0.0
  0
ARC
  8
DETAIL
  6
CONTINUOUS
 62
     5
 10
46.0
 20
-185.45517716650011
 30
0.0
 40
5.0
 50
180.0
 51
266.99999999999437
  0
ARC
  8
DETAIL
  6
CONTINUOUS
 62
     5
 10
-96.0
 20
-198.0892895905998
 30
0.0
 40
5.0
 50
93.000000000005599
 51
180.0
  0
ARC
  8
DETAIL
  6
CONTINUOUS
 62
     5
 10
-473.95000000000027
 20
-1.049999999999955
 30
0.0
 40
3.5
 50
272.45628572359828
 51
337.31190884908949
  0
ARC
  8
DETAIL
  6
CONTINUOUS
 62
     5
 10
473.94999999999982
 20
-1.050000000000068
 30
0.0
 40
3.5
 50
202.68809115091051
 51
267.54371427640172
  0
ARC
  8
DETAIL
  6
CONTINUOUS
 62
     5
 10
0.0
 20
-1.050000000000068
 30
0.0
 40
3.5
 50
202.68809115091051
 51
337.31190884908949
  0
ARC
  8
DETAIL
  6
CONTINUOUS
 62
     5
 10
-472.60000000000042
 20
-2.3999999999999768
 30
0.0
 40
2.3999999999999999
 50
90.0
 51
180.0
  0
ARC
  8
DETAIL
  6
CONTINUOUS
 62
     5
 10
472.59999999999991
 20
-2.4000000000000909
 30
0.0
 40
2.3999999999999999
 50
0.0
 51
90.0
  0
ARC
  8
DETAIL
  6
CONTINUOUS
 62
     5
 10
-16.5
 20
-175.24020202540001
 30
0.0
 40
1.8
 50
180.0
 51
224.99999999999079
  0
ARC
  8
DETAIL
  6
CONTINUOUS
 62
     5
 10
16.5
 20
-175.24020202540001
 30
0.0
 40
1.8
 50
315.00000000000921
 51
0.0
  0
ARC
  8
DETAIL
  6
CONTINUOUS
 62
     5
 10
472.59999999999991
 20
-2.4000000000000909
 30
0.0
 40
1.2
 50
0.0
 51
90.0
  0
ARC
  8
DETAIL
  6
CONTINUOUS
 62
     5
 10
-472.60000000000042
 20
-2.3999999999999768
 30
0.0
 40
1.2
 50
90.0
 51
180.0
  0
ARC
  8
DETAIL
  6
CONTINUOUS
 62
     5
 10
-17.5
 20
-178.19999999999999
 30
0.0
 40
1.0
 50
0.0
 51
44.999999999990777
  0
ARC
  8
DETAIL
  6
CONTINUOUS
 62
     5
 10
17.5
 20
-178.19999999999999
 30
0.0
 40
1.0
 50
135.00000000000921
 51
180.0
  0
ARC
  8
DETAIL
  6
CONTINUOUS
 62
     5
 10
386.85252591106251
 20
-124.5939528644609
 30
0.0
 40
6.9701323272684723
 50
13.642131535134361
 51
22.291943789450919
  0
ARC
  8
DETAIL
  6
CONTINUOUS
 62
     5
 10
387.01699759536717
 20
-117.8593826337069
 30
0.0
 40
6.7977337135567364
 50
337.59815460063982
 51
346.46777007865342
  0
ARC
  8
DETAIL
  6
CONTINUOUS
 62
     5
 10
388.14501319148121
 20
-117.8544257973988
 30
0.0
 40
6.7992689712332703
 50
337.55830213534432
 51
346.42791761336281
  0
ARC
  8
DETAIL
  6
CONTINUOUS
 62
     5
 10
387.91840125184541
 20
-124.61923501491781
 30
0.0
 40
7.0368628704711007
 50
13.7221047160465
 51
22.291675534264112
  0
LINE
  8
OUTLINE
  6
CONTINUOUS
 62
     3
 10
475.0
 20
-2.4000000000000909
 30
0.0
 11
475.0
 21
-35.000000000000107
 31
0.0
  0
LINE
  8
OUTLINE
  6
CONTINUOUS
 62
     3
 10
418.69999999999982
 20
-35.000000000000107
 30
0.0
 11
418.69999999999982
 21
-45.400000000000091
 31
0.0
  0
LINE
  8
OUTLINE
  6
CONTINUOUS
 62
     3
 10
390.89987745109971
 20
-94.200000000000045
 30
0.0
 11
390.89987745109971
 21
-211.00000000000011
 31
0.0
  0
LINE
  8
OUTLINE
  6
CONTINUOUS
 62
     3
 10
144.5
 20
-403.19999999999987
 30
0.0
 11
144.5
 21
-336.69999999999982
 31
0.0
  0
LINE
  8
OUTLINE
  6
CONTINUOUS
 62
     3
 10
-472.60000000000042
 20
0.0
 30
0.0
 11
-3.2291639785003099
 21
0.0
 31
0.0
  0
LINE
  8
OUTLINE
  6
CONTINUOUS
 62
     3
 10
-3.2291639785003099
 20
0.0
 30
0.0
 11
3.2291639784998551
 21
0.0
 31
0.0
  0
LINE
  8
OUTLINE
  6
CONTINUOUS
 62
     3
 10
3.2291639784998551
 20
0.0
 30
0.0
 11
472.59999999999991
 21
-0.0000000000001137
 31
0.0
  0
LINE
  8
OUTLINE
  6
CONTINUOUS
 62
     3
 10
101.0
 20
-403.19999999999987
 30
0.0
 11
101.0
 21
-430.31071040950002
 31
0.0
  0
LINE
  8
OUTLINE
  6
CONTINUOUS
 62
     3
 10
-475.0
 20
-35.0
 30
0.0
 11
-418.70000000000027
 21
-35.0
 31
0.0
  0
LINE
  8
OUTLINE
  6
CONTINUOUS
 62
     3
 10
41.0
 20
-442.94482283359991
 30
0.0
 11
41.0
 21
-445.19999999999987
 31
0.0
  0
LINE
  8
OUTLINE
  6
CONTINUOUS
 62
     3
 10
469.0
 20
-94.200000000000045
 30
0.0
 11
390.89987745109971
 21
-94.200000000000045
 31
0.0
  0
LINE
  8
OUTLINE
  6
CONTINUOUS
 62
     3
 10
-390.89987745110011
 20
-94.199999999999932
 30
0.0
 11
-469.0
 21
-94.199999999999932
 31
0.0
  0
LINE
  8
OUTLINE
  6
CONTINUOUS
 62
     3
 10
469.0
 20
-95.400000000000091
 30
0.0
 11
390.89987745109971
 21
-95.400000000000091
 31
0.0
  0
LINE
  8
OUTLINE
  6
CONTINUOUS
 62
     3
 10
-390.89987745110011
 20
-95.399999999999977
 30
0.0
 11
-469.0
 21
-95.399999999999977
 31
0.0
  0
LINE
  8
OUTLINE
  6
CONTINUOUS
 62
     3
 10
-41.0
 20
-442.94482283359991
 30
0.0
 11
-41.0
 21
-445.19999999999987
 31
0.0
  0
LINE
  8
OUTLINE
  6
CONTINUOUS
 62
     3
 10
-101.0
 20
-403.19999999999987
 30
0.0
 11
-101.0
 21
-430.31071040950002
 31
0.0
  0
LINE
  8
OUTLINE
  6
CONTINUOUS
 62
     3
 10
-144.5
 20
-403.19999999999987
 30
0.0
 11
-144.5
 21
-336.69999999999982
 31
0.0
  0
LINE
  8
OUTLINE
  6
CONTINUOUS
 62
     3
 10
-271.11788884150019
 20
-352.56032854789999
 30
0.0
 11
-169.44066966720041
 21
-337.1302863592
 31
0.0
  0
LINE
  8
OUTLINE
  6
CONTINUOUS
 62
     3
 10
-169.44066966720041
 20
-337.1302863592
 30
0.0
 11
-168.5033828407004
 21
-336.9998362865
 31
0.0
  0
LINE
  8
OUTLINE
  6
CONTINUOUS
 62
     3
 10
-168.5033828407004
 20
-336.9998362865
 30
0.0
 11
-167.56195962410041
 21
-336.89250962839992
 31
0.0
  0
LINE
  8
OUTLINE
  6
CONTINUOUS
 62
     3
 10
-167.56195962410041
 20
-336.89250962839992
 30
0.0
 11
-166.61599284170009
 21
-336.80854579160001
 31
0.0
  0
LINE
  8
OUTLINE
  6
CONTINUOUS
 62
     3
 10
-166.61599284170009
 20
-336.80854579160001
 30
0.0
 11
-165.66690391760039
 21
-336.74832868989972
 31
0.0
  0
LINE
  8
OUTLINE
  6
CONTINUOUS
 62
     3
 10
-165.66690391760039
 20
-336.74832868989972
 30
0.0
 11
-164.7161060886001
 21
-336.71210809279989
 31
0.0
  0
LINE
  8
OUTLINE
  6
CONTINUOUS
 62
     3
 10
-164.7161060886001
 20
-336.71210809279989
 30
0.0
 11
-163.7631749757002
 21
-336.69999999999982
 31
0.0
  0
LINE
  8
OUTLINE
  6
CONTINUOUS
 62
     3
 10
169.4406696671999
 20
-337.1302863592
 30
0.0
 11
168.50338284069991
 21
-336.9998362865
 31
0.0
  0
LINE
  8
OUTLINE
  6
CONTINUOUS
 62
     3
 10
168.50338284069991
 20
-336.9998362865
 30
0.0
 11
167.5619596240999
 21
-336.89250962839992
 31
0.0
  0
LINE
  8
OUTLINE
  6
CONTINUOUS
 62
     3
 10
167.5619596240999
 20
-336.89250962839992
 30
0.0
 11
166.61599284159999
 21
-336.80854579160012
 31
0.0
  0
LINE
  8
OUTLINE
  6
CONTINUOUS
 62
     3
 10
166.61599284159999
 20
-336.80854579160012
 30
0.0
 11
165.66690391759991
 21
-336.74832868989972
 31
0.0
  0
LINE
  8
OUTLINE
  6
CONTINUOUS
 62
     3
 10
165.66690391759991
 20
-336.74832868989972
 30
0.0
 11
164.7161060886001
 21
-336.71210809279989
 31
0.0
  0
LINE
  8
OUTLINE
  6
CONTINUOUS
 62
     3
 10
164.7161060886001
 20
-336.71210809279989
 30
0.0
 11
163.76317497569971
 21
-336.69999999999982
 31
0.0
  0
LINE
  8
OUTLINE
  6
CONTINUOUS
 62
     3
 10
271.11788884149968
 20
-352.56032854789999
 30
0.0
 11
169.4406696671999
 21
-337.1302863592
 31
0.0
  0
LINE
  8
OUTLINE
  6
CONTINUOUS
 62
     3
 10
163.76317497569971
 20
-336.69999999999982
 30
0.0
 11
144.5
 21
-336.69999999999982
 31
0.0
  0
LINE
  8
OUTLINE
  6
CONTINUOUS
 62
     3
 10
-163.7631749757002
 20
-336.69999999999982
 30
0.0
 11
-144.5
 21
-336.69999999999982
 31
0.0
  0
LINE
  8
OUTLINE
  6
CONTINUOUS
 62
     3
 10
-144.5
 20
-403.19999999999987
 30
0.0
 11
-101.0
 21
-403.19999999999999
 31
0.0
  0
LINE
  8
OUTLINE
  6
CONTINUOUS
 62
     3
 10
96.261679781199746
 20
-435.3038580832
 30
0.0
 11
45.738320218799799
 21
-437.95167515980017
 31
0.0
  0
LINE
  8
OUTLINE
  6
CONTINUOUS
 62
     3
 10
-96.261679781200201
 20
-435.3038580832
 30
0.0
 11
-45.738320218800247
 21
-437.95167515980017
 31
0.0
  0
LINE
  8
OUTLINE
  6
CONTINUOUS
 62
     3
 10
35.999959453100018
 20
-450.19999999999987
 30
0.0
 11
-35.999959407000013
 21
-450.19999999999987
 31
0.0
  0
LINE
  8
OUTLINE
  6
CONTINUOUS
 62
     3
 10
-418.70000000000027
 20
-35.0
 30
0.0
 11
-418.70000000000027
 21
-45.399999999999977
 31
0.0
  0
LINE
  8
OUTLINE
  6
CONTINUOUS
 62
     3
 10
-469.0
 20
-94.199999999999932
 30
0.0
 11
-469.0
 21
-95.399999999999977
 31
0.0
  0
LINE
  8
OUTLINE
  6
CONTINUOUS
 62
     3
 10
-475.0
 20
-2.3999999999999768
 30
0.0
 11
-475.0
 21
-35.0
 31
0.0
  0
ARC
  8
OUTLINE
  6
CONTINUOUS
 62
     3
 10
-467.5
 20
-45.399999999999977
 30
0.0
 40
48.799999999999997
 50
270.0
 51
0.0
  0
ARC
  8
OUTLINE
  6
CONTINUOUS
 62
     3
 10
467.5
 20
-45.400000000000091
 30
0.0
 40
48.799999999999997
 50
180.0
 51
270.0
  0
ARC
  8
OUTLINE
  6
CONTINUOUS
 62
     3
 10
36.0
 20
-445.19999999999987
 30
0.0
 40
5.0
 50
270.0
 51
0.0
  0
ARC
  8
OUTLINE
  6
CONTINUOUS
 62
     3
 10
-36.0
 20
-445.19999999999987
 30
0.0
 40
5.0
 50
180.0
 51
270.0
  0
ARC
  8
OUTLINE
  6
CONTINUOUS
 62
     3
 10
46.0
 20
-442.94482283359991
 30
0.0
 40
5.0
 50
93.000000000005599
 51
180.0
  0
ARC
  8
OUTLINE
  6
CONTINUOUS
 62
     3
 10
-46.0
 20
-442.94482283359991
 30
0.0
 40
5.0
 50
0.0
 51
86.999999999994415
  0
ARC
  8
OUTLINE
  6
CONTINUOUS
 62
     3
 10
-96.0
 20
-430.31071040950002
 30
0.0
 40
5.0
 50
180.0
 51
266.99999999999437
  0
ARC
  8
OUTLINE
  6
CONTINUOUS
 62
     3
 10
96.0
 20
-430.31071040950002
 30
0.0
 40
5.0
 50
273.00000000000563
 51
0.0
  0
ARC
  8
OUTLINE
  6
CONTINUOUS
 62
     3
 10
-472.60000000000042
 20
-2.3999999999999768
 30
0.0
 40
2.3999999999999999
 50
90.0
 51
180.0
  0
ARC
  8
OUTLINE
  6
CONTINUOUS
 62
     3
 10
472.59999999999991
 20
-2.4000000000000909
 30
0.0
 40
2.3999999999999999
 50
0.0
 51
90.0
  0
LINE
  8
OUTLINE
  6
CONTINUOUS
 62
     3
 10
469.0
 20
-95.400000000000091
 30
0.0
 11
469.0
 21
-94.448014060070022
 31
0.0
  0
LINE
  8
OUTLINE
  6
CONTINUOUS
 62
     3
 10
469.0
 20
-94.448014060070022
 30
0.0
 11
469.0
 21
-94.200000000000045
 31
0.0
  0
LINE
  8
OUTLINE
  6
CONTINUOUS
 62
     3
 10
418.69999999999982
 20
-35.000000000000107
 30
0.0
 11
475.0
 21
-35.000000000000107
 31
0.0
  0
LINE
  8
OUTLINE
  6
CONTINUOUS
 62
     3
 10
101.0
 20
-403.19999999999999
 30
0.0
 11
144.5
 21
-403.19999999999987
 31
0.0
  0
LINE
  8
BASIS
  6
DASHDOT
 62
     6
 10
0.0
 20
-495.3339100121517
 30
0.0
 11
0.0
 21
64.244733812597019
 31
0.0
  0
CIRCLE
  8
FIX
  6
CONTINUOUS
 62
    11
 10
450.0
 20
-0.0000000000001137
 30
0.0
 40
7.0
  0
LINE
  8
NOTE
  6
CONTINUOUS
 62
     4
 10
450.0
 20
-55.428046801112373
 30
0.0
 11
450.0
 21
16.03525237625843
 31
0.0
  0
LINE
  8
NOTE
  6
CONTINUOUS
 62
     4
 10
450.0
 20
-46.485854787462472
 30
0.0
 11
450.0
 21
24.796828318904431
 31
0.0
  0
CIRCLE
  8
FIX
  6
CONTINUOUS
 62
    11
 10
200.0
 20
0.0
 30
0.0
 40
7.0
  0
LINE
  8
NOTE
  6
CONTINUOUS
 62
     4
 10
200.0
 20
-55.428046801112259
 30
0.0
 11
200.0
 21
16.035252376258541
 31
0.0
  0
LINE
  8
NOTE
  6
CONTINUOUS
 62
     4
 10
200.0
 20
-46.485854787462358
 30
0.0
 11
200.0
 21
24.796828318904549
 31
0.0
  0
CIRCLE
  8
FIX
  6
CONTINUOUS
 62
    11
 10
-200.0
 20
0.0
 30
0.0
 40
7.0
  0
LINE
  8
NOTE
  6
CONTINUOUS
 62
     4
 10
-200.0
 20
-55.428046801112259
 30
0.0
 11
-200.0
 21
16.035252376258541
 31
0.0
  0
LINE
  8
NOTE
  6
CONTINUOUS
 62
     4
 10
-200.0
 20
-46.485854787462358
 30
0.0
 11
-200.0
 21
24.796828318904549
 31
0.0
  0
CIRCLE
  8
FIX
  6
CONTINUOUS
 62
    11
 10
-450.0
 20
0.0
 30
0.0
 40
7.0
  0
LINE
  8
NOTE
  6
CONTINUOUS
 62
     4
 10
-450.0
 20
-55.428046801112259
 30
0.0
 11
-450.0
 21
16.035252376258541
 31
0.0
  0
LINE
  8
NOTE
  6
CONTINUOUS
 62
     4
 10
-450.0
 20
-46.485854787462358
 30
0.0
 11
-450.0
 21
24.796828318904549
 31
0.0
  0
LINE
  8
SIZE
  6
CONTINUOUS
 62
    30
 10
-200.0
 20
44.796828318904552
 30
0.0
 11
-200.0
 21
159.65952907220381
 31
0.0
  0
LINE
  8
SIZE
  6
CONTINUOUS
 62
    30
 10
200.0
 20
44.796828318904552
 30
0.0
 11
200.0
 21
159.65952907220381
 31
0.0
  0
LINE
  8
SIZE
  6
CONTINUOUS
 62
    30
 10
-188.0
 20
139.65952907220381
 30
0.0
 11
188.0
 21
139.65952907220381
 31
0.0
  0
CIRCLE
  8
SIZE
  6
CONTINUOUS
 62
    30
 10
-200.0
 20
139.65952907220381
 30
0.0
 40
6.0
  0
LINE
  8
SIZE
  6
CONTINUOUS
 62
    30
 10
-200.0
 20
139.65952907220381
 30
0.0
 11
-188.0
 21
139.65952907220381
 31
0.0
  0
CIRCLE
  8
SIZE
  6
CONTINUOUS
 62
    30
 10
200.0
 20
139.65952907220381
 30
0.0
 40
6.0
  0
LINE
  8
SIZE
  6
CONTINUOUS
 62
    30
 10
200.0
 20
139.65952907220381
 30
0.0
 11
188.0
 21
139.65952907220381
 31
0.0
  0
TEXT
  8
SIZE
  6
CONTINUOUS
 62
    30
 10
-74.05714285714285
 20
164.65952907220381
 30
0.0
 40
64.0
  1
400
 41
0.9
 72
     1
 11
0.0
 21
164.65952907220381
 31
0.0
  0
POINT
  8
DEFPOINTS
  6
CONTINUOUS
 62
    30
 10
-200.0
 20
24.796828318904549
 30
0.0
  0
POINT
  8
DEFPOINTS
  6
CONTINUOUS
 62
    30
 10
200.0
 20
24.796828318904549
 30
0.0
  0
POINT
  8
DEFPOINTS
  6
CONTINUOUS
 62
    30
 10
200.0
 20
139.65952907220381
 30
0.0
  0
LINE
  8
SIZE
  6
CONTINUOUS
 62
    30
 10
-450.0
 20
44.796828318904552
 30
0.0
 11
-450.0
 21
298.54029050510542
 31
0.0
  0
LINE
  8
SIZE
  6
CONTINUOUS
 62
    30
 10
450.0
 20
44.796828318904431
 30
0.0
 11
450.0
 21
298.54029050510542
 31
0.0
  0
LINE
  8
SIZE
  6
CONTINUOUS
 62
    30
 10
-438.0
 20
278.54029050510542
 30
0.0
 11
438.0
 21
278.54029050510542
 31
0.0
  0
CIRCLE
  8
SIZE
  6
CONTINUOUS
 62
    30
 10
-450.0
 20
278.54029050510542
 30
0.0
 40
6.0
  0
LINE
  8
SIZE
  6
CONTINUOUS
 62
    30
 10
-450.0
 20
278.54029050510542
 30
0.0
 11
-438.0
 21
278.54029050510542
 31
0.0
  0
CIRCLE
  8
SIZE
  6
CONTINUOUS
 62
    30
 10
450.0
 20
278.54029050510542
 30
0.0
 40
6.0
  0
LINE
  8
SIZE
  6
CONTINUOUS
 62
    30
 10
450.0
 20
278.54029050510542
 30
0.0
 11
438.0
 21
278.54029050510542
 31
0.0
  0
TEXT
  8
SIZE
  6
CONTINUOUS
 62
    30
 10
-74.057142857142864
 20
303.54029050510542
 30
0.0
 40
64.0
  1
900
 41
0.9
 72
     1
 11
0.0
 21
303.54029050510542
 31
0.0
  0
POINT
  8
DEFPOINTS
  6
CONTINUOUS
 62
    30
 10
-450.0
 20
24.796828318904549
 30
0.0
  0
POINT
  8
DEFPOINTS
  6
CONTINUOUS
 62
    30
 10
450.0
 20
24.796828318904431
 30
0.0
  0
POINT
  8
DEFPOINTS
  6
CONTINUOUS
 62
    30
 10
450.0
 20
278.54029050510542
 30
0.0
  0
LINE
  8
SIZE
  6
CONTINUOUS
 62
    30
 10
-475.0
 20
17.600000000000019
 30
0.0
 11
-475.0
 21
452.18488654383742
 31
0.0
  0
LINE
  8
SIZE
  6
CONTINUOUS
 62
    30
 10
475.0
 20
17.599999999999909
 30
0.0
 11
475.0
 21
452.18488654383742
 31
0.0
  0
LINE
  8
SIZE
  6
CONTINUOUS
 62
    30
 10
-463.0
 20
432.18488654383742
 30
0.0
 11
463.0
 21
432.18488654383742
 31
0.0
  0
CIRCLE
  8
SIZE
  6
CONTINUOUS
 62
    30
 10
-475.0
 20
432.18488654383742
 30
0.0
 40
6.0
  0
LINE
  8
SIZE
  6
CONTINUOUS
 62
    30
 10
-475.0
 20
432.18488654383742
 30
0.0
 11
-463.0
 21
432.18488654383742
 31
0.0
  0
CIRCLE
  8
SIZE
  6
CONTINUOUS
 62
    30
 10
475.0
 20
432.18488654383742
 30
0.0
 40
6.0
  0
LINE
  8
SIZE
  6
CONTINUOUS
 62
    30
 10
475.0
 20
432.18488654383742
 30
0.0
 11
463.0
 21
432.18488654383742
 31
0.0
  0
TEXT
  8
SIZE
  6
CONTINUOUS
 62
    30
 10
-74.057142857142864
 20
457.18488654383742
 30
0.0
 40
64.0
  1
950
 41
0.9
 72
     1
 11
0.0
 21
457.18488654383742
 31
0.0
  0
POINT
  8
DEFPOINTS
  6
CONTINUOUS
 62
    30
 10
-475.0
 20
-2.3999999999999768
 30
0.0
  0
POINT
  8
DEFPOINTS
  6
CONTINUOUS
 62
    30
 10
475.0
 20
-2.4000000000000909
 30
0.0
  0
POINT
  8
DEFPOINTS
  6
CONTINUOUS
 62
    30
 10
475.0
 20
432.18488654383742
 30
0.0
  0
LINE
  8
SIZE
  6
CONTINUOUS
 62
    30
 10
492.60000000000042
 20
-0.0000000000001137
 30
0.0
 11
629.03270968658398
 21
-0.0000000000001137
 31
0.0
  0
LINE
  8
SIZE
  6
CONTINUOUS
 62
    30
 10
495.0
 20
-35.000000000000107
 30
0.0
 11
629.03270968658398
 21
-35.000000000000107
 31
0.0
  0
LINE
  8
SIZE
  6
CONTINUOUS
 62
    30
 10
609.03270968658398
 20
11.99999999999989
 30
0.0
 11
609.03270968658398
 21
23.99999999999989
 31
0.0
  0
LINE
  8
SIZE
  6
CONTINUOUS
 62
    30
 10
609.03270968658398
 20
-47.000000000000107
 30
0.0
 11
609.03270968658398
 21
-251.72305572904
 31
0.0
  0
LINE
  8
SIZE
  6
CONTINUOUS
 62
    30
 10
609.03270968658398
 20
-0.0000000000001137
 30
0.0
 11
609.03270968658398
 21
-35.000000000000107
 31
0.0
  0
CIRCLE
  8
SIZE
  6
CONTINUOUS
 62
    30
 10
609.03270968658398
 20
-0.0000000000001137
 30
0.0
 40
6.0
  0
LINE
  8
SIZE
  6
CONTINUOUS
 62
    30
 10
609.03270968658398
 20
-0.0000000000001137
 30
0.0
 11
609.03270968658398
 21
11.99999999999989
 31
0.0
  0
CIRCLE
  8
SIZE
  6
CONTINUOUS
 62
    30
 10
609.03270968658398
 20
-35.000000000000107
 30
0.0
 40
6.0
  0
LINE
  8
SIZE
  6
CONTINUOUS
 62
    30
 10
609.03270968658398
 20
-35.000000000000107
 30
0.0
 11
609.03270968658398
 21
-47.000000000000107
 31
0.0
  0
TEXT
  8
SIZE
  6
CONTINUOUS
 62
    30
 10
584.03270968658398
 20
-226.72305572904011
 30
0.0
 40
64.0
  1
35
 50
90.0
 41
0.9
 72
     1
 11
584.03270968658398
 21
-180.09448430046871
 31
0.0
  0
POINT
  8
DEFPOINTS
  6
CONTINUOUS
 62
    30
 10
472.60000000000042
 20
-0.0000000000001137
 30
0.0
  0
POINT
  8
DEFPOINTS
  6
CONTINUOUS
 62
    30
 10
475.0
 20
-35.000000000000107
 30
0.0
  0
POINT
  8
DEFPOINTS
  6
CONTINUOUS
 62
    30
 10
609.03270968658398
 20
-35.000000000000107
 30
0.0
  0
LINE
  8
SIZE
  6
CONTINUOUS
 62
    30
 10
492.60000000000042
 20
-0.0000000000001137
 30
0.0
 11
759.88946669338156
 21
-0.0000000000001137
 31
0.0
  0
LINE
  8
SIZE
  6
CONTINUOUS
 62
    30
 10
489.0
 20
-95.400000000000091
 30
0.0
 11
759.88946669338156
 21
-95.400000000000091
 31
0.0
  0
LINE
  8
SIZE
  6
CONTINUOUS
 62
    30
 10
739.88946669338156
 20
-12.00000000000011
 30
0.0
 11
739.88946669338156
 21
-83.400000000000091
 31
0.0
  0
LINE
  8
SIZE
  6
CONTINUOUS
 62
    30
 10
739.88946669338156
 20
-95.400000000000091
 30
0.0
 11
739.88946669338156
 21
-247.9142857142858
 31
0.0
  0
CIRCLE
  8
SIZE
  6
CONTINUOUS
 62
    30
 10
739.88946669338156
 20
-0.0000000000001137
 30
0.0
 40
6.0
  0
LINE
  8
SIZE
  6
CONTINUOUS
 62
    30
 10
739.88946669338156
 20
-0.0000000000001137
 30
0.0
 11
739.88946669338156
 21
-12.00000000000011
 31
0.0
  0
CIRCLE
  8
SIZE
  6
CONTINUOUS
 62
    30
 10
739.88946669338156
 20
-95.400000000000091
 30
0.0
 40
6.0
  0
LINE
  8
SIZE
  6
CONTINUOUS
 62
    30
 10
739.88946669338156
 20
-95.400000000000091
 30
0.0
 11
739.88946669338156
 21
-83.400000000000091
 31
0.0
  0
TEXT
  8
SIZE
  6
CONTINUOUS
 62
    30
 10
714.88946669338156
 20
-222.91428571428591
 30
0.0
 40
64.0
  1
96
 50
90.0
 41
0.9
 72
     1
 11
714.88946669338156
 21
-177.6571428571431
 31
0.0
  0
POINT
  8
DEFPOINTS
  6
CONTINUOUS
 62
    30
 10
472.60000000000042
 20
-0.0000000000001137
 30
0.0
  0
POINT
  8
DEFPOINTS
  6
CONTINUOUS
 62
    30
 10
469.0
 20
-95.400000000000091
 30
0.0
  0
POINT
  8
DEFPOINTS
  6
CONTINUOUS
 62
    30
 10
739.88946669338156
 20
-95.400000000000091
 30
0.0
  0
LINE
  8
SIZE
  6
CONTINUOUS
 62
    30
 10
-492.60000000000059
 20
0.0
 30
0.0
 11
-676.30214209794985
 21
0.0
 31
0.0
  0
LINE
  8
SIZE
  6
CONTINUOUS
 62
    30
 10
-302.94822747120043
 20
-353.49782661910001
 30
0.0
 11
-676.30214209794963
 21
-353.49782661910001
 31
0.0
  0
LINE
  8
SIZE
  6
CONTINUOUS
 62
    30
 10
-656.30214209794985
 20
-12.0
 30
0.0
 11
-656.30214209794963
 21
-341.49782661910012
 31
0.0
  0
CIRCLE
  8
SIZE
  6
CONTINUOUS
 62
    30
 10
-656.30214209794985
 20
0.0
 30
0.0
 40
6.0
  0
LINE
  8
SIZE
  6
CONTINUOUS
 62
    30
 10
-656.30214209794985
 20
0.0
 30
0.0
 11
-656.30214209794985
 21
-12.0
 31
0.0
  0
CIRCLE
  8
SIZE
  6
CONTINUOUS
 62
    30
 10
-656.30214209794963
 20
-353.49782661910001
 30
0.0
 40
6.0
  0
LINE
  8
SIZE
  6
CONTINUOUS
 62
    30
 10
-656.30214209794963
 20
-353.49782661910001
 30
0.0
 11
-656.30214209794963
 21
-341.49782661910012
 31
0.0
  0
TEXT
  8
SIZE
  6
CONTINUOUS
 62
    30
 10
-681.30214209794963
 20
-250.80605616669271
 30
0.0
 40
64.0
  1
353
 50
90.0
 41
0.9
 72
     1
 11
-681.30214209794963
 21
-176.74891330954981
 31
0.0
  0
POINT
  8
DEFPOINTS
  6
CONTINUOUS
 62
    30
 10
-472.60000000000059
 20
0.0
 30
0.0
  0
POINT
  8
DEFPOINTS
  6
CONTINUOUS
 62
    30
 10
-282.94822747120043
 20
-353.49782661910001
 30
0.0
  0
POINT
  8
DEFPOINTS
  6
CONTINUOUS
 62
    30
 10
-656.30214209794963
 20
-353.49782661910001
 30
0.0
  0
LINE
  8
SIZE
  6
CONTINUOUS
 62
    30
 10
-492.60000000000059
 20
0.0
 30
0.0
 11
-854.21530412977654
 21
-0.0000000000001137
 31
0.0
  0
LINE
  8
SIZE
  6
CONTINUOUS
 62
    30
 10
-20.0
 20
-450.20000000000022
 30
0.0
 11
-854.21530412977631
 21
-450.20000000000022
 31
0.0
  0
LINE
  8
SIZE
  6
CONTINUOUS
 62
    30
 10
-834.21530412977654
 20
-12.00000000000011
 30
0.0
 11
-834.21530412977631
 21
-438.20000000000022
 31
0.0
  0
CIRCLE
  8
SIZE
  6
CONTINUOUS
 62
    30
 10
-834.21530412977654
 20
-0.0000000000001137
 30
0.0
 40
6.0
  0
LINE
  8
SIZE
  6
CONTINUOUS
 62
    30
 10
-834.21530412977654
 20
-0.0000000000001137
 30
0.0
 11
-834.21530412977654
 21
-12.00000000000011
 31
0.0
  0
CIRCLE
  8
SIZE
  6
CONTINUOUS
 62
    30
 10
-834.21530412977631
 20
-450.20000000000022
 30
0.0
 40
6.0
  0
LINE
  8
SIZE
  6
CONTINUOUS
 62
    30
 10
-834.21530412977631
 20
-450.20000000000022
 30
0.0
 11
-834.21530412977631
 21
-438.20000000000022
 31
0.0
  0
TEXT
  8
SIZE
  6
CONTINUOUS
 62
    30
 10
-859.21530412977631
 20
-299.15714285714267
 30
0.0
 40
64.0
  1
450
 50
90.0
 41
0.9
 72
     1
 11
-859.21530412977631
 21
-225.09999999999991
 31
0.0
  0
POINT
  8
DEFPOINTS
  6
CONTINUOUS
 62
    30
 10
-472.60000000000059
 20
0.0
 30
0.0
  0
POINT
  8
DEFPOINTS
  6
CONTINUOUS
 62
    30
 10
0.0
 20
-450.20000000000022
 30
0.0
  0
POINT
  8
DEFPOINTS
  6
CONTINUOUS
 62
    30
 10
-834.21530412977631
 20
-450.20000000000022
 30
0.0
  0
LINE
  8
SIZE
  6
CONTINUOUS
 62
    30
 10
-144.5
 20
-423.19999999999987
 30
0.0
 11
-144.5
 21
-658.66130765582386
 31
0.0
  0
LINE
  8
SIZE
  6
CONTINUOUS
 62
    30
 10
144.5
 20
-423.19999999999987
 30
0.0
 11
144.5
 21
-658.66130765582386
 31
0.0
  0
LINE
  8
SIZE
  6
CONTINUOUS
 62
    30
 10
-132.5
 20
-638.66130765582386
 30
0.0
 11
132.5
 21
-638.66130765582386
 31
0.0
  0
CIRCLE
  8
SIZE
  6
CONTINUOUS
 62
    30
 10
-144.5
 20
-638.66130765582386
 30
0.0
 40
6.0
  0
LINE
  8
SIZE
  6
CONTINUOUS
 62
    30
 10
-144.5
 20
-638.66130765582386
 30
0.0
 11
-132.5
 21
-638.66130765582386
 31
0.0
  0
CIRCLE
  8
SIZE
  6
CONTINUOUS
 62
    30
 10
144.5
 20
-638.66130765582386
 30
0.0
 40
6.0
  0
LINE
  8
SIZE
  6
CONTINUOUS
 62
    30
 10
144.5
 20
-638.66130765582386
 30
0.0
 11
132.5
 21
-638.66130765582386
 31
0.0
  0
TEXT
  8
SIZE
  6
CONTINUOUS
 62
    30
 10
-113.0057142857143
 20
-613.66130765582386
 30
0.0
 40
64.0
  1
φ289
 41
0.9
 72
     1
 11
0.0
 21
-613.66130765582386
 31
0.0
  0
POINT
  8
DEFPOINTS
  6
CONTINUOUS
 62
    30
 10
-144.5
 20
-403.19999999999987
 30
0.0
  0
POINT
  8
DEFPOINTS
  6
CONTINUOUS
 62
    30
 10
144.5
 20
-403.19999999999987
 30
0.0
  0
POINT
  8
DEFPOINTS
  6
CONTINUOUS
 62
    30
 10
144.5
 20
-638.66130765582386
 30
0.0
  0
TEXT
  8
NOTE
  6
CONTINUOUS
 62
     4
 10
-863.94541779943302
 20
89.632665428528526
 30
0.0
 40
64.0
  1
12-φ15
 41
0.9
  0
LINE
  8
NOTE
  6
CONTINUOUS
 62
     4
 10
-452.76339863963221
 20
5.5631220774380381
 30
0.0
 11
-450.0
 21
0.0
 31
0.0
  0
LINE
  8
NOTE
  6
CONTINUOUS
 62
     4
 10
-450.0
 20
0.0
 30
0.0
 11
-455.17473963943581
 21
3.4360979255618531
 31
0.0
  0
LINE
  8
NOTE
  6
CONTINUOUS
 62
     4
 10
-450.0
 20
0.0
 30
0.0
 11
-457.93813827906803
 21
8.9992200029998912
 31
0.0
  0
LINE
  8
NOTE
  6
CONTINUOUS
 62
     4
 10
-457.93813827906803
 20
8.9992200029998912
 30
0.0
 11
-506.10359287950132
 21
63.602894977615513
 31
0.0
  0
LINE
  8
NOTE
  6
CONTINUOUS
 62
     4
 10
-506.10359287950132
 20
63.602894977615513
 30
0.0
 11
-871.0688684033189
 21
63.764349826795979
 31
0.0
  0
TEXT
  8
ETC
  6
CONTINUOUS
 62
    61
 10
566.62515952400463
 20
435.11578610892877
 30
0.0
 40
64.0
  1
EWG-80LTA2-50_1
 41
0.9
  0
TEXT
  8
ETC
  6
CONTINUOUS
 62
    61
 10
562.43916552400424
 20
317.16047609409748
 30
0.0
 40
64.0
  1
有圧換気扇
 41
0.9
  0
TEXT
  8
ETC
  6
CONTINUOUS
 62
    61
 10
613.7258061002035
 20
209.45722129791309
 30
0.0
 40
40.0
  1
EWG-80LTA2-50
 41
0.9
  0
TEXT
  8
ETC
  6
CONTINUOUS
 62
    61
 10
613.7258061002035
 20
126.9758600135503
 30
0.0
 40
40.0
  1
EWG-80LTA2-60
 41
0.9
  0
ARC
  8
DETAIL
  6
CONTINUOUS
 62
     5
 10
-131.1289171110875
 20
303.87306177555121
 30
0.0
 40
602.87655524787692
 50
286.4421526196233
 51
318.52601171658119
  0
ARC
  8
DETAIL
  6
CONTINUOUS
 62
     5
 10
36.857053593605087
 20
-269.73420535848601
 30
0.0
 40
5.3251897469447202
 50
149.60014082923959
 51
299.92455281889107
  0
ARC
  8
DETAIL
  6
CONTINUOUS
 62
     5
 10
-15.963604973199841
 20
-202.0539839583935
 30
0.0
 40
80.926001969570564
 50
306.5801665661034
 51
22.098194201895879
  0
ARC
  8
DETAIL
  6
CONTINUOUS
 62
     5
 10
-167.12557381908479
 20
-527.65227665384418
 30
0.0
 40
421.31885167254609
 50
51.735122693171107
 51
65.520282475383112
  0
ARC
  8
DETAIL
  6
CONTINUOUS
 62
     5
 10
65.024021111239563
 20
-17.736254403822841
 30
0.0
 40
181.41114238784809
 50
279.12578966458801
 51
334.65238674368669
  0
ARC
  8
DETAIL
  6
CONTINUOUS
 62
     5
 10
752.63253429068209
 20
-3226.647717556521
 30
0.0
 40
3181.2446231749791
 50
104.26356730479129
 51
110.1448773183815
  0
ARC
  8
DETAIL
  6
CONTINUOUS
 62
     5
 10
73.315912745925743
 20
-66.950272671398807
 30
0.0
 40
72.339355234374977
 50
267.14755822147259
 51
336.84116377870743
  0
ARC
  8
DETAIL
  6
CONTINUOUS
 62
     5
 10
-238.2289049267165
 20
-207.9139356343303
 30
0.0
 40
107.715189818409
 50
181.64176159837689
 51
248.4068317688849
  0
ARC
  8
DETAIL
  6
CONTINUOUS
 62
     5
 10
-235.27340193259079
 20
-216.95429091367441
 30
0.0
 40
155.740339869275
 50
177.80892410085511
 51
229.14884133041181
  0
ARC
  8
OUTLINE
  6
CONTINUOUS
 62
     3
 10
-283.04026627618077
 20
-265.44121403888221
 30
0.0
 40
87.931127574442272
 50
232.02769482200219
 51
277.79260383798731
  0
ARC
  8
DETAIL
  6
CONTINUOUS
 62
     5
 10
-281.95790411087
 20
-186.86874009697411
 30
0.0
 40
126.04067905229709
 50
149.80740253997871
 51
215.02561686257789
  0
ARC
  8
DETAIL
  6
CONTINUOUS
 62
     5
 10
219.8843421581951
 20
-213.4439794524769
 30
0.0
 40
126.03923266476011
 50
325.64561586805229
 51
1.1110705887144869
  0
ARC
  8
DETAIL
  6
CONTINUOUS
 62
     5
 10
241.32328185602461
 20
-219.1518538384737
 30
0.0
 40
149.7985669851895
 50
307.17393826734138
 51
3.1195068559181691
  0
ARC
  8
DETAIL
  6
CONTINUOUS
 62
     5
 10
283.34939424531689
 20
-267.18317687806331
 30
0.0
 40
86.248871016847914
 50
261.84703217778372
 51
304.20693079686208
  0
ARC
  8
DETAIL
  6
CONTINUOUS
 62
     5
 10
281.00437010041787
 20
-257.3109519160987
 30
0.0
 40
50.855470400502099
 50
266.46596897959643
 51
327.58866760224907
  0
ARC
  8
DETAIL
  6
CONTINUOUS
 62
     5
 10
80.481912670340535
 20
-672.97221023668408
 30
0.0
 40
470.35401511908452
 50
57.931312948574913
 51
77.899330152387222
  0
ARC
  8
DETAIL
  6
CONTINUOUS
 62
     5
 10
-208.94764065994241
 20
-1017.1286773953429
 30
0.0
 40
922.3100208587955
 50
54.063861072314751
 51
63.11573244514237
  0
LINE
  8
DETAIL
  6
CONTINUOUS
 62
     5
 10
64.260553691085988
 20
-191.41903396385041
 30
0.0
 11
45.738320218800247
 21
-190.4483248402
 31
0.0
  0
ARC
  8
DETAIL
  6
CONTINUOUS
 62
     5
 10
46.0
 20
-185.45517716650011
 30
0.0
 40
5.0
 50
180.0
 51
266.99999999999437
  0
ARC
  8
OUTLINE
  6
CONTINUOUS
 62
     3
 10
-235.27340193259079
 20
-216.9542909136745
 30
0.0
 40
155.740339869275
 50
177.80892410085511
 51
229.14884133041181
  0
ARC
  8
OUTLINE
  6
CONTINUOUS
 62
     3
 10
-281.95790411087
 20
-186.86874009697411
 30
0.0
 40
126.04067905229709
 50
149.80740253997871
 51
215.02561686257519
  0
ARC
  8
OUTLINE
  6
CONTINUOUS
 62
     3
 10
241.32328185602461
 20
-219.15185383847381
 30
0.0
 40
149.7985669851895
 50
307.17393826734138
 51
3.1195068559181691
  0
ARC
  8
OUTLINE
  6
CONTINUOUS
 62
     3
 10
283.34939424531689
 20
-267.18317687806331
 30
0.0
 40
86.248871016847914
 50
261.84703217778372
 51
304.20693079685839
  0
LINE
  8
OUTLINE
  6
CONTINUOUS
 62
     3
 10
-390.899877451061
 20
-123.4818390786306
 30
0.0
 11
-390.89987745110011
 21
-95.399999999999977
 31
0.0
  0
ARC
  8
DETAIL
  6
CONTINUOUS
 62
     5
 10
-283.04026627618077
 20
-265.44121403888221
 30
0.0
 40
87.931127574442272
 50
232.02769482200219
 51
277.79260383798731
  0
ENDSEC
  0
EOF
