  0
SECTION
  2
HEADER
  9
$ACADVER
  1
AC1009
  9
$DWGCODEPAGE
  3
dos932
  9
$INSBASE
 10
0.0
 20
0.0
 30
0.0
  9
$EXTMIN
 10
-663.76714012765888
 20
-608.35961314569022
 30
0.0
  9
$EXTMAX
 10
1542.2819995571469
 20
1070.004298309206
 30
0.0
  9
$LIMMIN
 10
-2970.0
 20
-2100.0
  9
$LIMMAX
 10
2970.0
 20
2100.0
  9
$ORTHOMODE
 70
     1
  9
$REGENMODE
 70
     1
  9
$FILLMODE
 70
     1
  9
$QTEXTMODE
 70
     0
  9
$MIRRTEXT
 70
     0
  9
$LTSCALE
 40
20.0
  9
$ATTMODE
 70
     1
  9
$TEXTSIZE
 40
64.0
  9
$TRACEWID
 40
0.05
  9
$TEXTSTYLE
  7
STANDARD
  9
$CLAYER
  8
SIZE
  9
$CELTYPE
  6
CONTINUOUS
  9
$CECOLOR
 62
     7
  9
$DIMSCALE
 40
1.0
  9
$DIMASZ
 40
12.0
  9
$DIMEXO
 40
20.0
  9
$DIMDLI
 40
200.0
  9
$DIMRND
 40
0.0
  9
$DIMDLE
 40
0.0
  9
$DIMEXE
 40
20.0
  9
$DIMTP
 40
0.0
  9
$DIMTM
 40
0.0
  9
$DIMTXT
 40
64.0
  9
$DIMCEN
 40
0.09
  9
$DIMTSZ
 40
0.0
  9
$DIMTOL
 70
     0
  9
$DIMLIM
 70
     0
  9
$DIMTIH
 70
     0
  9
$DIMTOH
 70
     0
  9
$DIMSE1
 70
     0
  9
$DIMSE2
 70
     0
  9
$DIMTAD
 70
     1
  9
$DIMZIN
 70
     8
  9
$DIMBLK
  1

  9
$DIMASO
 70
     1
  9
$DIMSHO
 70
     0
  9
$DIMPOST
  1

  9
$DIMAPOST
  1

  9
$DIMALT
 70
     0
  9
$DIMALTD
 70
     2
  9
$DIMALTF
 40
25.399999999999999
  9
$DIMLFAC
 40
1.0
  9
$DIMTOFL
 70
     1
  9
$DIMTVP
 40
0.0
  9
$DIMTIX
 70
     1
  9
$DIMSOXD
 70
     0
  9
$DIMSAH
 70
     0
  9
$DIMBLK1
  1

  9
$DIMBLK2
  1

  9
$DIMSTYLE
  2
STANDARD
  9
$DIMCLRD
 70
     7
  9
$DIMCLRE
 70
     7
  9
$DIMCLRT
 70
     7
  9
$DIMTFAC
 40
1.0
  9
$DIMGAP
 40
25.0
  9
$LUNITS
 70
     2
  9
$LUPREC
 70
     4
  9
$SKETCHINC
 40
0.1
  9
$FILLETRAD
 40
3.0
  9
$AUNITS
 70
     1
  9
$AUPREC
 70
     3
  9
$MENU
  1
ACAD
  9
$ELEVATION
 40
0.0
  9
$PELEVATION
 40
0.0
  9
$THICKNESS
 40
50.0
  9
$LIMCHECK
 70
     0
  9
$CHAMFERA
 40
0.0
  9
$CHAMFERB
 40
0.0
  9
$SKPOLY
 70
     0
  9
$TDCREATE
 40
2453019.623009259
  9
$TDUPDATE
 40
2459292.413428032
  9
$TDINDWG
 40
1.7807682986
  9
$TDUSRTIMER
 40
1.7807682986
  9
$USRTIMER
 70
     1
  9
$ANGBASE
 50
0.0
  9
$ANGDIR
 70
     0
  9
$PDMODE
 70
     3
  9
$PDSIZE
 40
-2.0
  9
$PLINEWID
 40
0.0
  9
$SPLFRAME
 70
     0
  9
$SPLINETYPE
 70
     6
  9
$SPLINESEGS
 70
     8
  9
$SURFTAB1
 70
     6
  9
$SURFTAB2
 70
     6
  9
$SURFTYPE
 70
     6
  9
$SURFU
 70
     6
  9
$SURFV
 70
     6
  9
$UCSNAME
  2

  9
$UCSORG
 10
0.0
 20
0.0
 30
0.0
  9
$UCSXDIR
 10
1.0
 20
0.0
 30
0.0
  9
$UCSYDIR
 10
0.0
 20
1.0
 30
0.0
  9
$PUCSNAME
  2

  9
$PUCSORG
 10
0.0
 20
0.0
 30
0.0
  9
$PUCSXDIR
 10
1.0
 20
0.0
 30
0.0
  9
$PUCSYDIR
 10
0.0
 20
1.0
 30
0.0
  9
$USERI1
 70
     0
  9
$USERI2
 70
     0
  9
$USERI3
 70
     0
  9
$USERI4
 70
     0
  9
$USERI5
 70
     0
  9
$USERR1
 40
20.0
  9
$USERR2
 40
0.0
  9
$USERR3
 40
0.0
  9
$USERR4
 40
0.0
  9
$USERR5
 40
0.0
  9
$WORLDVIEW
 70
     1
  9
$SHADEDGE
 70
     3
  9
$SHADEDIF
 70
    70
  9
$TILEMODE
 70
     1
  9
$MAXACTVP
 70
    48
  9
$PINSBASE
 10
0.0
 20
0.0
 30
0.0
  9
$PLIMCHECK
 70
     0
  9
$PEXTMIN
 10
-100000000000000000000.0
 20
-100000000000000000000.0
 30
-100000000000000000000.0
  9
$PEXTMAX
 10
100000000000000000000.0
 20
100000000000000000000.0
 30
100000000000000000000.0
  9
$PLIMMIN
 10
0.0
 20
0.0
  9
$PLIMMAX
 10
12.0
 20
9.0
  9
$UNITMODE
 70
     0
  9
$VISRETAIN
 70
     0
  9
$PLINEGEN
 70
     0
  9
$PSLTSCALE
 70
     0
  9
$TREEDEPTH
 70
  3020
  9
$ATTDIA
 70
     0
  9
$ATTREQ
 70
     1
  9
$BLIPMODE
 70
     1
  9
$COORDS
 70
     1
  9
$DRAGMODE
 70
     2
  9
$OSMODE
 70
     0
  9
$HANDLING
 70
     0
  9
$HANDSEED
  5
85B
  0
ENDSEC
  0
SECTION
  2
TABLES
  0
TABLE
  2
LTYPE
 70
     2
  0
LTYPE
  2
CONTINUOUS
 70
     0
  3
実線
 72
    65
 73
     0
 40
0.0
  0
LTYPE
  2
DASHDOT
 70
     0
  3
____ _ ____ _ ____ _ ____ _ ____ _ ____ _ ____
 72
    65
 73
     4
 40
5.5
 49
4.0
 49
-0.6
 49
0.3
 49
-0.6
  0
ENDTAB
  0
TABLE
  2
LAYER
 70
    12
  0
LAYER
  2
SIZE
 70
     0
 62
    30
  6
CONTINUOUS
  0
LAYER
  2
BASIS
 70
     0
 62
     6
  6
DASHDOT
  0
LAYER
  2
OUTLINE
 70
     0
 62
     3
  6
CONTINUOUS
  0
LAYER
  2
DETAIL
 70
     0
 62
     5
  6
CONTINUOUS
  0
LAYER
  2
ARRANGE
 70
     0
 62
     1
  6
CONTINUOUS
  0
LAYER
  2
ETC
 70
     0
 62
    61
  6
CONTINUOUS
  0
LAYER
  2
FIX
 70
     0
 62
    11
  6
CONTINUOUS
  0
LAYER
  2
NOTE
 70
     0
 62
     4
  6
CONTINUOUS
  0
LAYER
  2
0
 70
    64
 62
     7
  6
CONTINUOUS
  0
LAYER
  2
DEFPOINTS
 70
    64
 62
     7
  6
CONTINUOUS
  0
LAYER
  2
SERVICESPACE
 70
    64
 62
     2
  6
DASHDOT
  0
LAYER
  2
SYMBOLLINE
 70
    64
 62
    15
  6
CONTINUOUS
  0
ENDTAB
  0
TABLE
  2
STYLE
 70
     1
  0
STYLE
  2
STANDARD
 70
     0
 40
64.0
 41
0.9
 50
0.0
 71
     0
 42
64.0
  3
SIMPLEX.shx
  4
BIGFONT.shx
  0
ENDTAB
  0
TABLE
  2
APPID
 70
    20
  0
APPID
  2
ACAD
 70
     0
  0
APPID
  2
ACADANNOTATIVE
 70
     0
  0
APPID
  2
AUTOCAD_POSTSCRIPT_FIGURE
 70
     0
  0
APPID
  2
ACAD_EXEMPT_FROM_CAD_STANDARDS
 70
     0
  0
APPID
  2
ACAD_PSEXT
 70
     0
  0
APPID
  2
ACAUTHENVIRON
 70
     0
  0
APPID
  2
GENIUS_GENOENT_13
 70
     0
  0
APPID
  2
GENIUS_GENCFG_13
 70
     0
  0
APPID
  2
GENIUS_GENCFG0_13
 70
     0
  0
APPID
  2
GENIUS_GENCFG1_13
 70
     0
  0
APPID
  2
GENIUS_GENCFG2_13
 70
     0
  0
APPID
  2
GENIUS_GENCFG3_13
 70
     0
  0
APPID
  2
GENIUS_GENCFG4_13
 70
     0
  0
APPID
  2
GENIUS_GEVCFG0_13
 70
     0
  0
APPID
  2
CONTENTBLOCKICON
 70
     0
  0
APPID
  2
CONTENTBLOCKDESCRIPTION
 70
     0
  0
APPID
  2
ACAD_NAV_VCDISPLAY
 70
     0
  0
APPID
  2
ACAD_MLEADERVER
 70
     0
  0
APPID
  2
ACDBDYNAMICBLOCKTRUENAME
 70
     0
  0
APPID
  2
ACDBDYNAMICBLOCKGUID
 70
     0
  0
ENDTAB
  0
TABLE
  2
DIMSTYLE
 70
     1
  0
DIMSTYLE
  2
STANDARD
 70
     0
  3

  4

  5

  6

  7

 40
1.0
 41
12.0
 42
20.0
 43
200.0
 44
20.0
 45
0.0
 46
0.0
 47
0.0
 48
0.0
140
64.0
141
0.09
142
0.0
143
25.399999999999999
144
1.0
145
0.0
146
1.0
147
25.0
 71
     0
 72
     0
 73
     0
 74
     0
 75
     0
 76
     0
 77
     1
 78
     8
170
     0
171
     2
172
     1
173
     0
174
     1
175
     0
176
     7
177
     7
178
     7
  0
ENDTAB
  0
TABLE
  2
VIEW
 70
     1
  0
VIEW
  2
ALL
 70
     0
 40
4282.6198079999986
 10
0.0
 20
41.309904000000003
 41
5940.0
 11
0.0
 21
0.0
 31
1.0
 12
0.0
 22
0.0
 32
0.0
 42
50.0
 43
0.0
 44
0.0
 50
0.0
 71
     0
  0
ENDTAB
  0
TABLE
  2
UCS
 70
     0
  0
ENDTAB
  0
TABLE
  2
VPORT
 70
     1
  0
VPORT
  2
*ACTIVE
 70
     0
 10
0.0
 20
0.0
 11
1.0
 21
1.0
 12
455.88268328238968
 22
230.87311795781449
 13
0.0
 23
0.0
 14
1.0
 24
1.0
 15
0.0
 25
0.0
 16
0.0
 26
0.0
 36
1.0
 17
0.0
 27
0.0
 37
0.0
 40
1689.886589678586
 41
1.767337807606264
 42
50.0
 43
0.0
 44
0.0
 50
0.0
 51
0.0
 71
     0
 72
  1000
 73
     1
 74
     3
 75
     0
 76
     0
 77
     0
 78
     0
  0
ENDTAB
  0
ENDSEC
  0
SECTION
  2
BLOCKS
  0
ENDSEC
  0
SECTION
  2
ENTITIES
  0
POINT
  8
ARRANGE
  6
CONTINUOUS
 62
     1
 10
0.0
 20
0.0
 30
0.0
  0
CIRCLE
  8
ARRANGE
  6
CONTINUOUS
 62
     1
 10
0.0
 20
0.0
 30
0.0
 40
40.0
  0
LINE
  8
DETAIL
  6
CONTINUOUS
 62
     5
 10
2.4000000000000909
 20
470.72083602150002
 30
0.0
 11
2.265391234000163
 21
470.68225505810011
 31
0.0
  0
LINE
  8
DETAIL
  6
CONTINUOUS
 62
     5
 10
2.265391234000163
 20
470.68225505810011
 30
0.0
 11
2.1311890944002689
 21
470.64683177000012
 31
0.0
  0
LINE
  8
DETAIL
  6
CONTINUOUS
 62
     5
 10
2.1311890944002689
 20
470.64683177000012
 30
0.0
 11
1.997811709300549
 21
470.6146096176999
 31
0.0
  0
LINE
  8
DETAIL
  6
CONTINUOUS
 62
     5
 10
1.997811709300549
 20
470.6146096176999
 30
0.0
 11
1.865693756900328
 21
470.58545821949969
 31
0.0
  0
LINE
  8
DETAIL
  6
CONTINUOUS
 62
     5
 10
1.865693756900328
 20
470.58545821949969
 30
0.0
 11
1.735251061600138
 21
470.55927252129999
 31
0.0
  0
LINE
  8
DETAIL
  6
CONTINUOUS
 62
     5
 10
1.735251061600138
 20
470.55927252129999
 30
0.0
 11
1.6069330805003119
 21
470.5360199994002
 31
0.0
  0
LINE
  8
DETAIL
  6
CONTINUOUS
 62
     5
 10
1.6069330805003119
 20
470.5360199994002
 30
0.0
 11
1.481203814500077
 21
470.51565123240022
 31
0.0
  0
LINE
  8
DETAIL
  6
CONTINUOUS
 62
     5
 10
1.481203814500077
 20
470.51565123240022
 30
0.0
 11
1.3583812433003
 21
470.49811185860023
 31
0.0
  0
LINE
  8
DETAIL
  6
CONTINUOUS
 62
     5
 10
1.3583812433003
 20
470.49811185860023
 30
0.0
 11
1.238779708000493
 21
470.48334014010021
 31
0.0
  0
LINE
  8
DETAIL
  6
CONTINUOUS
 62
     5
 10
1.238779708000493
 20
470.48334014010021
 30
0.0
 11
1.122839631700117
 21
470.47130878430022
 31
0.0
  0
LINE
  8
DETAIL
  6
CONTINUOUS
 62
     5
 10
1.122839631700117
 20
470.47130878430022
 30
0.0
 11
1.010972483600199
 21
470.46197369479972
 31
0.0
  0
LINE
  8
DETAIL
  6
CONTINUOUS
 62
     5
 10
1.010972483600199
 20
470.46197369479972
 30
0.0
 11
0.9034886197000559
 21
470.45532354630001
 31
0.0
  0
LINE
  8
DETAIL
  6
CONTINUOUS
 62
     5
 10
0.9034886197000559
 20
470.45532354630001
 30
0.0
 11
0.800702829400052
 21
470.45132997410019
 31
0.0
  0
LINE
  8
DETAIL
  6
CONTINUOUS
 62
     5
 10
0.800702829400052
 20
470.45132997410019
 30
0.0
 11
0.7029437252003845
 21
470.44999999999987
 31
0.0
  0
LINE
  8
DETAIL
  6
CONTINUOUS
 62
     5
 10
2.4000000000000909
 20
475.0
 30
0.0
 11
35.000000000000448
 21
475.0
 31
0.0
  0
LINE
  8
DETAIL
  6
CONTINUOUS
 62
     5
 10
2.4000000000000909
 20
473.80000000000013
 30
0.0
 11
4.5467842370003373
 21
473.80000000000013
 31
0.0
  0
LINE
  8
DETAIL
  6
CONTINUOUS
 62
     5
 10
4.5467842370003373
 20
473.80000000000013
 30
0.0
 11
35.000000000000448
 21
473.80000000000013
 31
0.0
  0
LINE
  8
DETAIL
  6
CONTINUOUS
 62
     5
 10
1.2000000000002731
 20
472.59999999999991
 30
0.0
 11
0.0000000000004547
 21
472.59999999999991
 31
0.0
  0
LINE
  8
DETAIL
  6
CONTINUOUS
 62
     5
 10
1.2000000000002731
 20
470.72083602150002
 30
0.0
 11
0.0000000000004547
 21
470.72083602150002
 31
0.0
  0
LINE
  8
DETAIL
  6
CONTINUOUS
 62
     5
 10
94.200000000000287
 20
469.0
 30
0.0
 11
95.400000000000077
 21
469.0
 31
0.0
  0
LINE
  8
DETAIL
  6
CONTINUOUS
 62
     5
 10
0.7029437252003845
 20
470.44999999999987
 30
0.0
 11
0.6105172332004258
 21
470.45132997429982
 31
0.0
  0
LINE
  8
DETAIL
  6
CONTINUOUS
 62
     5
 10
0.6105172332004258
 20
470.45132997429982
 30
0.0
 11
0.5237127875002443
 21
470.45532354660003
 31
0.0
  0
LINE
  8
DETAIL
  6
CONTINUOUS
 62
     5
 10
0.5237127875002443
 20
470.45532354660003
 30
0.0
 11
0.44280747790026
 21
470.46197369499993
 31
0.0
  0
LINE
  8
DETAIL
  6
CONTINUOUS
 62
     5
 10
0.44280747790026
 20
470.46197369499993
 30
0.0
 11
0.3680400110001756
 21
470.4713087844998
 31
0.0
  0
LINE
  8
DETAIL
  6
CONTINUOUS
 62
     5
 10
0.3680400110001756
 20
470.4713087844998
 30
0.0
 11
0.2996268348001649
 21
470.48334014000011
 31
0.0
  0
LINE
  8
DETAIL
  6
CONTINUOUS
 62
     5
 10
0.2996268348001649
 20
470.48334014000011
 30
0.0
 11
0.2378181474005032
 21
470.49811185850012
 31
0.0
  0
LINE
  8
DETAIL
  6
CONTINUOUS
 62
     5
 10
0.2378181474005032
 20
470.49811185850012
 30
0.0
 11
0.1828365942001255
 21
470.51565123230012
 31
0.0
  0
LINE
  8
DETAIL
  6
CONTINUOUS
 62
     5
 10
0.1828365942001255
 20
470.51565123230012
 30
0.0
 11
0.134819022600368
 21
470.5360199994002
 31
0.0
  0
LINE
  8
DETAIL
  6
CONTINUOUS
 62
     5
 10
0.134819022600368
 20
470.5360199994002
 30
0.0
 11
0.0938974765003877
 21
470.55927252140009
 31
0.0
  0
LINE
  8
DETAIL
  6
CONTINUOUS
 62
     5
 10
0.0938974765003877
 20
470.55927252140009
 30
0.0
 11
0.0602314561001549
 21
470.58545821959979
 31
0.0
  0
LINE
  8
DETAIL
  6
CONTINUOUS
 62
     5
 10
0.0602314561001549
 20
470.58545821959979
 30
0.0
 11
0.0339390162002928
 21
470.61460961779989
 31
0.0
  0
LINE
  8
DETAIL
  6
CONTINUOUS
 62
     5
 10
0.0339390162002928
 20
470.61460961779989
 30
0.0
 11
0.0151015331002782
 21
470.64683177000012
 31
0.0
  0
LINE
  8
DETAIL
  6
CONTINUOUS
 62
     5
 10
0.0151015331002782
 20
470.64683177000012
 30
0.0
 11
0.003777873400395
 21
470.68225505810011
 31
0.0
  0
LINE
  8
DETAIL
  6
CONTINUOUS
 62
     5
 10
0.003777873400395
 20
470.68225505810011
 30
0.0
 11
0.0000000000004547
 21
470.72083602150002
 31
0.0
  0
LINE
  8
DETAIL
  6
CONTINUOUS
 62
     5
 10
35.000000000000448
 20
418.69999999999987
 30
0.0
 11
45.400000000000098
 21
418.69999999999987
 31
0.0
  0
LINE
  8
DETAIL
  6
CONTINUOUS
 62
     5
 10
35.000000000000448
 20
390.89987745100012
 30
0.0
 11
211.00000000000051
 21
390.89987745100012
 31
0.0
  0
LINE
  8
DETAIL
  6
CONTINUOUS
 62
     5
 10
273.26672459880052
 20
405.63823611359982
 30
0.0
 11
270.79126127090012
 21
404.88792053709989
 31
0.0
  0
LINE
  8
DETAIL
  6
CONTINUOUS
 62
     5
 10
270.79126127090012
 20
404.88792053709989
 30
0.0
 11
268.26145851310002
 21
404.01157310889988
 31
0.0
  0
LINE
  8
DETAIL
  6
CONTINUOUS
 62
     5
 10
268.26145851310002
 20
404.01157310889988
 30
0.0
 11
265.67718681160028
 21
403.00968466159958
 31
0.0
  0
LINE
  8
DETAIL
  6
CONTINUOUS
 62
     5
 10
265.67718681160028
 20
403.00968466159958
 30
0.0
 11
263.03809652379999
 21
401.88276160449999
 31
0.0
  0
LINE
  8
DETAIL
  6
CONTINUOUS
 62
     5
 10
263.03809652379999
 20
401.88276160449999
 30
0.0
 11
260.34388203610018
 21
400.63132255419993
 31
0.0
  0
LINE
  8
DETAIL
  6
CONTINUOUS
 62
     5
 10
260.34388203610018
 20
400.63132255419993
 30
0.0
 11
257.59424090450011
 21
399.25590057499988
 31
0.0
  0
LINE
  8
DETAIL
  6
CONTINUOUS
 62
     5
 10
257.59424090450011
 20
399.25590057499988
 30
0.0
 11
254.78891394620001
 21
397.75717527820012
 31
0.0
  0
LINE
  8
DETAIL
  6
CONTINUOUS
 62
     5
 10
254.78891394620001
 20
397.75717527820012
 30
0.0
 11
251.9274487797002
 21
396.1357835563
 31
0.0
  0
LINE
  8
DETAIL
  6
CONTINUOUS
 62
     5
 10
251.9274487797002
 20
396.1357835563
 30
0.0
 11
249.00943184260001
 21
394.39237342409967
 31
0.0
  0
LINE
  8
DETAIL
  6
CONTINUOUS
 62
     5
 10
249.00943184260001
 20
394.39237342409967
 30
0.0
 11
246.03440947080031
 21
392.52758159919989
 31
0.0
  0
LINE
  8
DETAIL
  6
CONTINUOUS
 62
     5
 10
246.03440947080031
 20
392.52758159919989
 30
0.0
 11
243.0019047032001
 21
390.5421273062002
 31
0.0
  0
LINE
  8
DETAIL
  6
CONTINUOUS
 62
     5
 10
243.0019047032001
 20
390.5421273062002
 30
0.0
 11
240.2180951980998
 21
388.6456766291999
 31
0.0
  0
LINE
  8
DETAIL
  6
CONTINUOUS
 62
     5
 10
35.000000000000448
 20
345.89987745100012
 30
0.0
 11
211.00000000000051
 21
345.89987745100012
 31
0.0
  0
LINE
  8
DETAIL
  6
CONTINUOUS
 62
     5
 10
273.666226714
 20
405.61887373140007
 30
0.0
 11
273.62849930660008
 21
405.65343258450002
 31
0.0
  0
LINE
  8
DETAIL
  6
CONTINUOUS
 62
     5
 10
273.62849930660008
 20
405.65343258450002
 30
0.0
 11
273.57807751479999
 21
405.67249311959989
 31
0.0
  0
LINE
  8
DETAIL
  6
CONTINUOUS
 62
     5
 10
273.57807751479999
 20
405.67249311959989
 30
0.0
 11
273.51445627980002
 21
405.67907605360011
 31
0.0
  0
LINE
  8
DETAIL
  6
CONTINUOUS
 62
     5
 10
273.51445627980002
 20
405.67907605360011
 30
0.0
 11
273.43996860540028
 21
405.67472726599999
 31
0.0
  0
LINE
  8
DETAIL
  6
CONTINUOUS
 62
     5
 10
273.43996860540028
 20
405.67472726599999
 30
0.0
 11
273.35773042170013
 21
405.66129773119968
 31
0.0
  0
LINE
  8
DETAIL
  6
CONTINUOUS
 62
     5
 10
273.35773042170013
 20
405.66129773119968
 30
0.0
 11
273.26672459880052
 21
405.63823611359982
 31
0.0
  0
LINE
  8
DETAIL
  6
CONTINUOUS
 62
     5
 10
274.20311354260002
 20
404.82358849110011
 30
0.0
 11
273.66626350840028
 21
405.61890184520013
 31
0.0
  0
LINE
  8
DETAIL
  6
CONTINUOUS
 62
     5
 10
274.75157424380041
 20
404.00834419400007
 30
0.0
 11
274.20311354260002
 21
404.82358849110011
 31
0.0
  0
LINE
  8
DETAIL
  6
CONTINUOUS
 62
     5
 10
267.03949083560019
 20
398.88440743929999
 30
0.0
 11
267.2046704759
 21
399.01348924859991
 31
0.0
  0
LINE
  8
DETAIL
  6
CONTINUOUS
 62
     5
 10
267.2046704759
 20
399.01348924859991
 30
0.0
 11
267.3821120155003
 21
399.15490554079997
 31
0.0
  0
LINE
  8
DETAIL
  6
CONTINUOUS
 62
     5
 10
267.3821120155003
 20
399.15490554079997
 30
0.0
 11
267.5716972665
 21
399.30817291029962
 31
0.0
  0
LINE
  8
DETAIL
  6
CONTINUOUS
 62
     5
 10
267.5716972665
 20
399.30817291029962
 30
0.0
 11
267.77416156700008
 21
399.4744252477999
 31
0.0
  0
LINE
  8
DETAIL
  6
CONTINUOUS
 62
     5
 10
267.77416156700008
 20
399.4744252477999
 30
0.0
 11
267.99065436090001
 21
399.65485946599978
 31
0.0
  0
LINE
  8
DETAIL
  6
CONTINUOUS
 62
     5
 10
267.99065436090001
 20
399.65485946599978
 30
0.0
 11
268.2199280857003
 21
399.84870587180012
 31
0.0
  0
LINE
  8
DETAIL
  6
CONTINUOUS
 62
     5
 10
268.2199280857003
 20
399.84870587180012
 30
0.0
 11
268.46241067760002
 21
400.05666780709998
 31
0.0
  0
LINE
  8
DETAIL
  6
CONTINUOUS
 62
     5
 10
268.46241067760002
 20
400.05666780709998
 30
0.0
 11
268.71427595990008
 21
400.27547211249998
 31
0.0
  0
LINE
  8
DETAIL
  6
CONTINUOUS
 62
     5
 10
268.71427595990008
 20
400.27547211249998
 30
0.0
 11
268.9725372605003
 21
400.50283720439973
 31
0.0
  0
LINE
  8
DETAIL
  6
CONTINUOUS
 62
     5
 10
268.9725372605003
 20
400.50283720439973
 30
0.0
 11
269.23495348670031
 21
400.73660651869972
 31
0.0
  0
LINE
  8
DETAIL
  6
CONTINUOUS
 62
     5
 10
269.23495348670031
 20
400.73660651869972
 30
0.0
 11
269.4985599826
 21
400.97427194519969
 31
0.0
  0
LINE
  8
DETAIL
  6
CONTINUOUS
 62
     5
 10
269.4985599826
 20
400.97427194519969
 30
0.0
 11
269.76234746670019
 21
401.21475048619999
 31
0.0
  0
LINE
  8
DETAIL
  6
CONTINUOUS
 62
     5
 10
269.76234746670019
 20
401.21475048619999
 30
0.0
 11
270.02485099110032
 21
401.45674678050011
 31
0.0
  0
LINE
  8
DETAIL
  6
CONTINUOUS
 62
     5
 10
270.02485099110032
 20
401.45674678050011
 30
0.0
 11
270.28432839100009
 21
401.69849097799988
 31
0.0
  0
LINE
  8
DETAIL
  6
CONTINUOUS
 62
     5
 10
270.28432839100009
 20
401.69849097799988
 30
0.0
 11
270.5385908006001
 21
401.93795901670001
 31
0.0
  0
LINE
  8
DETAIL
  6
CONTINUOUS
 62
     5
 10
270.5385908006001
 20
401.93795901670001
 30
0.0
 11
270.78733832790022
 21
402.17475958370011
 31
0.0
  0
LINE
  8
DETAIL
  6
CONTINUOUS
 62
     5
 10
270.78733832790022
 20
402.17475958370011
 30
0.0
 11
271.02950370200011
 21
402.40783845200002
 31
0.0
  0
LINE
  8
DETAIL
  6
CONTINUOUS
 62
     5
 10
271.02950370200011
 20
402.40783845200002
 30
0.0
 11
271.26511366149998
 21
402.63722774169992
 31
0.0
  0
LINE
  8
DETAIL
  6
CONTINUOUS
 62
     5
 10
271.26511366149998
 20
402.63722774169992
 30
0.0
 11
271.49412371680052
 21
402.86288165129997
 31
0.0
  0
LINE
  8
DETAIL
  6
CONTINUOUS
 62
     5
 10
271.49412371680052
 20
402.86288165129997
 30
0.0
 11
271.71565388729999
 21
403.08399055319978
 31
0.0
  0
LINE
  8
DETAIL
  6
CONTINUOUS
 62
     5
 10
271.71565388729999
 20
403.08399055319978
 30
0.0
 11
271.92912215759998
 21
403.3000661627002
 31
0.0
  0
LINE
  8
DETAIL
  6
CONTINUOUS
 62
     5
 10
271.92912215759998
 20
403.3000661627002
 30
0.0
 11
272.13352992290038
 21
403.51015118590021
 31
0.0
  0
LINE
  8
DETAIL
  6
CONTINUOUS
 62
     5
 10
272.13352992290038
 20
403.51015118590021
 30
0.0
 11
272.32774409810008
 21
403.71320544619988
 31
0.0
  0
LINE
  8
DETAIL
  6
CONTINUOUS
 62
     5
 10
272.32774409810008
 20
403.71320544619988
 30
0.0
 11
272.51151126530021
 21
403.90907072899972
 31
0.0
  0
LINE
  8
DETAIL
  6
CONTINUOUS
 62
     5
 10
272.51151126530021
 20
403.90907072899972
 30
0.0
 11
272.68449442270003
 21
404.09753669919968
 31
0.0
  0
LINE
  8
DETAIL
  6
CONTINUOUS
 62
     5
 10
272.68449442270003
 20
404.09753669919968
 30
0.0
 11
272.8457857348003
 21
404.27774852829998
 31
0.0
  0
LINE
  8
DETAIL
  6
CONTINUOUS
 62
     5
 10
272.8457857348003
 20
404.27774852829998
 30
0.0
 11
272.9944672470001
 21
404.44888182629961
 31
0.0
  0
LINE
  8
DETAIL
  6
CONTINUOUS
 62
     5
 10
272.9944672470001
 20
404.44888182629961
 30
0.0
 11
273.1301902293003
 21
404.61070090629983
 31
0.0
  0
LINE
  8
DETAIL
  6
CONTINUOUS
 62
     5
 10
273.1301902293003
 20
404.61070090629983
 30
0.0
 11
273.25256269420021
 21
404.7629880098998
 31
0.0
  0
LINE
  8
DETAIL
  6
CONTINUOUS
 62
     5
 10
273.25256269420021
 20
404.7629880098998
 30
0.0
 11
273.360788555
 21
404.90489134879999
 31
0.0
  0
LINE
  8
DETAIL
  6
CONTINUOUS
 62
     5
 10
273.360788555
 20
404.90489134879999
 30
0.0
 11
273.45395095560019
 21
405.03546610709958
 31
0.0
  0
LINE
  8
DETAIL
  6
CONTINUOUS
 62
     5
 10
273.45395095560019
 20
405.03546610709958
 30
0.0
 11
273.53200694910038
 21
405.15483889699999
 31
0.0
  0
LINE
  8
DETAIL
  6
CONTINUOUS
 62
     5
 10
273.53200694910038
 20
405.15483889699999
 30
0.0
 11
273.59477521980028
 21
405.26294124000009
 31
0.0
  0
LINE
  8
DETAIL
  6
CONTINUOUS
 62
     5
 10
273.59477521980028
 20
405.26294124000009
 30
0.0
 11
273.6417817585002
 21
405.35940315340002
 31
0.0
  0
LINE
  8
DETAIL
  6
CONTINUOUS
 62
     5
 10
273.6417817585002
 20
405.35940315340002
 30
0.0
 11
273.67262616040028
 21
405.44402157389999
 31
0.0
  0
LINE
  8
DETAIL
  6
CONTINUOUS
 62
     5
 10
273.67262616040028
 20
405.44402157389999
 30
0.0
 11
273.6869339089003
 21
405.51622509109978
 31
0.0
  0
LINE
  8
DETAIL
  6
CONTINUOUS
 62
     5
 10
273.6869339089003
 20
405.51622509109978
 30
0.0
 11
273.68392057049999
 21
405.57547803940002
 31
0.0
  0
LINE
  8
DETAIL
  6
CONTINUOUS
 62
     5
 10
273.68392057049999
 20
405.57547803940002
 30
0.0
 11
273.666226714
 21
405.61887373140007
 31
0.0
  0
LINE
  8
DETAIL
  6
CONTINUOUS
 62
     5
 10
418.11944341639992
 20
78.277838836099818
 30
0.0
 11
418.29550770649979
 21
78.108947272299702
 31
0.0
  0
LINE
  8
DETAIL
  6
CONTINUOUS
 62
     5
 10
418.29550770649979
 20
78.108947272299702
 30
0.0
 11
418.43994983450011
 21
77.94359803120004
 31
0.0
  0
LINE
  8
DETAIL
  6
CONTINUOUS
 62
     5
 10
418.43994983450011
 20
77.94359803120004
 30
0.0
 11
418.55286334540011
 21
77.782483334799963
 31
0.0
  0
LINE
  8
DETAIL
  6
CONTINUOUS
 62
     5
 10
418.55286334540011
 20
77.782483334799963
 30
0.0
 11
418.56780686180042
 21
77.757333429499795
 31
0.0
  0
LINE
  8
DETAIL
  6
CONTINUOUS
 62
     5
 10
418.56761637030007
 20
77.757326042999921
 30
0.0
 11
418.70000000000022
 21
77.528030870299972
 31
0.0
  0
LINE
  8
DETAIL
  6
CONTINUOUS
 62
     5
 10
438.61469565080012
 20
43.500001274499937
 30
0.0
 11
438.5644944407004
 21
43.5905238739997
 31
0.0
  0
LINE
  8
DETAIL
  6
CONTINUOUS
 62
     5
 10
438.5644944407004
 20
43.5905238739997
 30
0.0
 11
438.46311005340021
 21
43.800268202599909
 31
0.0
  0
LINE
  8
DETAIL
  6
CONTINUOUS
 62
     5
 10
438.46311005340021
 20
43.800268202599909
 30
0.0
 11
438.37827995949999
 21
44.017323877599672
 31
0.0
  0
LINE
  8
DETAIL
  6
CONTINUOUS
 62
     5
 10
438.37827995949999
 20
44.017323877599672
 30
0.0
 11
438.31053836640012
 21
44.240369970700158
 31
0.0
  0
LINE
  8
DETAIL
  6
CONTINUOUS
 62
     5
 10
438.31053836640012
 20
44.240369970700158
 30
0.0
 11
438.26031048919998
 21
44.468051398199798
 31
0.0
  0
LINE
  8
DETAIL
  6
CONTINUOUS
 62
     5
 10
438.26031048919998
 20
44.468051398199798
 30
0.0
 11
438.22791213149998
 21
44.6989844044001
 31
0.0
  0
LINE
  8
DETAIL
  6
CONTINUOUS
 62
     5
 10
438.22791213149998
 20
44.6989844044001
 30
0.0
 11
438.21354823050018
 21
44.931763367099848
 31
0.0
  0
LINE
  8
DETAIL
  6
CONTINUOUS
 62
     5
 10
438.21354823050018
 20
44.931763367099848
 30
0.0
 11
438.2173112759001
 21
45.164970418200028
 31
0.0
  0
LINE
  8
DETAIL
  6
CONTINUOUS
 62
     5
 10
438.2173112759001
 20
45.164970418200028
 30
0.0
 11
438.23918030160041
 21
45.397181851099958
 31
0.0
  0
LINE
  8
DETAIL
  6
CONTINUOUS
 62
     5
 10
438.23918030160041
 20
45.397181851099958
 30
0.0
 11
438.27902277130028
 21
45.626990733499959
 31
0.0
  0
LINE
  8
DETAIL
  6
CONTINUOUS
 62
     5
 10
438.27902277130028
 20
45.626990733499959
 30
0.0
 11
438.33659451280022
 21
45.852998213500101
 31
0.0
  0
LINE
  8
DETAIL
  6
CONTINUOUS
 62
     5
 10
438.33659451280022
 20
45.852998213500101
 30
0.0
 11
438.41154719800028
 21
46.073845203599817
 31
0.0
  0
LINE
  8
DETAIL
  6
CONTINUOUS
 62
     5
 10
438.41154719800028
 20
46.073845203599817
 30
0.0
 11
438.50342762980023
 21
46.288199536699707
 31
0.0
  0
LINE
  8
DETAIL
  6
CONTINUOUS
 62
     5
 10
438.50342762980023
 20
46.288199536699707
 30
0.0
 11
438.61168109729988
 21
46.494768253200156
 31
0.0
  0
LINE
  8
DETAIL
  6
CONTINUOUS
 62
     5
 10
438.61168109729988
 20
46.494768253200156
 30
0.0
 11
438.73565536110033
 21
46.692306178099898
 31
0.0
  0
LINE
  8
DETAIL
  6
CONTINUOUS
 62
     5
 10
438.73565536110033
 20
46.692306178099898
 30
0.0
 11
438.87460086830009
 21
46.879617986599897
 31
0.0
  0
LINE
  8
DETAIL
  6
CONTINUOUS
 62
     5
 10
438.87460086830009
 20
46.879617986599897
 30
0.0
 11
439.02767828740019
 21
47.055571543799942
 31
0.0
  0
LINE
  8
DETAIL
  6
CONTINUOUS
 62
     5
 10
439.02767828740019
 20
47.055571543799942
 30
0.0
 11
439.19396198489989
 21
47.219102476399698
 31
0.0
  0
LINE
  8
DETAIL
  6
CONTINUOUS
 62
     5
 10
439.19396198489989
 20
47.219102476399698
 30
0.0
 11
439.3724462764003
 21
47.369221715000087
 31
0.0
  0
LINE
  8
DETAIL
  6
CONTINUOUS
 62
     5
 10
439.3724462764003
 20
47.369221715000087
 30
0.0
 11
439.5620524725
 21
47.505022114999967
 31
0.0
  0
LINE
  8
DETAIL
  6
CONTINUOUS
 62
     5
 10
439.5620524725
 20
47.505022114999967
 30
0.0
 11
439.76163428479998
 21
47.625682832199793
 31
0.0
  0
LINE
  8
DETAIL
  6
CONTINUOUS
 62
     5
 10
439.76163428479998
 20
47.625682832199793
 30
0.0
 11
439.96998575140009
 21
47.730474934200167
 31
0.0
  0
LINE
  8
DETAIL
  6
CONTINUOUS
 62
     5
 10
439.96998575140009
 20
47.730474934200167
 30
0.0
 11
440.18584779889989
 21
47.818765241299843
 31
0.0
  0
LINE
  8
DETAIL
  6
CONTINUOUS
 62
     5
 10
440.18584779889989
 20
47.818765241299843
 30
0.0
 11
440.40791600030019
 21
47.89002026470007
 31
0.0
  0
LINE
  8
DETAIL
  6
CONTINUOUS
 62
     5
 10
440.40791600030019
 20
47.89002026470007
 30
0.0
 11
440.63484843900011
 21
47.943809420200068
 31
0.0
  0
LINE
  8
DETAIL
  6
CONTINUOUS
 62
     5
 10
440.63484843900011
 20
47.943809420200068
 30
0.0
 11
440.86527381090042
 21
47.979807628699753
 31
0.0
  0
LINE
  8
DETAIL
  6
CONTINUOUS
 62
     5
 10
440.86527381090042
 20
47.979807628699753
 30
0.0
 11
441.09779978650022
 21
47.997797283099779
 31
0.0
  0
LINE
  8
DETAIL
  6
CONTINUOUS
 62
     5
 10
441.09779978650022
 20
47.997797283099779
 30
0.0
 11
441.20319214300031
 21
47.999985781799737
 31
0.0
  0
LINE
  8
DETAIL
  6
CONTINUOUS
 62
     5
 10
418.56780686180042
 20
77.757333429499795
 30
0.0
 11
418.6339676037
 21
77.62352651709989
 31
0.0
  0
LINE
  8
DETAIL
  6
CONTINUOUS
 62
     5
 10
418.6339676037
 20
77.62352651709989
 30
0.0
 11
418.68298197340027
 21
77.464650911999797
 31
0.0
  0
LINE
  8
DETAIL
  6
CONTINUOUS
 62
     5
 10
418.68298197340027
 20
77.464650911999797
 30
0.0
 11
418.70000000000022
 21
77.306548741499697
 31
0.0
  0
LINE
  8
DETAIL
  6
CONTINUOUS
 62
     5
 10
274.75152748510038
 20
404.00830845229967
 30
0.0
 11
274.7689842087002
 21
403.96530968569999
 31
0.0
  0
LINE
  8
DETAIL
  6
CONTINUOUS
 62
     5
 10
274.7689842087002
 20
403.96530968569999
 30
0.0
 11
274.77197039740031
 21
403.90568577929992
 31
0.0
  0
LINE
  8
DETAIL
  6
CONTINUOUS
 62
     5
 10
274.77197039740031
 20
403.90568577929992
 30
0.0
 11
274.75740808609999
 21
403.83294217859981
 31
0.0
  0
LINE
  8
DETAIL
  6
CONTINUOUS
 62
     5
 10
274.75740808609999
 20
403.83294217859981
 30
0.0
 11
274.72612861970038
 21
403.74764630359999
 31
0.0
  0
LINE
  8
DETAIL
  6
CONTINUOUS
 62
     5
 10
274.72612861970038
 20
403.74764630359999
 30
0.0
 11
274.67853945100012
 21
403.65041029219992
 31
0.0
  0
LINE
  8
DETAIL
  6
CONTINUOUS
 62
     5
 10
274.67853945100012
 20
403.65041029219992
 30
0.0
 11
274.61504666000008
 21
403.54141928609988
 31
0.0
  0
LINE
  8
DETAIL
  6
CONTINUOUS
 62
     5
 10
274.61504666000008
 20
403.54141928609988
 30
0.0
 11
274.53613609920012
 21
403.42103381490011
 31
0.0
  0
LINE
  8
DETAIL
  6
CONTINUOUS
 62
     5
 10
274.53613609920012
 20
403.42103381490011
 30
0.0
 11
274.44200484540028
 21
403.28933667810003
 31
0.0
  0
LINE
  8
DETAIL
  6
CONTINUOUS
 62
     5
 10
274.44200484540028
 20
403.28933667810003
 30
0.0
 11
274.33270896680011
 21
403.1462084425998
 31
0.0
  0
LINE
  8
DETAIL
  6
CONTINUOUS
 62
     5
 10
274.33270896680011
 20
403.1462084425998
 30
0.0
 11
274.20918609050028
 21
402.99260715010001
 31
0.0
  0
LINE
  8
DETAIL
  6
CONTINUOUS
 62
     5
 10
274.20918609050028
 20
402.99260715010001
 30
0.0
 11
274.07225039230008
 21
402.82939719279972
 31
0.0
  0
LINE
  8
DETAIL
  6
CONTINUOUS
 62
     5
 10
274.07225039230008
 20
402.82939719279972
 30
0.0
 11
273.92231327920041
 21
402.65680880109988
 31
0.0
  0
LINE
  8
DETAIL
  6
CONTINUOUS
 62
     5
 10
273.92231327920041
 20
402.65680880109988
 30
0.0
 11
273.7597465445001
 21
402.47509543409973
 31
0.0
  0
LINE
  8
DETAIL
  6
CONTINUOUS
 62
     5
 10
273.7597465445001
 20
402.47509543409973
 30
0.0
 11
273.5854737615
 21
402.28508068050002
 31
0.0
  0
LINE
  8
DETAIL
  6
CONTINUOUS
 62
     5
 10
273.5854737615
 20
402.28508068050002
 30
0.0
 11
273.40041305670002
 21
402.08762420720001
 31
0.0
  0
LINE
  8
DETAIL
  6
CONTINUOUS
 62
     5
 10
273.40041305670002
 20
402.08762420720001
 30
0.0
 11
273.20490786330038
 21
401.88293925379998
 31
0.0
  0
LINE
  8
DETAIL
  6
CONTINUOUS
 62
     5
 10
273.20490786330038
 20
401.88293925379998
 30
0.0
 11
272.99922211090012
 21
401.67119024779998
 31
0.0
  0
LINE
  8
DETAIL
  6
CONTINUOUS
 62
     5
 10
272.99922211090012
 20
401.67119024779998
 30
0.0
 11
272.78448533950001
 21
401.45341346829991
 31
0.0
  0
LINE
  8
DETAIL
  6
CONTINUOUS
 62
     5
 10
272.78448533950001
 20
401.45341346829991
 30
0.0
 11
272.56174337020002
 21
401.23060953930008
 31
0.0
  0
LINE
  8
DETAIL
  6
CONTINUOUS
 62
     5
 10
272.56174337020002
 20
401.23060953930008
 30
0.0
 11
272.33143305060003
 21
401.00313260419989
 31
0.0
  0
LINE
  8
DETAIL
  6
CONTINUOUS
 62
     5
 10
272.33143305060003
 20
401.00313260419989
 30
0.0
 11
272.09411257030013
 21
400.77148633209981
 31
0.0
  0
LINE
  8
DETAIL
  6
CONTINUOUS
 62
     5
 10
272.09411257030013
 20
400.77148633209981
 30
0.0
 11
271.85041028210031
 21
400.53626515420001
 31
0.0
  0
LINE
  8
DETAIL
  6
CONTINUOUS
 62
     5
 10
271.85041028210031
 20
400.53626515420001
 30
0.0
 11
271.60090289969997
 21
400.29803092690003
 31
0.0
  0
LINE
  8
DETAIL
  6
CONTINUOUS
 62
     5
 10
271.60090289969997
 20
400.29803092690003
 30
0.0
 11
271.34623928020028
 21
400.05743260530022
 31
0.0
  0
LINE
  8
DETAIL
  6
CONTINUOUS
 62
     5
 10
271.34623928020028
 20
400.05743260530022
 30
0.0
 11
271.08657826050012
 21
399.81470565069998
 31
0.0
  0
LINE
  8
DETAIL
  6
CONTINUOUS
 62
     5
 10
271.08657826050012
 20
399.81470565069998
 30
0.0
 11
270.82389330460052
 21
399.57170218660002
 31
0.0
  0
LINE
  8
DETAIL
  6
CONTINUOUS
 62
     5
 10
270.82389330460052
 20
399.57170218660002
 30
0.0
 11
270.55945994990037
 21
399.32977425589968
 31
0.0
  0
LINE
  8
DETAIL
  6
CONTINUOUS
 62
     5
 10
270.55945994990037
 20
399.32977425589968
 30
0.0
 11
270.29536717590008
 21
399.0907827538
 31
0.0
  0
LINE
  8
DETAIL
  6
CONTINUOUS
 62
     5
 10
270.29536717590008
 20
399.0907827538
 30
0.0
 11
270.03345113559999
 21
398.85656524019998
 31
0.0
  0
LINE
  8
DETAIL
  6
CONTINUOUS
 62
     5
 10
270.03345113559999
 20
398.85656524019998
 30
0.0
 11
269.77556197150028
 21
398.62867584449998
 31
0.0
  0
LINE
  8
DETAIL
  6
CONTINUOUS
 62
     5
 10
269.77556197150028
 20
398.62867584449998
 30
0.0
 11
269.52310428710013
 21
398.40851605460011
 31
0.0
  0
LINE
  8
DETAIL
  6
CONTINUOUS
 62
     5
 10
269.52310428710013
 20
398.40851605460011
 30
0.0
 11
269.27910340080012
 21
398.19847800970001
 31
0.0
  0
LINE
  8
DETAIL
  6
CONTINUOUS
 62
     5
 10
269.27910340080012
 20
398.19847800970001
 30
0.0
 11
269.04639843440009
 21
398.00108433920008
 31
0.0
  0
LINE
  8
DETAIL
  6
CONTINUOUS
 62
     5
 10
269.04639843440009
 20
398.00108433920008
 30
0.0
 11
268.82679884049998
 21
397.81745653649978
 31
0.0
  0
LINE
  8
DETAIL
  6
CONTINUOUS
 62
     5
 10
268.82679884049998
 20
397.81745653649978
 30
0.0
 11
268.62393212970028
 21
397.65040232730001
 31
0.0
  0
LINE
  8
DETAIL
  6
CONTINUOUS
 62
     5
 10
268.62393212970028
 20
397.65040232730001
 30
0.0
 11
268.43514517170019
 21
397.49741574870001
 31
0.0
  0
LINE
  8
DETAIL
  6
CONTINUOUS
 62
     5
 10
268.43514517170019
 20
397.49741574870001
 30
0.0
 11
268.25892472340001
 21
397.35663860049999
 31
0.0
  0
LINE
  8
DETAIL
  6
CONTINUOUS
 62
     5
 10
268.25892472340001
 20
397.35663860049999
 30
0.0
 11
268.09563861920009
 21
397.22880078290018
 31
0.0
  0
LINE
  8
DETAIL
  6
CONTINUOUS
 62
     5
 10
418.11944341639992
 20
69.085450680599934
 30
0.0
 11
418.25331402109992
 21
68.740779496200048
 31
0.0
  0
LINE
  8
DETAIL
  6
CONTINUOUS
 62
     5
 10
418.25331402109992
 20
68.740779496200048
 30
0.0
 11
418.36981887670032
 21
68.401815850799721
 31
0.0
  0
LINE
  8
DETAIL
  6
CONTINUOUS
 62
     5
 10
418.36981887670032
 20
68.401815850799721
 30
0.0
 11
418.46896365220022
 21
68.069575436699779
 31
0.0
  0
LINE
  8
DETAIL
  6
CONTINUOUS
 62
     5
 10
418.46896365220022
 20
68.069575436699779
 30
0.0
 11
418.55073134020029
 21
67.741011176499796
 31
0.0
  0
LINE
  8
DETAIL
  6
CONTINUOUS
 62
     5
 10
418.55073134020029
 20
67.741011176499796
 30
0.0
 11
418.61534838050011
 21
67.413532384000064
 31
0.0
  0
LINE
  8
DETAIL
  6
CONTINUOUS
 62
     5
 10
418.61534838050011
 20
67.413532384000064
 30
0.0
 11
418.66209010030019
 21
67.086785577700084
 31
0.0
  0
LINE
  8
DETAIL
  6
CONTINUOUS
 62
     5
 10
418.66209010030019
 20
67.086785577700084
 30
0.0
 11
418.69022615770018
 21
66.75940158349978
 31
0.0
  0
LINE
  8
DETAIL
  6
CONTINUOUS
 62
     5
 10
418.69022615770018
 20
66.75940158349978
 30
0.0
 11
418.70000000000022
 21
66.431836792599825
 31
0.0
  0
LINE
  8
DETAIL
  6
CONTINUOUS
 62
     5
 10
0.0
 20
-472.60000000000008
 30
0.0
 11
0.0
 21
-3.2291639784998551
 31
0.0
  0
LINE
  8
DETAIL
  6
CONTINUOUS
 62
     5
 10
0.0
 20
-3.2291639784998551
 30
0.0
 11
0.0
 21
3.2291639784998551
 31
0.0
  0
LINE
  8
DETAIL
  6
CONTINUOUS
 62
     5
 10
0.0
 20
3.2291639784998551
 30
0.0
 11
0.0000000000004547
 21
472.59999999999991
 31
0.0
  0
LINE
  8
DETAIL
  6
CONTINUOUS
 62
     5
 10
1.1999999999998181
 20
-472.60000000000008
 30
0.0
 11
1.1999999999998181
 21
-470.72083602150002
 31
0.0
  0
LINE
  8
DETAIL
  6
CONTINUOUS
 62
     5
 10
1.1999999999998181
 20
-3.2291639784998551
 30
0.0
 11
1.1999999999998181
 21
3.2291639784998551
 31
0.0
  0
LINE
  8
DETAIL
  6
CONTINUOUS
 62
     5
 10
1.2000000000002731
 20
470.72083602150002
 30
0.0
 11
1.2000000000002731
 21
472.59999999999991
 31
0.0
  0
LINE
  8
DETAIL
  6
CONTINUOUS
 62
     5
 10
2.4000000000000909
 20
-473.80000000000013
 30
0.0
 11
2.4000000000000909
 21
-475.0
 31
0.0
  0
LINE
  8
DETAIL
  6
CONTINUOUS
 62
     5
 10
2.4000000000000909
 20
473.80000000000013
 30
0.0
 11
2.4000000000000909
 21
475.0
 31
0.0
  0
LINE
  8
DETAIL
  6
CONTINUOUS
 62
     5
 10
1.1999999999998181
 20
3.2291639784998551
 30
0.0
 11
1.202321499300524
 21
3.271688795899991
 31
0.0
  0
LINE
  8
DETAIL
  6
CONTINUOUS
 62
     5
 10
1.202321499300524
 20
3.271688795899991
 30
0.0
 11
1.209218517400132
 21
3.310193781900125
 31
0.0
  0
LINE
  8
DETAIL
  6
CONTINUOUS
 62
     5
 10
1.209218517400132
 20
3.310193781900125
 30
0.0
 11
1.2205736384003101
 21
3.3445829229999622
 31
0.0
  0
LINE
  8
DETAIL
  6
CONTINUOUS
 62
     5
 10
1.2205736384003101
 20
3.3445829229999622
 30
0.0
 11
1.2362702213004011
 21
3.3751442599000261
 31
0.0
  0
LINE
  8
DETAIL
  6
CONTINUOUS
 62
     5
 10
1.2362702213004011
 20
3.3751442599000261
 30
0.0
 11
1.2561889300004621
 21
3.4021046421999031
 31
0.0
  0
LINE
  8
DETAIL
  6
CONTINUOUS
 62
     5
 10
1.2561889300004621
 20
3.4021046421999031
 30
0.0
 11
1.280196968800283
 21
3.425551630400149
 31
0.0
  0
LINE
  8
DETAIL
  6
CONTINUOUS
 62
     5
 10
1.280196968800283
 20
3.425551630400149
 30
0.0
 11
1.3081514867999431
 21
3.4456154065001101
 31
0.0
  0
LINE
  8
DETAIL
  6
CONTINUOUS
 62
     5
 10
1.3081514867999431
 20
3.4456154065001101
 30
0.0
 11
1.3272981833997619
 21
3.455727108399969
 31
0.0
  0
LINE
  8
DETAIL
  6
CONTINUOUS
 62
     5
 10
0.0
 20
3.2291639784998551
 30
0.0
 11
0.0037825319004696
 21
3.2677662470996438
 31
0.0
  0
LINE
  8
DETAIL
  6
CONTINUOUS
 62
     5
 10
0.0037825319004696
 20
3.2677662470996438
 30
0.0
 11
0.0151155460002883
 21
3.303199586699975
 31
0.0
  0
LINE
  8
DETAIL
  6
CONTINUOUS
 62
     5
 10
0.0151155460002883
 20
3.303199586699975
 30
0.0
 11
0.0339574894001089
 21
3.335416577900105
 31
0.0
  0
LINE
  8
DETAIL
  6
CONTINUOUS
 62
     5
 10
0.0339574894001089
 20
3.335416577900105
 30
0.0
 11
0.0602506516997892
 21
3.3645594791000799
 31
0.0
  0
LINE
  8
DETAIL
  6
CONTINUOUS
 62
     5
 10
0.0602506516997892
 20
3.3645594791000799
 30
0.0
 11
0.0939292619004846
 21
3.3907476204999512
 31
0.0
  0
LINE
  8
DETAIL
  6
CONTINUOUS
 62
     5
 10
0.0939292619004846
 20
3.3907476204999512
 30
0.0
 11
0.1348646695000753
 21
3.4140023671998279
 31
0.0
  0
LINE
  8
DETAIL
  6
CONTINUOUS
 62
     5
 10
0.1348646695000753
 20
3.4140023671998279
 30
0.0
 11
0.1828745927005002
 21
3.4343637056999801
 31
0.0
  0
LINE
  8
DETAIL
  6
CONTINUOUS
 62
     5
 10
0.1828745927005002
 20
3.4343637056999801
 30
0.0
 11
0.2378433338999457
 21
3.451895101499757
 31
0.0
  0
LINE
  8
DETAIL
  6
CONTINUOUS
 62
     5
 10
0.2378433338999457
 20
3.451895101499757
 30
0.0
 11
0.2996633160000783
 21
3.4666664489000141
 31
0.0
  0
LINE
  8
DETAIL
  6
CONTINUOUS
 62
     5
 10
0.2996633160000783
 20
3.4666664489000141
 30
0.0
 11
0.3680885326002681
 21
3.4786984472998479
 31
0.0
  0
LINE
  8
DETAIL
  6
CONTINUOUS
 62
     5
 10
0.3680885326002681
 20
3.4786984472998479
 30
0.0
 11
0.442834540900094
 21
3.4880299021997421
 31
0.0
  0
LINE
  8
DETAIL
  6
CONTINUOUS
 62
     5
 10
0.442834540900094
 20
3.4880299021997421
 30
0.0
 11
0.5237117889000729
 21
3.4946763899997682
 31
0.0
  0
LINE
  8
DETAIL
  6
CONTINUOUS
 62
     5
 10
0.5237117889000729
 20
3.4946763899997682
 30
0.0
 11
0.6105127692999304
 21
3.4986695419997891
 31
0.0
  0
LINE
  8
DETAIL
  6
CONTINUOUS
 62
     5
 10
0.6105127692999304
 20
3.4986695419997891
 30
0.0
 11
0.7029437252003845
 21
3.5
 31
0.0
  0
LINE
  8
DETAIL
  6
CONTINUOUS
 62
     5
 10
253.64716877550021
 20
386.35192365829971
 30
0.0
 11
255.5912518522
 21
388.49277500670001
 31
0.0
  0
LINE
  8
DETAIL
  6
CONTINUOUS
 62
     5
 10
255.5912518522
 20
388.49277500670001
 30
0.0
 11
257.64707705640012
 21
390.61669300599988
 31
0.0
  0
LINE
  8
DETAIL
  6
CONTINUOUS
 62
     5
 10
257.64707705640012
 20
390.61669300599988
 30
0.0
 11
259.81834425200032
 21
392.72201199079967
 31
0.0
  0
LINE
  8
DETAIL
  6
CONTINUOUS
 62
     5
 10
259.81834425200032
 20
392.72201199079967
 30
0.0
 11
262.1063696547003
 21
394.80428592079988
 31
0.0
  0
LINE
  8
DETAIL
  6
CONTINUOUS
 62
     5
 10
262.1063696547003
 20
394.80428592079988
 30
0.0
 11
264.51334404170029
 21
396.85957345679992
 31
0.0
  0
LINE
  8
DETAIL
  6
CONTINUOUS
 62
     5
 10
264.51334404170029
 20
396.85957345679992
 30
0.0
 11
267.03949083560019
 21
398.88440743929999
 31
0.0
  0
LINE
  8
DETAIL
  6
CONTINUOUS
 62
     5
 10
255.7668516386002
 20
385.8190023246998
 30
0.0
 11
256.56535193780007
 21
386.69256563179988
 31
0.0
  0
LINE
  8
DETAIL
  6
CONTINUOUS
 62
     5
 10
256.56535193780007
 20
386.69256563179988
 30
0.0
 11
257.42801911110018
 21
387.6108897836998
 31
0.0
  0
LINE
  8
DETAIL
  6
CONTINUOUS
 62
     5
 10
257.42801911110018
 20
387.6108897836998
 30
0.0
 11
258.35205756200003
 21
388.56682227980002
 31
0.0
  0
LINE
  8
DETAIL
  6
CONTINUOUS
 62
     5
 10
258.35205756200003
 20
388.56682227980002
 30
0.0
 11
259.3367165259001
 21
389.55566249240019
 31
0.0
  0
LINE
  8
DETAIL
  6
CONTINUOUS
 62
     5
 10
259.3367165259001
 20
389.55566249240019
 30
0.0
 11
260.38181468680023
 21
390.57345639229959
 31
0.0
  0
LINE
  8
DETAIL
  6
CONTINUOUS
 62
     5
 10
260.38181468680023
 20
390.57345639229959
 30
0.0
 11
261.48409117160008
 21
391.61356260550019
 31
0.0
  0
LINE
  8
DETAIL
  6
CONTINUOUS
 62
     5
 10
261.48409117160008
 20
391.61356260550019
 30
0.0
 11
262.65123113359999
 21
392.67957239219999
 31
0.0
  0
LINE
  8
DETAIL
  6
CONTINUOUS
 62
     5
 10
262.65123113359999
 20
392.67957239219999
 30
0.0
 11
263.88714197070021
 21
393.77120366729997
 31
0.0
  0
LINE
  8
DETAIL
  6
CONTINUOUS
 62
     5
 10
263.88714197070021
 20
393.77120366729997
 30
0.0
 11
265.20095531480001
 21
394.89197823860007
 31
0.0
  0
LINE
  8
DETAIL
  6
CONTINUOUS
 62
     5
 10
265.20095531480001
 20
394.89197823860007
 30
0.0
 11
266.60402840460029
 21
396.04621461779971
 31
0.0
  0
LINE
  8
DETAIL
  6
CONTINUOUS
 62
     5
 10
266.60402840460029
 20
396.04621461779971
 30
0.0
 11
268.09563861920009
 21
397.22880078290018
 31
0.0
  0
LINE
  8
DETAIL
  6
CONTINUOUS
 62
     5
 10
418.11944341639992
 20
-86.590491154400297
 30
0.0
 11
418.25331402109992
 21
-86.935162338800183
 31
0.0
  0
LINE
  8
DETAIL
  6
CONTINUOUS
 62
     5
 10
418.25331402109992
 20
-86.935162338800183
 30
0.0
 11
418.36981887670032
 21
-87.27412598420004
 31
0.0
  0
LINE
  8
DETAIL
  6
CONTINUOUS
 62
     5
 10
418.36981887670032
 20
-87.27412598420004
 30
0.0
 11
418.46896365220022
 21
-87.606366398299983
 31
0.0
  0
LINE
  8
DETAIL
  6
CONTINUOUS
 62
     5
 10
418.46896365220022
 20
-87.606366398299983
 30
0.0
 11
418.55073134020029
 21
-87.934930658499979
 31
0.0
  0
LINE
  8
DETAIL
  6
CONTINUOUS
 62
     5
 10
418.55073134020029
 20
-87.934930658499979
 30
0.0
 11
418.61534838050011
 21
-88.262409451000153
 31
0.0
  0
LINE
  8
DETAIL
  6
CONTINUOUS
 62
     5
 10
418.61534838050011
 20
-88.262409451000153
 30
0.0
 11
418.66209010030019
 21
-88.589156257300147
 31
0.0
  0
LINE
  8
DETAIL
  6
CONTINUOUS
 62
     5
 10
418.66209010030019
 20
-88.589156257300147
 30
0.0
 11
418.69022615770018
 21
-88.91654025150001
 31
0.0
  0
LINE
  8
DETAIL
  6
CONTINUOUS
 62
     5
 10
418.69022615770018
 20
-88.91654025150001
 30
0.0
 11
418.70000000000022
 21
-89.244105042399966
 31
0.0
  0
LINE
  8
DETAIL
  6
CONTINUOUS
 62
     5
 10
1.2000000000002731
 20
470.72083602150002
 30
0.0
 11
1.20231499700003
 21
470.67836518639979
 31
0.0
  0
LINE
  8
DETAIL
  6
CONTINUOUS
 62
     5
 10
1.20231499700003
 20
470.67836518639979
 30
0.0
 11
1.2091970260003111
 21
470.63989167839998
 31
0.0
  0
LINE
  8
DETAIL
  6
CONTINUOUS
 62
     5
 10
1.2091970260003111
 20
470.63989167839998
 30
0.0
 11
1.2205353037002169
 21
470.60550902229988
 31
0.0
  0
LINE
  8
DETAIL
  6
CONTINUOUS
 62
     5
 10
1.2205353037002169
 20
470.60550902229988
 30
0.0
 11
1.2362200608004059
 21
470.57493664370003
 31
0.0
  0
LINE
  8
DETAIL
  6
CONTINUOUS
 62
     5
 10
1.2362200608004059
 20
470.57493664370003
 30
0.0
 11
1.2561458983004741
 21
470.54794781419969
 31
0.0
  0
LINE
  8
DETAIL
  6
CONTINUOUS
 62
     5
 10
1.2561458983004741
 20
470.54794781419969
 30
0.0
 11
1.2801656917004041
 21
470.52447452169957
 31
0.0
  0
LINE
  8
DETAIL
  6
CONTINUOUS
 62
     5
 10
1.2801656917004041
 20
470.52447452169957
 30
0.0
 11
1.308091932000025
 21
470.50441660159998
 31
0.0
  0
LINE
  8
DETAIL
  6
CONTINUOUS
 62
     5
 10
1.308091932000025
 20
470.50441660159998
 30
0.0
 11
1.327292472900353
 21
470.4942721540001
 31
0.0
  0
LINE
  8
DETAIL
  6
CONTINUOUS
 62
     5
 10
4.5467842370003373
 20
475.0
 30
0.0
 11
4.5467842370003373
 21
473.80000000000013
 31
0.0
  0
LINE
  8
DETAIL
  6
CONTINUOUS
 62
     5
 10
4.5467842369998834
 20
-475.0
 30
0.0
 11
4.5467842369998834
 21
-473.80000000000013
 31
0.0
  0
LINE
  8
DETAIL
  6
CONTINUOUS
 62
     5
 10
35.0
 20
-475.0
 30
0.0
 11
35.000000000000448
 21
475.0
 31
0.0
  0
LINE
  8
DETAIL
  6
CONTINUOUS
 62
     5
 10
418.56761637030007
 20
-77.91861579200031
 30
0.0
 11
418.70000000000022
 21
-78.147910964699818
 31
0.0
  0
LINE
  8
DETAIL
  6
CONTINUOUS
 62
     5
 10
418.56780686180042
 20
-77.918608405499981
 30
0.0
 11
418.6339676037
 21
-78.052415317900341
 31
0.0
  0
LINE
  8
DETAIL
  6
CONTINUOUS
 62
     5
 10
418.6339676037
 20
-78.052415317900341
 30
0.0
 11
418.68298197340027
 21
-78.211290922999979
 31
0.0
  0
LINE
  8
DETAIL
  6
CONTINUOUS
 62
     5
 10
418.68298197340027
 20
-78.211290922999979
 30
0.0
 11
418.70000000000022
 21
-78.369393093500094
 31
0.0
  0
LINE
  8
DETAIL
  6
CONTINUOUS
 62
     5
 10
0.0
 20
-470.72083602150002
 30
0.0
 11
0.0037778733999403
 21
-470.68225505820021
 31
0.0
  0
LINE
  8
DETAIL
  6
CONTINUOUS
 62
     5
 10
0.0037778733999403
 20
-470.68225505820021
 30
0.0
 11
0.0151015330998234
 21
-470.64683177020021
 31
0.0
  0
LINE
  8
DETAIL
  6
CONTINUOUS
 62
     5
 10
0.0151015330998234
 20
-470.64683177020021
 30
0.0
 11
0.033939016000204
 21
-470.61460961820012
 31
0.0
  0
LINE
  8
DETAIL
  6
CONTINUOUS
 62
     5
 10
0.033939016000204
 20
-470.61460961820012
 30
0.0
 11
0.0602314555999328
 21
-470.58545822000002
 31
0.0
  0
LINE
  8
DETAIL
  6
CONTINUOUS
 62
     5
 10
0.0602314555999328
 20
-470.58545822000002
 30
0.0
 11
0.0938974758000768
 21
-470.55927252190003
 31
0.0
  0
LINE
  8
DETAIL
  6
CONTINUOUS
 62
     5
 10
0.0938974758000768
 20
-470.55927252190003
 30
0.0
 11
0.134819021399835
 21
-470.53602000000001
 31
0.0
  0
LINE
  8
DETAIL
  6
CONTINUOUS
 62
     5
 10
0.134819021399835
 20
-470.53602000000001
 30
0.0
 11
0.1828365920000579
 21
-470.51565123320012
 31
0.0
  0
LINE
  8
DETAIL
  6
CONTINUOUS
 62
     5
 10
0.1828365920000579
 20
-470.51565123320012
 30
0.0
 11
0.2378181439999025
 21
-470.49811185950011
 31
0.0
  0
LINE
  8
DETAIL
  6
CONTINUOUS
 62
     5
 10
0.2378181439999025
 20
-470.49811185950011
 30
0.0
 11
0.2996268318001967
 21
-470.48334014080001
 31
0.0
  0
LINE
  8
DETAIL
  6
CONTINUOUS
 62
     5
 10
0.2996268318001967
 20
-470.48334014080001
 30
0.0
 11
0.3680400089001523
 21
-470.47130878480021
 31
0.0
  0
LINE
  8
DETAIL
  6
CONTINUOUS
 62
     5
 10
0.3680400089001523
 20
-470.47130878480021
 30
0.0
 11
0.4428074758998264
 21
-470.4619736953
 31
0.0
  0
LINE
  8
DETAIL
  6
CONTINUOUS
 62
     5
 10
0.4428074758998264
 20
-470.4619736953
 30
0.0
 11
0.523712785799944
 21
-470.45532354670007
 31
0.0
  0
LINE
  8
DETAIL
  6
CONTINUOUS
 62
     5
 10
0.523712785799944
 20
-470.45532354670007
 30
0.0
 11
0.6105172331999711
 21
-470.45132997430011
 31
0.0
  0
LINE
  8
DETAIL
  6
CONTINUOUS
 62
     5
 10
0.6105172331999711
 20
-470.45132997430011
 30
0.0
 11
0.7029437251999298
 21
-470.44999999999999
 31
0.0
  0
LINE
  8
DETAIL
  6
CONTINUOUS
 62
     5
 10
198.0892895905998
 20
86.573631352900065
 30
0.0
 11
197.74662947140041
 21
86.565497638900069
 31
0.0
  0
LINE
  8
DETAIL
  6
CONTINUOUS
 62
     5
 10
197.74662947140041
 20
86.565497638900069
 30
0.0
 11
197.40531494950031
 21
86.538695676299994
 31
0.0
  0
LINE
  8
DETAIL
  6
CONTINUOUS
 62
     5
 10
197.40531494950031
 20
86.538695676299994
 30
0.0
 11
197.06696454070021
 21
86.493326229599916
 31
0.0
  0
LINE
  8
DETAIL
  6
CONTINUOUS
 62
     5
 10
197.06696454070021
 20
86.493326229599916
 30
0.0
 11
196.7331673757003
 21
86.429543548400034
 31
0.0
  0
LINE
  8
DETAIL
  6
CONTINUOUS
 62
     5
 10
196.7331673757003
 20
86.429543548400034
 30
0.0
 11
196.40543982990039
 21
86.347589555499781
 31
0.0
  0
LINE
  8
DETAIL
  6
CONTINUOUS
 62
     5
 10
196.40543982990039
 20
86.347589555499781
 30
0.0
 11
196.08553216610019
 21
86.247842961599886
 31
0.0
  0
LINE
  8
DETAIL
  6
CONTINUOUS
 62
     5
 10
196.08553216610019
 20
86.247842961599886
 30
0.0
 11
195.7751945714999
 21
86.130847918199805
 31
0.0
  0
LINE
  8
DETAIL
  6
CONTINUOUS
 62
     5
 10
195.7751945714999
 20
86.130847918199805
 30
0.0
 11
195.47567489450009
 21
85.997055993299924
 31
0.0
  0
LINE
  8
DETAIL
  6
CONTINUOUS
 62
     5
 10
195.47567489450009
 20
85.997055993299924
 30
0.0
 11
195.18824233210029
 21
85.846984358900031
 31
0.0
  0
LINE
  8
DETAIL
  6
CONTINUOUS
 62
     5
 10
195.18824233210029
 20
85.846984358900031
 30
0.0
 11
194.91439269040029
 21
85.681338405199767
 31
0.0
  0
LINE
  8
DETAIL
  6
CONTINUOUS
 62
     5
 10
194.91439269040029
 20
85.681338405199767
 30
0.0
 11
194.65547356329989
 21
85.500884567699813
 31
0.0
  0
LINE
  8
DETAIL
  6
CONTINUOUS
 62
     5
 10
194.65547356329989
 20
85.500884567699813
 30
0.0
 11
194.4128099290001
 21
85.306487484299865
 31
0.0
  0
LINE
  8
DETAIL
  6
CONTINUOUS
 62
     5
 10
194.4128099290001
 20
85.306487484299865
 30
0.0
 11
194.18768084979999
 21
85.099155733099906
 31
0.0
  0
LINE
  8
DETAIL
  6
CONTINUOUS
 62
     5
 10
194.18768084979999
 20
85.099155733099906
 30
0.0
 11
193.98104672410051
 21
84.879736076999976
 31
0.0
  0
LINE
  8
DETAIL
  6
CONTINUOUS
 62
     5
 10
193.98104672410051
 20
84.879736076999976
 30
0.0
 11
193.79382642159999
 21
84.649122671100031
 31
0.0
  0
LINE
  8
DETAIL
  6
CONTINUOUS
 62
     5
 10
193.79382642159999
 20
84.649122671100031
 30
0.0
 11
193.62705420420011
 21
84.408478611499973
 31
0.0
  0
LINE
  8
DETAIL
  6
CONTINUOUS
 62
     5
 10
193.62705420420011
 20
84.408478611499973
 30
0.0
 11
193.48158431680031
 21
84.158959798900014
 31
0.0
  0
LINE
  8
DETAIL
  6
CONTINUOUS
 62
     5
 10
193.48158431680031
 20
84.158959798900014
 30
0.0
 11
193.35821508400019
 21
83.901872723699853
 31
0.0
  0
LINE
  8
DETAIL
  6
CONTINUOUS
 62
     5
 10
193.35821508400019
 20
83.901872723699853
 30
0.0
 11
193.25761547880029
 21
83.638659831899986
 31
0.0
  0
LINE
  8
DETAIL
  6
CONTINUOUS
 62
     5
 10
193.25761547880029
 20
83.638659831899986
 30
0.0
 11
193.18017756580051
 21
83.370398891299843
 31
0.0
  0
LINE
  8
DETAIL
  6
CONTINUOUS
 62
     5
 10
193.18017756580051
 20
83.370398891299843
 30
0.0
 11
193.1262540582002
 21
83.098193650299891
 31
0.0
  0
LINE
  8
DETAIL
  6
CONTINUOUS
 62
     5
 10
193.1262540582002
 20
83.098193650299891
 30
0.0
 11
193.09614191680021
 21
82.823538144300059
 31
0.0
  0
LINE
  8
DETAIL
  6
CONTINUOUS
 62
     5
 10
403.20000000000022
 20
101.0
 30
0.0
 11
430.31071040939997
 21
101.0
 31
0.0
  0
LINE
  8
DETAIL
  6
CONTINUOUS
 62
     5
 10
225.2000000000003
 20
101.0
 30
0.0
 11
198.0892895905998
 21
101.0
 31
0.0
  0
LINE
  8
DETAIL
  6
CONTINUOUS
 62
     5
 10
215.1999999999997
 20
98.963982160400064
 30
0.0
 11
225.2000000000003
 21
98.963982160400064
 31
0.0
  0
LINE
  8
DETAIL
  6
CONTINUOUS
 62
     5
 10
413.20000000000022
 20
98.963982160400064
 30
0.0
 11
403.20000000000022
 21
98.963982160400064
 31
0.0
  0
LINE
  8
DETAIL
  6
CONTINUOUS
 62
     5
 10
215.1999999999997
 20
91.897718930300002
 30
0.0
 11
210.2805565836002
 21
91.897718930300002
 31
0.0
  0
LINE
  8
DETAIL
  6
CONTINUOUS
 62
     5
 10
215.1999999999997
 20
89.955138740599978
 30
0.0
 11
210.2805565836002
 21
89.955138740599978
 31
0.0
  0
LINE
  8
DETAIL
  6
CONTINUOUS
 62
     5
 10
413.20000000000022
 20
86.573617099400039
 30
0.0
 11
430.31071040939997
 21
86.573631351099706
 31
0.0
  0
LINE
  8
DETAIL
  6
CONTINUOUS
 62
     5
 10
215.1999999999997
 20
82.70533077490019
 30
0.0
 11
210.2805565836002
 21
82.70533077490019
 31
0.0
  0
LINE
  8
DETAIL
  6
CONTINUOUS
 62
     5
 10
413.20000000000022
 20
78.277838836099818
 30
0.0
 11
418.11944341639992
 21
78.277838836099818
 31
0.0
  0
LINE
  8
DETAIL
  6
CONTINUOUS
 62
     5
 10
215.1999999999997
 20
77.398102998899972
 30
0.0
 11
210.2805565836002
 21
77.398102998899972
 31
0.0
  0
LINE
  8
DETAIL
  6
CONTINUOUS
 62
     5
 10
413.20000000000022
 20
76.33525864639978
 30
0.0
 11
418.11944341639992
 21
76.33525864639978
 31
0.0
  0
LINE
  8
DETAIL
  6
CONTINUOUS
 62
     5
 10
198.0892895905998
 20
86.573631352900065
 30
0.0
 11
209.6999999999997
 21
86.573617099400039
 31
0.0
  0
LINE
  8
DETAIL
  6
CONTINUOUS
 62
     5
 10
418.11944341639992
 20
-77.398102998899972
 30
0.0
 11
418.29550770649979
 21
-77.566994562800119
 31
0.0
  0
LINE
  8
DETAIL
  6
CONTINUOUS
 62
     5
 10
418.29550770649979
 20
-77.566994562800119
 30
0.0
 11
418.43994983450011
 21
-77.732343803800191
 31
0.0
  0
LINE
  8
DETAIL
  6
CONTINUOUS
 62
     5
 10
418.43994983450011
 20
-77.732343803800191
 30
0.0
 11
418.55286334540011
 21
-77.893458500199813
 31
0.0
  0
LINE
  8
DETAIL
  6
CONTINUOUS
 62
     5
 10
418.55286334540011
 20
-77.893458500199813
 30
0.0
 11
418.56780686180042
 21
-77.918608405499981
 31
0.0
  0
LINE
  8
DETAIL
  6
CONTINUOUS
 62
     5
 10
94.200000000000287
 20
469.0
 30
0.0
 11
94.200000000000287
 21
390.89987745100012
 31
0.0
  0
LINE
  8
DETAIL
  6
CONTINUOUS
 62
     5
 10
94.200000000000287
 20
345.89987745100012
 30
0.0
 11
94.19999999999979
 21
-345.89987745110011
 31
0.0
  0
LINE
  8
DETAIL
  6
CONTINUOUS
 62
     5
 10
94.19999999999979
 20
-390.89987745110011
 30
0.0
 11
94.19999999999979
 21
-469.0
 31
0.0
  0
LINE
  8
DETAIL
  6
CONTINUOUS
 62
     5
 10
95.400000000000077
 20
469.0
 30
0.0
 11
95.400000000000077
 21
390.89987745100012
 31
0.0
  0
LINE
  8
DETAIL
  6
CONTINUOUS
 62
     5
 10
95.400000000000077
 20
345.89987745100012
 30
0.0
 11
95.400000000000077
 21
-345.89987745110011
 31
0.0
  0
LINE
  8
DETAIL
  6
CONTINUOUS
 62
     5
 10
95.400000000000077
 20
-390.89987745110011
 30
0.0
 11
95.400000000000077
 21
-469.0
 31
0.0
  0
LINE
  8
DETAIL
  6
CONTINUOUS
 62
     5
 10
119.4499999999998
 20
-401.52329751140002
 30
0.0
 11
119.4499999999998
 21
-397.34634154220021
 31
0.0
  0
LINE
  8
DETAIL
  6
CONTINUOUS
 62
     5
 10
122.9499999999998
 20
-401.52329751140002
 30
0.0
 11
122.9499999999998
 21
-396.26040642990012
 31
0.0
  0
LINE
  8
DETAIL
  6
CONTINUOUS
 62
     5
 10
413.20000000000022
 20
69.085450680599934
 30
0.0
 11
418.11944341639992
 21
69.085450680599934
 31
0.0
  0
LINE
  8
DETAIL
  6
CONTINUOUS
 62
     5
 10
413.20000000000022
 20
63.778222904599723
 30
0.0
 11
418.11944341639992
 21
63.778222904599723
 31
0.0
  0
LINE
  8
DETAIL
  6
CONTINUOUS
 62
     5
 10
439.94633045130013
 20
62.0
 30
0.0
 11
441.20000000000022
 21
62.0
 31
0.0
  0
LINE
  8
DETAIL
  6
CONTINUOUS
 62
     5
 10
188.45366954870039
 20
62.0
 30
0.0
 11
187.1999999999997
 21
62.0
 31
0.0
  0
LINE
  8
DETAIL
  6
CONTINUOUS
 62
     5
 10
442.20000000000022
 20
59.5
 30
0.0
 11
443.40000000000009
 21
59.5
 31
0.0
  0
LINE
  8
DETAIL
  6
CONTINUOUS
 62
     5
 10
186.1999999999997
 20
59.5
 30
0.0
 11
185.0
 21
59.5
 31
0.0
  0
LINE
  8
DETAIL
  6
CONTINUOUS
 62
     5
 10
215.1999999999997
 20
52.019312013099807
 30
0.0
 11
198.0892895905998
 21
52.019288294000027
 31
0.0
  0
LINE
  8
DETAIL
  6
CONTINUOUS
 62
     5
 10
442.20000000000022
 20
50.5
 30
0.0
 11
443.40000000000009
 21
50.5
 31
0.0
  0
LINE
  8
DETAIL
  6
CONTINUOUS
 62
     5
 10
186.1999999999997
 20
50.5
 30
0.0
 11
185.0
 21
50.5
 31
0.0
  0
LINE
  8
DETAIL
  6
CONTINUOUS
 62
     5
 10
442.94482283360003
 20
41.0
 30
0.0
 11
445.20000000000022
 21
41.0
 31
0.0
  0
LINE
  8
DETAIL
  6
CONTINUOUS
 62
     5
 10
185.45517716640009
 20
41.0
 30
0.0
 11
183.1999999999997
 21
41.0
 31
0.0
  0
LINE
  8
DETAIL
  6
CONTINUOUS
 62
     5
 10
430.31071040939997
 20
52.019288294200123
 30
0.0
 11
413.20000000000022
 21
52.019312013099807
 31
0.0
  0
LINE
  8
DETAIL
  6
CONTINUOUS
 62
     5
 10
439.94633045130013
 20
61.99999701589968
 30
0.0
 11
439.82971587690002
 21
62.002264368799842
 31
0.0
  0
LINE
  8
DETAIL
  6
CONTINUOUS
 62
     5
 10
439.82971587690002
 20
62.002264368799842
 30
0.0
 11
439.59556419340021
 21
62.020573770899773
 31
0.0
  0
LINE
  8
DETAIL
  6
CONTINUOUS
 62
     5
 10
439.59556419340021
 20
62.020573770899773
 30
0.0
 11
439.3635619464003
 21
62.057144585100097
 31
0.0
  0
LINE
  8
DETAIL
  6
CONTINUOUS
 62
     5
 10
439.3635619464003
 20
62.057144585100097
 30
0.0
 11
439.13513125729997
 21
62.111752737499963
 31
0.0
  0
LINE
  8
DETAIL
  6
CONTINUOUS
 62
     5
 10
439.13513125729997
 20
62.111752737499963
 30
0.0
 11
438.91167231960031
 21
62.184063573499778
 31
0.0
  0
LINE
  8
DETAIL
  6
CONTINUOUS
 62
     5
 10
438.91167231960031
 20
62.184063573499778
 30
0.0
 11
438.69455485480012
 21
62.273633907600008
 31
0.0
  0
LINE
  8
DETAIL
  6
CONTINUOUS
 62
     5
 10
438.69455485480012
 20
62.273633907600008
 30
0.0
 11
438.48510971180031
 21
62.379914740799897
 31
0.0
  0
LINE
  8
DETAIL
  6
CONTINUOUS
 62
     5
 10
438.48510971180031
 20
62.379914740799897
 30
0.0
 11
438.28462070540041
 21
62.502254626700051
 31
0.0
  0
LINE
  8
DETAIL
  6
CONTINUOUS
 62
     5
 10
438.28462070540041
 20
62.502254626700051
 30
0.0
 11
438.09431674369989
 21
62.639903666499777
 31
0.0
  0
LINE
  8
DETAIL
  6
CONTINUOUS
 62
     5
 10
438.09431674369989
 20
62.639903666499777
 30
0.0
 11
437.91536429130019
 21
62.792018108299999
 31
0.0
  0
LINE
  8
DETAIL
  6
CONTINUOUS
 62
     5
 10
437.91536429130019
 20
62.792018108299999
 30
0.0
 11
437.74886021690003
 21
62.957665520999853
 31
0.0
  0
LINE
  8
DETAIL
  6
CONTINUOUS
 62
     5
 10
437.74886021690003
 20
62.957665520999853
 30
0.0
 11
437.59582506779998
 21
63.135830513399917
 31
0.0
  0
LINE
  8
DETAIL
  6
CONTINUOUS
 62
     5
 10
437.59582506779998
 20
63.135830513399917
 30
0.0
 11
437.4571968094001
 21
63.325420964200021
 31
0.0
  0
LINE
  8
DETAIL
  6
CONTINUOUS
 62
     5
 10
437.4571968094001
 20
63.325420964200021
 30
0.0
 11
437.33382508500023
 21
63.525274704899857
 31
0.0
  0
LINE
  8
DETAIL
  6
CONTINUOUS
 62
     5
 10
437.33382508500023
 20
63.525274704899857
 30
0.0
 11
437.22646599950002
 21
63.734166649499898
 31
0.0
  0
LINE
  8
DETAIL
  6
CONTINUOUS
 62
     5
 10
437.22646599950002
 20
63.734166649499898
 30
0.0
 11
437.13577745850017
 21
63.950816365199898
 31
0.0
  0
LINE
  8
DETAIL
  6
CONTINUOUS
 62
     5
 10
437.13577745850017
 20
63.950816365199898
 30
0.0
 11
437.06231516700018
 21
64.173895890599852
 31
0.0
  0
LINE
  8
DETAIL
  6
CONTINUOUS
 62
     5
 10
437.06231516700018
 20
64.173895890599852
 30
0.0
 11
437.00652924730002
 21
64.402037784499953
 31
0.0
  0
LINE
  8
DETAIL
  6
CONTINUOUS
 62
     5
 10
437.00652924730002
 20
64.402037784499953
 30
0.0
 11
436.96876143870031
 21
64.633843557799992
 31
0.0
  0
LINE
  8
DETAIL
  6
CONTINUOUS
 62
     5
 10
436.96876143870031
 20
64.633843557799992
 30
0.0
 11
436.95044442080012
 21
64.842987905899932
 31
0.0
  0
LINE
  8
DETAIL
  6
CONTINUOUS
 62
     5
 10
187.19680785699981
 20
47.999985781799737
 30
0.0
 11
187.3022002135003
 21
47.997797283099779
 31
0.0
  0
LINE
  8
DETAIL
  6
CONTINUOUS
 62
     5
 10
187.3022002135003
 20
47.997797283099779
 30
0.0
 11
187.53472618910021
 21
47.979807628699753
 31
0.0
  0
LINE
  8
DETAIL
  6
CONTINUOUS
 62
     5
 10
187.53472618910021
 20
47.979807628699753
 30
0.0
 11
187.76515156100049
 21
47.943809420200068
 31
0.0
  0
LINE
  8
DETAIL
  6
CONTINUOUS
 62
     5
 10
187.76515156100049
 20
47.943809420200068
 30
0.0
 11
187.9920839997003
 21
47.89002026470007
 31
0.0
  0
LINE
  8
DETAIL
  6
CONTINUOUS
 62
     5
 10
187.9920839997003
 20
47.89002026470007
 30
0.0
 11
188.21415220110021
 21
47.818765241299843
 31
0.0
  0
LINE
  8
DETAIL
  6
CONTINUOUS
 62
     5
 10
188.21415220110021
 20
47.818765241299843
 30
0.0
 11
188.43001424859989
 21
47.730474934200167
 31
0.0
  0
LINE
  8
DETAIL
  6
CONTINUOUS
 62
     5
 10
188.43001424859989
 20
47.730474934200167
 30
0.0
 11
188.63836571520011
 21
47.625682832199793
 31
0.0
  0
LINE
  8
DETAIL
  6
CONTINUOUS
 62
     5
 10
188.63836571520011
 20
47.625682832199793
 30
0.0
 11
188.83794752750009
 21
47.505022114999967
 31
0.0
  0
LINE
  8
DETAIL
  6
CONTINUOUS
 62
     5
 10
188.83794752750009
 20
47.505022114999967
 30
0.0
 11
189.02755372359999
 21
47.369221715000087
 31
0.0
  0
LINE
  8
DETAIL
  6
CONTINUOUS
 62
     5
 10
189.02755372359999
 20
47.369221715000087
 30
0.0
 11
189.20603801510009
 21
47.219102476399698
 31
0.0
  0
LINE
  8
DETAIL
  6
CONTINUOUS
 62
     5
 10
189.20603801510009
 20
47.219102476399698
 30
0.0
 11
189.37232171259981
 21
47.055571543799942
 31
0.0
  0
LINE
  8
DETAIL
  6
CONTINUOUS
 62
     5
 10
189.37232171259981
 20
47.055571543799942
 30
0.0
 11
189.5253991317004
 21
46.879617986599897
 31
0.0
  0
LINE
  8
DETAIL
  6
CONTINUOUS
 62
     5
 10
189.5253991317004
 20
46.879617986599897
 30
0.0
 11
189.66434463889979
 21
46.692306178099898
 31
0.0
  0
LINE
  8
DETAIL
  6
CONTINUOUS
 62
     5
 10
189.66434463889979
 20
46.692306178099898
 30
0.0
 11
189.78831890270021
 21
46.494768253200156
 31
0.0
  0
LINE
  8
DETAIL
  6
CONTINUOUS
 62
     5
 10
189.78831890270021
 20
46.494768253200156
 30
0.0
 11
189.8965723702004
 21
46.288199536699707
 31
0.0
  0
LINE
  8
DETAIL
  6
CONTINUOUS
 62
     5
 10
189.8965723702004
 20
46.288199536699707
 30
0.0
 11
189.98845280200021
 21
46.073845203599817
 31
0.0
  0
LINE
  8
DETAIL
  6
CONTINUOUS
 62
     5
 10
189.98845280200021
 20
46.073845203599817
 30
0.0
 11
190.06340548719979
 21
45.852998213500101
 31
0.0
  0
LINE
  8
DETAIL
  6
CONTINUOUS
 62
     5
 10
190.06340548719979
 20
45.852998213500101
 30
0.0
 11
190.12097722870021
 21
45.626990733499959
 31
0.0
  0
LINE
  8
DETAIL
  6
CONTINUOUS
 62
     5
 10
190.12097722870021
 20
45.626990733499959
 30
0.0
 11
190.16081969839971
 21
45.397181851099958
 31
0.0
  0
LINE
  8
DETAIL
  6
CONTINUOUS
 62
     5
 10
190.16081969839971
 20
45.397181851099958
 30
0.0
 11
190.18268872410039
 21
45.164970418200028
 31
0.0
  0
LINE
  8
DETAIL
  6
CONTINUOUS
 62
     5
 10
190.18268872410039
 20
45.164970418200028
 30
0.0
 11
190.18645176950031
 21
44.931763367099848
 31
0.0
  0
LINE
  8
DETAIL
  6
CONTINUOUS
 62
     5
 10
190.18645176950031
 20
44.931763367099848
 30
0.0
 11
190.17208786850011
 21
44.6989844044001
 31
0.0
  0
LINE
  8
DETAIL
  6
CONTINUOUS
 62
     5
 10
190.17208786850011
 20
44.6989844044001
 30
0.0
 11
190.13968951080011
 21
44.468051398199798
 31
0.0
  0
LINE
  8
DETAIL
  6
CONTINUOUS
 62
     5
 10
190.13968951080011
 20
44.468051398199798
 30
0.0
 11
190.0894616336
 21
44.240369970700158
 31
0.0
  0
LINE
  8
DETAIL
  6
CONTINUOUS
 62
     5
 10
190.0894616336
 20
44.240369970700158
 30
0.0
 11
190.02172004050041
 21
44.017323877599672
 31
0.0
  0
LINE
  8
DETAIL
  6
CONTINUOUS
 62
     5
 10
190.02172004050041
 20
44.017323877599672
 30
0.0
 11
189.9368899465999
 21
43.800268202599909
 31
0.0
  0
LINE
  8
DETAIL
  6
CONTINUOUS
 62
     5
 10
189.9368899465999
 20
43.800268202599909
 30
0.0
 11
189.83550555930009
 21
43.5905238739997
 31
0.0
  0
LINE
  8
DETAIL
  6
CONTINUOUS
 62
     5
 10
189.83550555930009
 20
43.5905238739997
 30
0.0
 11
189.7853043492
 21
43.500001274499937
 31
0.0
  0
LINE
  8
DETAIL
  6
CONTINUOUS
 62
     5
 10
430.31071040939997
 20
52.019288294200123
 30
0.0
 11
430.6533706193004
 21
52.010000715499707
 31
0.0
  0
LINE
  8
DETAIL
  6
CONTINUOUS
 62
     5
 10
430.6533706193004
 20
52.010000715499707
 30
0.0
 11
430.99468523100029
 21
51.98616896880003
 31
0.0
  0
LINE
  8
DETAIL
  6
CONTINUOUS
 62
     5
 10
430.99468523100029
 20
51.98616896880003
 30
0.0
 11
431.33303572640023
 21
51.947842302200122
 31
0.0
  0
LINE
  8
DETAIL
  6
CONTINUOUS
 62
     5
 10
431.33303572640023
 20
51.947842302200122
 30
0.0
 11
431.6668329764002
 21
51.895187271300067
 31
0.0
  0
LINE
  8
DETAIL
  6
CONTINUOUS
 62
     5
 10
431.6668329764002
 20
51.895187271300067
 30
0.0
 11
431.99456060830022
 21
51.828389507300017
 31
0.0
  0
LINE
  8
DETAIL
  6
CONTINUOUS
 62
     5
 10
431.99456060830022
 20
51.828389507300017
 30
0.0
 11
432.31446835299988
 21
51.747791513399989
 31
0.0
  0
LINE
  8
DETAIL
  6
CONTINUOUS
 62
     5
 10
432.31446835299988
 20
51.747791513399989
 30
0.0
 11
432.62480601760018
 21
51.653816515799917
 31
0.0
  0
LINE
  8
DETAIL
  6
CONTINUOUS
 62
     5
 10
432.62480601760018
 20
51.653816515799917
 30
0.0
 11
432.92432575600009
 21
51.546852280899657
 31
0.0
  0
LINE
  8
DETAIL
  6
CONTINUOUS
 62
     5
 10
432.92432575600009
 20
51.546852280899657
 30
0.0
 11
433.21175837130022
 21
51.427306994100043
 31
0.0
  0
LINE
  8
DETAIL
  6
CONTINUOUS
 62
     5
 10
433.21175837130022
 20
51.427306994100043
 30
0.0
 11
433.48560805760007
 21
51.295772743899747
 31
0.0
  0
LINE
  8
DETAIL
  6
CONTINUOUS
 62
     5
 10
433.48560805760007
 20
51.295772743899747
 30
0.0
 11
433.74452722310019
 21
51.152846694400083
 31
0.0
  0
LINE
  8
DETAIL
  6
CONTINUOUS
 62
     5
 10
433.74452722310019
 20
51.152846694400083
 30
0.0
 11
433.98719088320013
 21
50.999246631899958
 31
0.0
  0
LINE
  8
DETAIL
  6
CONTINUOUS
 62
     5
 10
433.98719088320013
 20
50.999246631899958
 30
0.0
 11
434.21231996860018
 21
50.835759265699828
 31
0.0
  0
LINE
  8
DETAIL
  6
CONTINUOUS
 62
     5
 10
434.21231996860018
 20
50.835759265699828
 30
0.0
 11
434.41895408980002
 21
50.663078700400092
 31
0.0
  0
LINE
  8
DETAIL
  6
CONTINUOUS
 62
     5
 10
434.41895408980002
 20
50.663078700400092
 30
0.0
 11
434.60617438010007
 21
50.481903208699798
 31
0.0
  0
LINE
  8
DETAIL
  6
CONTINUOUS
 62
     5
 10
434.60617438010007
 20
50.481903208699798
 30
0.0
 11
434.77294657630051
 21
50.293174945999908
 31
0.0
  0
LINE
  8
DETAIL
  6
CONTINUOUS
 62
     5
 10
434.77294657630051
 20
50.293174945999908
 30
0.0
 11
434.9184164344
 21
50.097789581299821
 31
0.0
  0
LINE
  8
DETAIL
  6
CONTINUOUS
 62
     5
 10
434.9184164344
 20
50.097789581299821
 30
0.0
 11
435.04178561510031
 21
49.896796748399993
 31
0.0
  0
LINE
  8
DETAIL
  6
CONTINUOUS
 62
     5
 10
435.04178561510031
 20
49.896796748399993
 30
0.0
 11
435.14238518779968
 21
49.691311845800101
 31
0.0
  0
LINE
  8
DETAIL
  6
CONTINUOUS
 62
     5
 10
435.14238518779968
 20
49.691311845800101
 30
0.0
 11
435.21982293479999
 21
49.48219770629975
 31
0.0
  0
LINE
  8
DETAIL
  6
CONTINUOUS
 62
     5
 10
435.21982293479999
 20
49.48219770629975
 30
0.0
 11
435.27374614910002
 21
49.270438144400032
 31
0.0
  0
LINE
  8
DETAIL
  6
CONTINUOUS
 62
     5
 10
435.27374614910002
 20
49.270438144400032
 30
0.0
 11
435.30385808320023
 21
49.056829530200041
 31
0.0
  0
LINE
  8
DETAIL
  6
CONTINUOUS
 62
     5
 10
210.2805565836002
 20
89.955138740599978
 30
0.0
 11
210.1044922934002
 21
90.124030304499684
 31
0.0
  0
LINE
  8
DETAIL
  6
CONTINUOUS
 62
     5
 10
210.1044922934002
 20
90.124030304499684
 30
0.0
 11
209.96005016550041
 21
90.289379545500196
 31
0.0
  0
LINE
  8
DETAIL
  6
CONTINUOUS
 62
     5
 10
209.96005016550041
 20
90.289379545500196
 30
0.0
 11
209.84713665460001
 21
90.450494241899847
 31
0.0
  0
LINE
  8
DETAIL
  6
CONTINUOUS
 62
     5
 10
209.84713665460001
 20
90.450494241899847
 30
0.0
 11
209.76603239630001
 21
90.60945105959992
 31
0.0
  0
LINE
  8
DETAIL
  6
CONTINUOUS
 62
     5
 10
209.76603239630001
 20
90.60945105959992
 30
0.0
 11
209.7170180266003
 21
90.768326664699998
 31
0.0
  0
LINE
  8
DETAIL
  6
CONTINUOUS
 62
     5
 10
209.7170180266003
 20
90.768326664699998
 30
0.0
 11
209.6999999999997
 21
90.926428835200113
 31
0.0
  0
LINE
  8
DETAIL
  6
CONTINUOUS
 62
     5
 10
209.83218830720031
 20
77.91860821760018
 30
0.0
 11
209.84727220639979
 21
77.893230070700142
 31
0.0
  0
LINE
  8
DETAIL
  6
CONTINUOUS
 62
     5
 10
209.84727220639979
 20
77.893230070700142
 30
0.0
 11
209.96020359740029
 21
77.732149603999915
 31
0.0
  0
LINE
  8
DETAIL
  6
CONTINUOUS
 62
     5
 10
209.96020359740029
 20
77.732149603999915
 30
0.0
 11
210.10459642370009
 21
77.566875399999844
 31
0.0
  0
LINE
  8
DETAIL
  6
CONTINUOUS
 62
     5
 10
210.10459642370009
 20
77.566875399999844
 30
0.0
 11
210.2805565836002
 21
77.398102998899972
 31
0.0
  0
LINE
  8
DETAIL
  6
CONTINUOUS
 62
     5
 10
209.83238362970039
 20
77.918615791999855
 30
0.0
 11
209.6999999999997
 21
78.14791096459976
 31
0.0
  0
LINE
  8
DETAIL
  6
CONTINUOUS
 62
     5
 10
139.19999999999979
 20
-86.161122027000147
 30
0.0
 11
139.2000095063004
 21
14.646517556299839
 31
0.0
  0
LINE
  8
DETAIL
  6
CONTINUOUS
 62
     5
 10
209.83238362970039
 20
91.377206137300149
 30
0.0
 11
209.6999999999997
 21
91.14791096459976
 31
0.0
  0
LINE
  8
DETAIL
  6
CONTINUOUS
 62
     5
 10
209.83218830720031
 20
91.37721371169981
 30
0.0
 11
209.84727220639979
 21
91.40259185849979
 31
0.0
  0
LINE
  8
DETAIL
  6
CONTINUOUS
 62
     5
 10
209.84727220639979
 20
91.40259185849979
 30
0.0
 11
209.96020359740029
 21
91.563672325200045
 31
0.0
  0
LINE
  8
DETAIL
  6
CONTINUOUS
 62
     5
 10
209.96020359740029
 20
91.563672325200045
 30
0.0
 11
210.10459642370009
 21
91.728946529299719
 31
0.0
  0
LINE
  8
DETAIL
  6
CONTINUOUS
 62
     5
 10
210.10459642370009
 20
91.728946529299719
 30
0.0
 11
210.2805565836002
 21
91.897718930300002
 31
0.0
  0
LINE
  8
DETAIL
  6
CONTINUOUS
 62
     5
 10
2.4000000000000909
 20
-3.2291639784998551
 30
0.0
 11
2.2653083313002749
 21
-3.267766247100099
 31
0.0
  0
LINE
  8
DETAIL
  6
CONTINUOUS
 62
     5
 10
2.2653083313002749
 20
-3.267766247100099
 30
0.0
 11
2.131064801200409
 21
-3.303199586800019
 31
0.0
  0
LINE
  8
DETAIL
  6
CONTINUOUS
 62
     5
 10
2.131064801200409
 20
-3.303199586800019
 30
0.0
 11
1.9977030472000481
 21
-3.335416578000149
 31
0.0
  0
LINE
  8
DETAIL
  6
CONTINUOUS
 62
     5
 10
1.9977030472000481
 20
-3.335416578000149
 30
0.0
 11
1.865609705399947
 21
-3.3645594792001252
 31
0.0
  0
LINE
  8
DETAIL
  6
CONTINUOUS
 62
     5
 10
1.865609705399947
 20
-3.3645594792001252
 30
0.0
 11
1.735140803600189
 21
-3.390747620599996
 31
0.0
  0
LINE
  8
DETAIL
  6
CONTINUOUS
 62
     5
 10
1.735140803600189
 20
-3.390747620599996
 30
0.0
 11
1.606802714100013
 21
-3.4140023671998279
 31
0.0
  0
LINE
  8
DETAIL
  6
CONTINUOUS
 62
     5
 10
1.606802714100013
 20
-3.4140023671998279
 30
0.0
 11
1.481112124100036
 21
-3.434363705800024
 31
0.0
  0
LINE
  8
DETAIL
  6
CONTINUOUS
 62
     5
 10
1.481112124100036
 20
-3.434363705800024
 30
0.0
 11
1.358328962200176
 21
-3.4518951015998032
 31
0.0
  0
LINE
  8
DETAIL
  6
CONTINUOUS
 62
     5
 10
1.358328962200176
 20
-3.4518951015998032
 30
0.0
 11
1.2387137244004409
 21
-3.4666664489000141
 31
0.0
  0
LINE
  8
DETAIL
  6
CONTINUOUS
 62
     5
 10
1.2387137244004409
 20
-3.4666664489000141
 30
0.0
 11
1.122762438400059
 21
-3.4786984474003479
 31
0.0
  0
LINE
  8
DETAIL
  6
CONTINUOUS
 62
     5
 10
1.122762438400059
 20
-3.4786984474003479
 30
0.0
 11
1.010934355200334
 21
-3.4880299022001959
 31
0.0
  0
LINE
  8
DETAIL
  6
CONTINUOUS
 62
     5
 10
1.010934355200334
 20
-3.4880299022001959
 30
0.0
 11
0.9034898768004496
 21
-3.4946763900998121
 31
0.0
  0
LINE
  8
DETAIL
  6
CONTINUOUS
 62
     5
 10
0.9034898768004496
 20
-3.4946763900998121
 30
0.0
 11
0.800707828099803
 21
-3.4986695421002878
 31
0.0
  0
LINE
  8
DETAIL
  6
CONTINUOUS
 62
     5
 10
0.800707828099803
 20
-3.4986695421002878
 30
0.0
 11
0.7029437252003845
 21
-3.5
 31
0.0
  0
LINE
  8
DETAIL
  6
CONTINUOUS
 62
     5
 10
1.1999999999998181
 20
3.2291639784998551
 30
0.0
 11
0.0
 21
3.2291639784998551
 31
0.0
  0
LINE
  8
DETAIL
  6
CONTINUOUS
 62
     5
 10
1.1999999999998181
 20
-3.2291639784998551
 30
0.0
 11
0.0
 21
-3.2291639784998551
 31
0.0
  0
LINE
  8
DETAIL
  6
CONTINUOUS
 62
     5
 10
0.7029437252003845
 20
3.5
 30
0.0
 11
0.800707828099803
 21
3.4986695419997891
 31
0.0
  0
LINE
  8
DETAIL
  6
CONTINUOUS
 62
     5
 10
0.800707828099803
 20
3.4986695419997891
 30
0.0
 11
0.9034898768004496
 21
3.4946763899997682
 31
0.0
  0
LINE
  8
DETAIL
  6
CONTINUOUS
 62
     5
 10
0.9034898768004496
 20
3.4946763899997682
 30
0.0
 11
1.010934355200334
 21
3.4880299021997421
 31
0.0
  0
LINE
  8
DETAIL
  6
CONTINUOUS
 62
     5
 10
1.010934355200334
 20
3.4880299021997421
 30
0.0
 11
1.122762438400059
 21
3.4786984472998479
 31
0.0
  0
LINE
  8
DETAIL
  6
CONTINUOUS
 62
     5
 10
1.122762438400059
 20
3.4786984472998479
 30
0.0
 11
1.2387137244004409
 21
3.4666664489000141
 31
0.0
  0
LINE
  8
DETAIL
  6
CONTINUOUS
 62
     5
 10
1.2387137244004409
 20
3.4666664489000141
 30
0.0
 11
1.358328962200176
 21
3.451895101499757
 31
0.0
  0
LINE
  8
DETAIL
  6
CONTINUOUS
 62
     5
 10
1.358328962200176
 20
3.451895101499757
 30
0.0
 11
1.481112124100036
 21
3.4343637056999801
 31
0.0
  0
LINE
  8
DETAIL
  6
CONTINUOUS
 62
     5
 10
1.481112124100036
 20
3.4343637056999801
 30
0.0
 11
1.606802714100013
 21
3.4140023671998279
 31
0.0
  0
LINE
  8
DETAIL
  6
CONTINUOUS
 62
     5
 10
1.606802714100013
 20
3.4140023671998279
 30
0.0
 11
1.735140803600189
 21
3.3907476204999512
 31
0.0
  0
LINE
  8
DETAIL
  6
CONTINUOUS
 62
     5
 10
1.735140803600189
 20
3.3907476204999512
 30
0.0
 11
1.865609705399947
 21
3.3645594791000799
 31
0.0
  0
LINE
  8
DETAIL
  6
CONTINUOUS
 62
     5
 10
1.865609705399947
 20
3.3645594791000799
 30
0.0
 11
1.9977030472000481
 21
3.335416577900105
 31
0.0
  0
LINE
  8
DETAIL
  6
CONTINUOUS
 62
     5
 10
1.9977030472000481
 20
3.335416577900105
 30
0.0
 11
2.131064801200409
 21
3.303199586699975
 31
0.0
  0
LINE
  8
DETAIL
  6
CONTINUOUS
 62
     5
 10
2.131064801200409
 20
3.303199586699975
 30
0.0
 11
2.2653083313002749
 21
3.2677662470996438
 31
0.0
  0
LINE
  8
DETAIL
  6
CONTINUOUS
 62
     5
 10
2.2653083313002749
 20
3.2677662470996438
 30
0.0
 11
2.4000000000000909
 21
3.2291639784998551
 31
0.0
  0
LINE
  8
DETAIL
  6
CONTINUOUS
 62
     5
 10
0.7029437252003845
 20
-3.5
 30
0.0
 11
0.6105127692999304
 21
-3.4986695421002878
 31
0.0
  0
LINE
  8
DETAIL
  6
CONTINUOUS
 62
     5
 10
0.6105127692999304
 20
-3.4986695421002878
 30
0.0
 11
0.5237117889000729
 21
-3.4946763900998121
 31
0.0
  0
LINE
  8
DETAIL
  6
CONTINUOUS
 62
     5
 10
0.5237117889000729
 20
-3.4946763900998121
 30
0.0
 11
0.442834540900094
 21
-3.4880299022001959
 31
0.0
  0
LINE
  8
DETAIL
  6
CONTINUOUS
 62
     5
 10
0.442834540900094
 20
-3.4880299022001959
 30
0.0
 11
0.3680885326002681
 21
-3.4786984474003479
 31
0.0
  0
LINE
  8
DETAIL
  6
CONTINUOUS
 62
     5
 10
0.3680885326002681
 20
-3.4786984474003479
 30
0.0
 11
0.2996633160000783
 21
-3.4666664489000141
 31
0.0
  0
LINE
  8
DETAIL
  6
CONTINUOUS
 62
     5
 10
0.2996633160000783
 20
-3.4666664489000141
 30
0.0
 11
0.2378433338999457
 21
-3.4518951015998032
 31
0.0
  0
LINE
  8
DETAIL
  6
CONTINUOUS
 62
     5
 10
0.2378433338999457
 20
-3.4518951015998032
 30
0.0
 11
0.1828745927005002
 21
-3.434363705800024
 31
0.0
  0
LINE
  8
DETAIL
  6
CONTINUOUS
 62
     5
 10
0.1828745927005002
 20
-3.434363705800024
 30
0.0
 11
0.1348646695000753
 21
-3.4140023671998279
 31
0.0
  0
LINE
  8
DETAIL
  6
CONTINUOUS
 62
     5
 10
0.1348646695000753
 20
-3.4140023671998279
 30
0.0
 11
0.0939292619004846
 21
-3.390747620599996
 31
0.0
  0
LINE
  8
DETAIL
  6
CONTINUOUS
 62
     5
 10
0.0939292619004846
 20
-3.390747620599996
 30
0.0
 11
0.0602506516997892
 21
-3.3645594792001252
 31
0.0
  0
LINE
  8
DETAIL
  6
CONTINUOUS
 62
     5
 10
0.0602506516997892
 20
-3.3645594792001252
 30
0.0
 11
0.0339574894001089
 21
-3.335416578000149
 31
0.0
  0
LINE
  8
DETAIL
  6
CONTINUOUS
 62
     5
 10
0.0339574894001089
 20
-3.335416578000149
 30
0.0
 11
0.0151155460002883
 21
-3.303199586800019
 31
0.0
  0
LINE
  8
DETAIL
  6
CONTINUOUS
 62
     5
 10
0.0151155460002883
 20
-3.303199586800019
 30
0.0
 11
0.0037825319004696
 21
-3.267766247100099
 31
0.0
  0
LINE
  8
DETAIL
  6
CONTINUOUS
 62
     5
 10
0.0037825319004696
 20
-3.267766247100099
 30
0.0
 11
0.0
 21
-3.2291639784998551
 31
0.0
  0
LINE
  8
DETAIL
  6
CONTINUOUS
 62
     5
 10
132.55580196650499
 20
48.93021065811034
 30
0.0
 11
132.5602845451003
 21
48.91778877649994
 31
0.0
  0
LINE
  8
DETAIL
  6
CONTINUOUS
 62
     5
 10
132.5602845451003
 20
48.91778877649994
 30
0.0
 11
132.88765516600051
 21
47.986909683199883
 31
0.0
  0
LINE
  8
DETAIL
  6
CONTINUOUS
 62
     5
 10
132.88765516600051
 20
47.986909683199883
 30
0.0
 11
133.2139691495004
 21
47.03402153019988
 31
0.0
  0
LINE
  8
DETAIL
  6
CONTINUOUS
 62
     5
 10
133.2139691495004
 20
47.03402153019988
 30
0.0
 11
133.53855737380039
 21
46.059811294800063
 31
0.0
  0
LINE
  8
DETAIL
  6
CONTINUOUS
 62
     5
 10
133.53855737380039
 20
46.059811294800063
 30
0.0
 11
133.86072409070039
 21
45.065130800900079
 31
0.0
  0
LINE
  8
DETAIL
  6
CONTINUOUS
 62
     5
 10
133.86072409070039
 20
45.065130800900079
 30
0.0
 11
134.1797978404002
 21
44.050829938600153
 31
0.0
  0
LINE
  8
DETAIL
  6
CONTINUOUS
 62
     5
 10
134.1797978404002
 20
44.050829938600153
 30
0.0
 11
134.49516243620019
 21
43.01764842800003
 31
0.0
  0
LINE
  8
DETAIL
  6
CONTINUOUS
 62
     5
 10
134.49516243620019
 20
43.01764842800003
 30
0.0
 11
134.80587081630031
 21
41.967533606100012
 31
0.0
  0
LINE
  8
DETAIL
  6
CONTINUOUS
 62
     5
 10
134.80587081630031
 20
41.967533606100012
 30
0.0
 11
135.11131767350031
 21
40.901427558299929
 31
0.0
  0
LINE
  8
DETAIL
  6
CONTINUOUS
 62
     5
 10
135.11131767350031
 20
40.901427558299929
 30
0.0
 11
135.41004263410011
 21
39.823423371699853
 31
0.0
  0
LINE
  8
DETAIL
  6
CONTINUOUS
 62
     5
 10
135.41004263410011
 20
39.823423371699853
 30
0.0
 11
135.70097065040039
 21
38.736622914399959
 31
0.0
  0
LINE
  8
DETAIL
  6
CONTINUOUS
 62
     5
 10
135.70097065040039
 20
38.736622914399959
 30
0.0
 11
135.98295474689979
 21
37.644763643399983
 31
0.0
  0
LINE
  8
DETAIL
  6
CONTINUOUS
 62
     5
 10
135.98295474689979
 20
37.644763643399983
 30
0.0
 11
136.2550125655998
 21
36.551363086000038
 31
0.0
  0
LINE
  8
DETAIL
  6
CONTINUOUS
 62
     5
 10
136.2550125655998
 20
36.551363086000038
 30
0.0
 11
136.51616325840041
 21
35.460359638700083
 31
0.0
  0
LINE
  8
DETAIL
  6
CONTINUOUS
 62
     5
 10
136.51616325840041
 20
35.460359638700083
 30
0.0
 11
136.76550221229991
 21
34.375905067299747
 31
0.0
  0
LINE
  8
DETAIL
  6
CONTINUOUS
 62
     5
 10
136.76550221229991
 20
34.375905067299747
 30
0.0
 11
137.00250478950011
 21
33.300991854199758
 31
0.0
  0
LINE
  8
DETAIL
  6
CONTINUOUS
 62
     5
 10
137.00250478950011
 20
33.300991854199758
 30
0.0
 11
137.22620489420021
 21
32.241087058700032
 31
0.0
  0
LINE
  8
DETAIL
  6
CONTINUOUS
 62
     5
 10
210.2805565836002
 20
77.398102998899972
 30
0.0
 11
210.14668597890011
 21
77.742774183299844
 31
0.0
  0
LINE
  8
DETAIL
  6
CONTINUOUS
 62
     5
 10
210.14668597890011
 20
77.742774183299844
 30
0.0
 11
210.03018112330031
 21
78.08173782879976
 31
0.0
  0
LINE
  8
DETAIL
  6
CONTINUOUS
 62
     5
 10
210.03018112330031
 20
78.08173782879976
 30
0.0
 11
209.93103634779979
 21
78.413978242800113
 31
0.0
  0
LINE
  8
DETAIL
  6
CONTINUOUS
 62
     5
 10
209.93103634779979
 20
78.413978242800113
 30
0.0
 11
209.84926865980009
 21
78.742542503000095
 31
0.0
  0
LINE
  8
DETAIL
  6
CONTINUOUS
 62
     5
 10
209.84926865980009
 20
78.742542503000095
 30
0.0
 11
209.78465161950041
 21
79.070021295499842
 31
0.0
  0
LINE
  8
DETAIL
  6
CONTINUOUS
 62
     5
 10
209.78465161950041
 20
79.070021295499842
 30
0.0
 11
209.73790989969959
 21
79.396768101799807
 31
0.0
  0
LINE
  8
DETAIL
  6
CONTINUOUS
 62
     5
 10
209.73790989969959
 20
79.396768101799807
 30
0.0
 11
209.70977384229991
 21
79.724152096099701
 31
0.0
  0
LINE
  8
DETAIL
  6
CONTINUOUS
 62
     5
 10
209.70977384229991
 20
79.724152096099701
 30
0.0
 11
209.6999999999997
 21
80.051716886900067
 31
0.0
  0
LINE
  8
DETAIL
  6
CONTINUOUS
 62
     5
 10
197.70000001970041
 20
-106.741118895
 30
0.0
 11
197.7383956229005
 21
-106.9818075649
 31
0.0
  0
LINE
  8
DETAIL
  6
CONTINUOUS
 62
     5
 10
197.7383956229005
 20
-106.9818075649
 30
0.0
 11
197.84840163730041
 21
-107.2035454959
 31
0.0
  0
LINE
  8
DETAIL
  6
CONTINUOUS
 62
     5
 10
197.84840163730041
 20
-107.2035454959
 30
0.0
 11
198.0130629189002
 21
-107.3912794029002
 31
0.0
  0
LINE
  8
DETAIL
  6
CONTINUOUS
 62
     5
 10
198.0130629189002
 20
-107.3912794029002
 30
0.0
 11
198.22749594000021
 21
-107.55363981470011
 31
0.0
  0
LINE
  8
DETAIL
  6
CONTINUOUS
 62
     5
 10
198.22749594000021
 20
-107.55363981470011
 30
0.0
 11
198.4902139727001
 21
-107.69607618959979
 31
0.0
  0
LINE
  8
DETAIL
  6
CONTINUOUS
 62
     5
 10
198.4902139727001
 20
-107.69607618959979
 30
0.0
 11
198.8121005879002
 21
-107.8261852187002
 31
0.0
  0
LINE
  8
DETAIL
  6
CONTINUOUS
 62
     5
 10
198.8121005879002
 20
-107.8261852187002
 30
0.0
 11
199.2049317565002
 21
-107.94625955379981
 31
0.0
  0
LINE
  8
DETAIL
  6
CONTINUOUS
 62
     5
 10
199.2049317565002
 20
-107.94625955379981
 30
0.0
 11
199.67523285679999
 21
-108.0542925172003
 31
0.0
  0
LINE
  8
DETAIL
  6
CONTINUOUS
 62
     5
 10
199.67523285679999
 20
-108.0542925172003
 30
0.0
 11
200.23568973570039
 21
-108.1479084282
 31
0.0
  0
LINE
  8
DETAIL
  6
CONTINUOUS
 62
     5
 10
200.23568973570039
 20
-108.1479084282
 30
0.0
 11
200.8618904569004
 21
-108.2186678800999
 31
0.0
  0
LINE
  8
DETAIL
  6
CONTINUOUS
 62
     5
 10
200.8618904569004
 20
-108.2186678800999
 30
0.0
 11
201.5192831738004
 21
-108.2616673691
 31
0.0
  0
LINE
  8
DETAIL
  6
CONTINUOUS
 62
     5
 10
201.5192831738004
 20
-108.2616673691
 30
0.0
 11
202.20000002820049
 21
-108.2762860254002
 31
0.0
  0
LINE
  8
DETAIL
  6
CONTINUOUS
 62
     5
 10
193.09614191680021
 20
-82.823538144300059
 30
0.0
 11
193.12625376299999
 21
-83.098186409500158
 31
0.0
  0
LINE
  8
DETAIL
  6
CONTINUOUS
 62
     5
 10
193.12625376299999
 20
-83.098186409500158
 30
0.0
 11
193.18017683310021
 21
-83.370388117799848
 31
0.0
  0
LINE
  8
DETAIL
  6
CONTINUOUS
 62
     5
 10
193.18017683310021
 20
-83.370388117799848
 30
0.0
 11
193.25761444209999
 21
-83.638650350500029
 31
0.0
  0
LINE
  8
DETAIL
  6
CONTINUOUS
 62
     5
 10
193.25761444209999
 20
-83.638650350500029
 30
0.0
 11
193.3582138857
 21
-83.901866086700025
 31
0.0
  0
LINE
  8
DETAIL
  6
CONTINUOUS
 62
     5
 10
193.3582138857
 20
-83.901866086700025
 30
0.0
 11
193.48158290310039
 21
-84.158954160100151
 31
0.0
  0
LINE
  8
DETAIL
  6
CONTINUOUS
 62
     5
 10
193.48158290310039
 20
-84.158954160100151
 30
0.0
 11
193.62705257769991
 21
-84.408473559500194
 31
0.0
  0
LINE
  8
DETAIL
  6
CONTINUOUS
 62
     5
 10
193.62705257769991
 20
-84.408473559500194
 30
0.0
 11
193.7938245687001
 21
-84.649118119500145
 31
0.0
  0
LINE
  8
DETAIL
  6
CONTINUOUS
 62
     5
 10
193.7938245687001
 20
-84.649118119500145
 30
0.0
 11
193.98104463370009
 21
-84.879731904999971
 31
0.0
  0
LINE
  8
DETAIL
  6
CONTINUOUS
 62
     5
 10
193.98104463370009
 20
-84.879731904999971
 30
0.0
 11
194.18767851020041
 21
-85.09915189100002
 31
0.0
  0
LINE
  8
DETAIL
  6
CONTINUOUS
 62
     5
 10
194.18767851020041
 20
-85.09915189100002
 30
0.0
 11
194.41280733570011
 21
-85.30648393320007
 31
0.0
  0
LINE
  8
DETAIL
  6
CONTINUOUS
 62
     5
 10
194.41280733570011
 20
-85.30648393320007
 30
0.0
 11
194.65547072529989
 21
-85.500881301500158
 31
0.0
  0
LINE
  8
DETAIL
  6
CONTINUOUS
 62
     5
 10
194.65547072529989
 20
-85.500881301500158
 30
0.0
 11
194.91438961340009
 21
-85.681335414699788
 31
0.0
  0
LINE
  8
DETAIL
  6
CONTINUOUS
 62
     5
 10
194.91438961340009
 20
-85.681335414699788
 30
0.0
 11
195.1882390248002
 21
-85.846981644100183
 31
0.0
  0
LINE
  8
DETAIL
  6
CONTINUOUS
 62
     5
 10
195.1882390248002
 20
-85.846981644100183
 30
0.0
 11
195.47567135840021
 21
-85.997053551100194
 31
0.0
  0
LINE
  8
DETAIL
  6
CONTINUOUS
 62
     5
 10
195.47567135840021
 20
-85.997053551100194
 30
0.0
 11
195.7751908102
 21
-86.130845751500146
 31
0.0
  0
LINE
  8
DETAIL
  6
CONTINUOUS
 62
     5
 10
195.7751908102
 20
-86.130845751500146
 30
0.0
 11
196.08552815249999
 21
-86.247841063900069
 31
0.0
  0
LINE
  8
DETAIL
  6
CONTINUOUS
 62
     5
 10
196.08552815249999
 20
-86.247841063900069
 30
0.0
 11
196.40543527570031
 21
-86.347587853700119
 31
0.0
  0
LINE
  8
DETAIL
  6
CONTINUOUS
 62
     5
 10
196.40543527570031
 20
-86.347587853700119
 30
0.0
 11
196.73316267239991
 21
-86.429542181800116
 31
0.0
  0
LINE
  8
DETAIL
  6
CONTINUOUS
 62
     5
 10
196.73316267239991
 20
-86.429542181800116
 30
0.0
 11
197.06696108889989
 21
-86.493325428500142
 31
0.0
  0
LINE
  8
DETAIL
  6
CONTINUOUS
 62
     5
 10
197.06696108889989
 20
-86.493325428500142
 30
0.0
 11
197.40531309779999
 21
-86.538695318300128
 31
0.0
  0
LINE
  8
DETAIL
  6
CONTINUOUS
 62
     5
 10
197.40531309779999
 20
-86.538695318300128
 30
0.0
 11
197.74662868210001
 21
-86.565497516499804
 31
0.0
  0
LINE
  8
DETAIL
  6
CONTINUOUS
 62
     5
 10
197.74662868210001
 20
-86.565497516499804
 30
0.0
 11
198.0892895905998
 21
-86.573631351100204
 31
0.0
  0
LINE
  8
DETAIL
  6
CONTINUOUS
 62
     5
 10
193.09614191680021
 20
-96.261679781200201
 30
0.0
 11
190.14471587435361
 21
-39.945116041218171
 31
0.0
  0
LINE
  8
DETAIL
  6
CONTINUOUS
 62
     5
 10
196.1999999999997
 20
-105.6512492074999
 30
0.0
 11
196.20531503239999
 21
-105.7576229204001
 31
0.0
  0
LINE
  8
DETAIL
  6
CONTINUOUS
 62
     5
 10
196.20531503239999
 20
-105.7576229204001
 30
0.0
 11
196.2215826624001
 21
-105.86483482919991
 31
0.0
  0
LINE
  8
DETAIL
  6
CONTINUOUS
 62
     5
 10
196.2215826624001
 20
-105.86483482919991
 30
0.0
 11
196.24924988830031
 21
-105.97190553739981
 31
0.0
  0
LINE
  8
DETAIL
  6
CONTINUOUS
 62
     5
 10
196.24924988830031
 20
-105.97190553739981
 30
0.0
 11
196.28836859770041
 21
-106.0769957973998
 31
0.0
  0
LINE
  8
DETAIL
  6
CONTINUOUS
 62
     5
 10
196.28836859770041
 20
-106.0769957973998
 30
0.0
 11
196.3386935189001
 21
-106.1785078236999
 31
0.0
  0
LINE
  8
DETAIL
  6
CONTINUOUS
 62
     5
 10
196.3386935189001
 20
-106.1785078236999
 30
0.0
 11
196.3997348986004
 21
-106.27504275610001
 31
0.0
  0
LINE
  8
DETAIL
  6
CONTINUOUS
 62
     5
 10
196.3997348986004
 20
-106.27504275610001
 30
0.0
 11
196.47151534640031
 21
-106.36622750390011
 31
0.0
  0
LINE
  8
DETAIL
  6
CONTINUOUS
 62
     5
 10
196.47151534640031
 20
-106.36622750390011
 30
0.0
 11
196.5510509638998
 21
-106.4486608488
 31
0.0
  0
LINE
  8
DETAIL
  6
CONTINUOUS
 62
     5
 10
196.5510509638998
 20
-106.4486608488
 30
0.0
 11
196.63459420940029
 21
-106.52027798040039
 31
0.0
  0
LINE
  8
DETAIL
  6
CONTINUOUS
 62
     5
 10
196.63459420940029
 20
-106.52027798040039
 30
0.0
 11
196.72107435410001
 21
-106.58225204039989
 31
0.0
  0
LINE
  8
DETAIL
  6
CONTINUOUS
 62
     5
 10
196.72107435410001
 20
-106.58225204039989
 30
0.0
 11
196.80759225720021
 21
-106.6345341848
 31
0.0
  0
LINE
  8
DETAIL
  6
CONTINUOUS
 62
     5
 10
196.80759225720021
 20
-106.6345341848
 30
0.0
 11
196.8977219965
 21
-106.68067289779989
 31
0.0
  0
LINE
  8
DETAIL
  6
CONTINUOUS
 62
     5
 10
196.8977219965
 20
-106.68067289779989
 30
0.0
 11
196.99592169659991
 21
-106.72306605599989
 31
0.0
  0
LINE
  8
DETAIL
  6
CONTINUOUS
 62
     5
 10
196.99592169659991
 20
-106.72306605599989
 30
0.0
 11
197.10238256390039
 21
-106.7614659190999
 31
0.0
  0
LINE
  8
DETAIL
  6
CONTINUOUS
 62
     5
 10
184.5
 20
51.000933998199798
 30
0.0
 11
184.5
 21
58.999066001799747
 31
0.0
  0
LINE
  8
DETAIL
  6
CONTINUOUS
 62
     5
 10
186.1999999999997
 20
48.999914748500032
 30
0.0
 11
186.1999999999997
 21
60.999999999799911
 31
0.0
  0
LINE
  8
DETAIL
  6
CONTINUOUS
 62
     5
 10
196.1999999999997
 20
-105.6512492074999
 30
0.0
 11
196.19999518380021
 21
-101.54621262809999
 31
0.0
  0
LINE
  8
DETAIL
  6
CONTINUOUS
 62
     5
 10
197.6999999999997
 20
-105.5818988534002
 30
0.0
 11
197.6999999999997
 21
-106.74100984499999
 31
0.0
  0
LINE
  8
DETAIL
  6
CONTINUOUS
 62
     5
 10
206.6999999999997
 20
-105.5818988534002
 30
0.0
 11
206.6999999999997
 21
-106.74100984499999
 31
0.0
  0
LINE
  8
DETAIL
  6
CONTINUOUS
 62
     5
 10
209.6999999999997
 20
-77.527864813299857
 30
0.0
 11
209.6999999999997
 21
-71.884457773800023
 31
0.0
  0
LINE
  8
DETAIL
  6
CONTINUOUS
 62
     5
 10
209.6999999999997
 20
78.148077021699919
 30
0.0
 11
209.6999999999997
 21
91.147744907600099
 31
0.0
  0
LINE
  8
DETAIL
  6
CONTINUOUS
 62
     5
 10
209.6999999999997
 20
86.330234756800124
 30
0.0
 11
209.7170645094001
 21
86.920782603299813
 31
0.0
  0
LINE
  8
DETAIL
  6
CONTINUOUS
 62
     5
 10
209.7170645094001
 20
86.920782603299813
 30
0.0
 11
209.76611994550009
 21
87.514002732400058
 31
0.0
  0
LINE
  8
DETAIL
  6
CONTINUOUS
 62
     5
 10
209.76611994550009
 20
87.514002732400058
 30
0.0
 11
209.84727220639979
 21
88.107299352399878
 31
0.0
  0
LINE
  8
DETAIL
  6
CONTINUOUS
 62
     5
 10
209.84727220639979
 20
88.107299352399878
 30
0.0
 11
209.96020359740029
 21
88.708459838199801
 31
0.0
  0
LINE
  8
DETAIL
  6
CONTINUOUS
 62
     5
 10
209.96020359740029
 20
88.708459838199801
 30
0.0
 11
210.10459642370009
 21
89.325271564900049
 31
0.0
  0
LINE
  8
DETAIL
  6
CONTINUOUS
 62
     5
 10
210.10459642370009
 20
89.325271564900049
 30
0.0
 11
210.2805565836002
 21
89.955138740599978
 31
0.0
  0
LINE
  8
DETAIL
  6
CONTINUOUS
 62
     5
 10
209.6999999999997
 20
80.051716886900067
 30
0.0
 11
209.7097872474005
 21
80.379455660099666
 31
0.0
  0
LINE
  8
DETAIL
  6
CONTINUOUS
 62
     5
 10
209.7097872474005
 20
80.379455660099666
 30
0.0
 11
209.73794602720051
 21
80.706979244199843
 31
0.0
  0
LINE
  8
DETAIL
  6
CONTINUOUS
 62
     5
 10
209.73794602720051
 20
80.706979244199843
 30
0.0
 11
209.78472568600051
 21
81.0338398074
 31
0.0
  0
LINE
  8
DETAIL
  6
CONTINUOUS
 62
     5
 10
209.78472568600051
 20
81.0338398074
 30
0.0
 11
209.84937818350039
 21
81.361380845500179
 31
0.0
  0
LINE
  8
DETAIL
  6
CONTINUOUS
 62
     5
 10
209.84937818350039
 20
81.361380845500179
 30
0.0
 11
209.93116645800001
 21
81.689931288100055
 31
0.0
  0
LINE
  8
DETAIL
  6
CONTINUOUS
 62
     5
 10
209.93116645800001
 20
81.689931288100055
 30
0.0
 11
210.03030692080031
 21
82.022087001999822
 31
0.0
  0
LINE
  8
DETAIL
  6
CONTINUOUS
 62
     5
 10
210.03030692080031
 20
82.022087001999822
 30
0.0
 11
210.14676663650019
 21
82.360891686400009
 31
0.0
  0
LINE
  8
DETAIL
  6
CONTINUOUS
 62
     5
 10
210.14676663650019
 20
82.360891686400009
 30
0.0
 11
210.2805565836002
 21
82.70533077490019
 31
0.0
  0
LINE
  8
DETAIL
  6
CONTINUOUS
 62
     5
 10
209.6999999999997
 20
-75.624224948100164
 30
0.0
 11
209.7097872474005
 21
-75.29648617490011
 31
0.0
  0
LINE
  8
DETAIL
  6
CONTINUOUS
 62
     5
 10
193.09614191680021
 20
96.261679781199746
 30
0.0
 11
191.44955803880021
 21
64.842987737699787
 31
0.0
  0
LINE
  8
DETAIL
  6
CONTINUOUS
 62
     5
 10
191.44955557919999
 20
64.842987905899932
 30
0.0
 11
191.43123856150029
 21
64.633843559100114
 31
0.0
  0
LINE
  8
DETAIL
  6
CONTINUOUS
 62
     5
 10
191.43123856150029
 20
64.633843559100114
 30
0.0
 11
191.39347075320029
 21
64.402037786900095
 31
0.0
  0
LINE
  8
DETAIL
  6
CONTINUOUS
 62
     5
 10
191.39347075320029
 20
64.402037786900095
 30
0.0
 11
191.33768483390031
 21
64.173895893799909
 31
0.0
  0
LINE
  8
DETAIL
  6
CONTINUOUS
 62
     5
 10
191.33768483390031
 20
64.173895893799909
 30
0.0
 11
191.2642225427999
 21
63.950816368799678
 31
0.0
  0
LINE
  8
DETAIL
  6
CONTINUOUS
 62
     5
 10
191.2642225427999
 20
63.950816368799678
 30
0.0
 11
191.1735340023001
 21
63.734166653299781
 31
0.0
  0
LINE
  8
DETAIL
  6
CONTINUOUS
 62
     5
 10
191.1735340023001
 20
63.734166653299781
 30
0.0
 11
191.0661749171004
 21
63.525274708699719
 31
0.0
  0
LINE
  8
DETAIL
  6
CONTINUOUS
 62
     5
 10
191.0661749171004
 20
63.525274708699719
 30
0.0
 11
190.94280319310019
 21
63.325420967799801
 31
0.0
  0
LINE
  8
DETAIL
  6
CONTINUOUS
 62
     5
 10
190.94280319310019
 20
63.325420967799801
 30
0.0
 11
190.80417493480039
 21
63.135830516700032
 31
0.0
  0
LINE
  8
DETAIL
  6
CONTINUOUS
 62
     5
 10
190.80417493480039
 20
63.135830516700032
 30
0.0
 11
190.6511397858003
 21
62.957665523899777
 31
0.0
  0
LINE
  8
DETAIL
  6
CONTINUOUS
 62
     5
 10
190.6511397858003
 20
62.957665523899777
 30
0.0
 11
190.48463571140019
 21
62.792018110700162
 31
0.0
  0
LINE
  8
DETAIL
  6
CONTINUOUS
 62
     5
 10
190.48463571140019
 20
62.792018110700162
 30
0.0
 11
190.3056832587998
 21
62.639903668399718
 31
0.0
  0
LINE
  8
DETAIL
  6
CONTINUOUS
 62
     5
 10
190.3056832587998
 20
62.639903668399718
 30
0.0
 11
190.11537929680031
 21
62.502254628199807
 31
0.0
  0
LINE
  8
DETAIL
  6
CONTINUOUS
 62
     5
 10
190.11537929680031
 20
62.502254628199807
 30
0.0
 11
189.9148902901002
 21
62.379914741799887
 31
0.0
  0
LINE
  8
DETAIL
  6
CONTINUOUS
 62
     5
 10
189.9148902901002
 20
62.379914741799887
 30
0.0
 11
189.7054451468002
 21
62.273633908299857
 31
0.0
  0
LINE
  8
DETAIL
  6
CONTINUOUS
 62
     5
 10
189.7054451468002
 20
62.273633908299857
 30
0.0
 11
189.4883276814999
 21
62.184063573899927
 31
0.0
  0
LINE
  8
DETAIL
  6
CONTINUOUS
 62
     5
 10
189.4883276814999
 20
62.184063573899927
 30
0.0
 11
189.2648687435003
 21
62.111752737700037
 31
0.0
  0
LINE
  8
DETAIL
  6
CONTINUOUS
 62
     5
 10
189.2648687435003
 20
62.111752737700037
 30
0.0
 11
189.036438054
 21
62.057144585200149
 31
0.0
  0
LINE
  8
DETAIL
  6
CONTINUOUS
 62
     5
 10
189.036438054
 20
62.057144585200149
 30
0.0
 11
188.80443580670001
 21
62.020573770899773
 31
0.0
  0
LINE
  8
DETAIL
  6
CONTINUOUS
 62
     5
 10
188.80443580670001
 20
62.020573770899773
 30
0.0
 11
188.57028412320051
 21
62.002264368799842
 31
0.0
  0
LINE
  8
DETAIL
  6
CONTINUOUS
 62
     5
 10
188.57028412320051
 20
62.002264368799842
 30
0.0
 11
188.45366954870039
 21
61.99999701589968
 31
0.0
  0
LINE
  8
DETAIL
  6
CONTINUOUS
 62
     5
 10
209.6999999999997
 20
90.926428835200113
 30
0.0
 11
209.7170645094001
 21
91.084665653799689
 31
0.0
  0
LINE
  8
DETAIL
  6
CONTINUOUS
 62
     5
 10
209.7170645094001
 20
91.084665653799689
 30
0.0
 11
209.76611994550009
 21
91.243618508299718
 31
0.0
  0
LINE
  8
DETAIL
  6
CONTINUOUS
 62
     5
 10
209.76611994550009
 20
91.243618508299718
 30
0.0
 11
209.83218830720031
 21
91.37721371169981
 31
0.0
  0
LINE
  8
DETAIL
  6
CONTINUOUS
 62
     5
 10
193.09614191680021
 20
49.056829530200041
 30
0.0
 11
193.12625387860041
 21
49.270436372599747
 31
0.0
  0
LINE
  8
DETAIL
  6
CONTINUOUS
 62
     5
 10
193.12625387860041
 20
49.270436372599747
 30
0.0
 11
193.18017711110039
 21
49.482195100999888
 31
0.0
  0
LINE
  8
DETAIL
  6
CONTINUOUS
 62
     5
 10
193.18017711110039
 20
49.482195100999888
 30
0.0
 11
193.25761480820029
 21
49.691309662799988
 31
0.0
  0
LINE
  8
DETAIL
  6
CONTINUOUS
 62
     5
 10
193.25761480820029
 20
49.691309662799988
 30
0.0
 11
193.3582142636001
 21
49.896795348499843
 31
0.0
  0
LINE
  8
DETAIL
  6
CONTINUOUS
 62
     5
 10
193.3582142636001
 20
49.896795348499843
 30
0.0
 11
193.48158330690009
 21
50.097788363799737
 31
0.0
  0
LINE
  8
DETAIL
  6
CONTINUOUS
 62
     5
 10
193.48158330690009
 20
50.097788363799737
 30
0.0
 11
193.62705299640041
 21
50.293173762199793
 31
0.0
  0
LINE
  8
DETAIL
  6
CONTINUOUS
 62
     5
 10
193.62705299640041
 20
50.293173762199793
 30
0.0
 11
193.79382499680011
 21
50.481902050400087
 31
0.0
  0
LINE
  8
DETAIL
  6
CONTINUOUS
 62
     5
 10
193.79382499680011
 20
50.481902050400087
 30
0.0
 11
193.98104506610031
 21
50.663077538699781
 31
0.0
  0
LINE
  8
DETAIL
  6
CONTINUOUS
 62
     5
 10
193.98104506610031
 20
50.663077538699781
 30
0.0
 11
194.18767894300029
 21
50.835758098100086
 31
0.0
  0
LINE
  8
DETAIL
  6
CONTINUOUS
 62
     5
 10
194.18767894300029
 20
50.835758098100086
 30
0.0
 11
194.4128077635005
 21
50.999245457199777
 31
0.0
  0
LINE
  8
DETAIL
  6
CONTINUOUS
 62
     5
 10
194.4128077635005
 20
50.999245457199777
 30
0.0
 11
194.6554711389999
 21
51.15284551959985
 31
0.0
  0
LINE
  8
DETAIL
  6
CONTINUOUS
 62
     5
 10
194.6554711389999
 20
51.15284551959985
 30
0.0
 11
194.9143900064
 21
51.295771580199933
 31
0.0
  0
LINE
  8
DETAIL
  6
CONTINUOUS
 62
     5
 10
194.9143900064
 20
51.295771580199933
 30
0.0
 11
195.18823939200001
 21
51.427305859800072
 31
0.0
  0
LINE
  8
DETAIL
  6
CONTINUOUS
 62
     5
 10
195.18823939200001
 20
51.427305859800072
 30
0.0
 11
195.47567169520019
 21
51.546851190199959
 31
0.0
  0
LINE
  8
DETAIL
  6
CONTINUOUS
 62
     5
 10
195.47567169520019
 20
51.546851190199959
 30
0.0
 11
195.7751911127998
 21
51.653815485000003
 31
0.0
  0
LINE
  8
DETAIL
  6
CONTINUOUS
 62
     5
 10
195.7751911127998
 20
51.653815485000003
 30
0.0
 11
196.0855284175004
 21
51.747790551899932
 31
0.0
  0
LINE
  8
DETAIL
  6
CONTINUOUS
 62
     5
 10
196.0855284175004
 20
51.747790551899932
 30
0.0
 11
196.40543550009991
 21
51.828388574999742
 31
0.0
  0
LINE
  8
DETAIL
  6
CONTINUOUS
 62
     5
 10
196.40543550009991
 20
51.828388574999742
 30
0.0
 11
196.7331628539005
 21
51.895186479800032
 31
0.0
  0
LINE
  8
DETAIL
  6
CONTINUOUS
 62
     5
 10
196.7331628539005
 20
51.895186479800032
 30
0.0
 11
197.0669612257002
 21
51.947841856099792
 31
0.0
  0
LINE
  8
DETAIL
  6
CONTINUOUS
 62
     5
 10
197.0669612257002
 20
51.947841856099792
 30
0.0
 11
197.40531318890041
 21
51.986168806699887
 31
0.0
  0
LINE
  8
DETAIL
  6
CONTINUOUS
 62
     5
 10
197.40531318890041
 20
51.986168806699887
 30
0.0
 11
197.74662872740009
 21
52.010000678400047
 31
0.0
  0
LINE
  8
DETAIL
  6
CONTINUOUS
 62
     5
 10
197.74662872740009
 20
52.010000678400047
 30
0.0
 11
198.0892895905998
 21
52.019288294000027
 31
0.0
  0
LINE
  8
DETAIL
  6
CONTINUOUS
 62
     5
 10
445.19999993689999
 20
-39.88698796000017
 30
0.0
 11
445.39441931120018
 21
-39.88349122930002
 31
0.0
  0
LINE
  8
DETAIL
  6
CONTINUOUS
 62
     5
 10
445.39441931120018
 20
-39.88349122930002
 30
0.0
 11
445.72863203150018
 21
-39.861139904100128
 31
0.0
  0
LINE
  8
DETAIL
  6
CONTINUOUS
 62
     5
 10
445.72863203150018
 20
-39.861139904100128
 30
0.0
 11
446.06204612960022
 21
-39.817917279599897
 31
0.0
  0
LINE
  8
DETAIL
  6
CONTINUOUS
 62
     5
 10
446.06204612960022
 20
-39.817917279599897
 30
0.0
 11
446.39264548170007
 21
-39.753822213000149
 31
0.0
  0
LINE
  8
DETAIL
  6
CONTINUOUS
 62
     5
 10
446.39264548170007
 20
-39.753822213000149
 30
0.0
 11
446.71876377950002
 21
-39.66892719840007
 31
0.0
  0
LINE
  8
DETAIL
  6
CONTINUOUS
 62
     5
 10
446.71876377950002
 20
-39.66892719840007
 30
0.0
 11
447.03867476400001
 21
-39.563482561599812
 31
0.0
  0
LINE
  8
DETAIL
  6
CONTINUOUS
 62
     5
 10
447.03867476400001
 20
-39.563482561599812
 30
0.0
 11
447.35066825640018
 21
-39.437845635599842
 31
0.0
  0
LINE
  8
DETAIL
  6
CONTINUOUS
 62
     5
 10
447.35066825640018
 20
-39.437845635599842
 30
0.0
 11
447.65310442660029
 21
-39.292517743299868
 31
0.0
  0
LINE
  8
DETAIL
  6
CONTINUOUS
 62
     5
 10
442.94482283360003
 20
-39.886987960100207
 30
0.0
 11
445.19999993660042
 21
-39.886987960100207
 31
0.0
  0
LINE
  8
DETAIL
  6
CONTINUOUS
 62
     5
 10
413.20000000000022
 20
-52.019312013099807
 30
0.0
 11
430.31071040939997
 21
-52.019288294100072
 31
0.0
  0
LINE
  8
DETAIL
  6
CONTINUOUS
 62
     5
 10
291.70000000000027
 20
-153.42125577680011
 30
0.0
 11
291.23544237829992
 21
-152.8230560029001
 31
0.0
  0
LINE
  8
DETAIL
  6
CONTINUOUS
 62
     5
 10
291.23544237829992
 20
-152.8230560029001
 30
0.0
 11
290.49476872220021
 21
-151.6905941908999
 31
0.0
  0
LINE
  8
DETAIL
  6
CONTINUOUS
 62
     5
 10
290.49476872220021
 20
-151.6905941908999
 30
0.0
 11
289.86549748030018
 21
-150.52496780050021
 31
0.0
  0
LINE
  8
DETAIL
  6
CONTINUOUS
 62
     5
 10
289.86549748030018
 20
-150.52496780050021
 30
0.0
 11
289.35139883960028
 21
-149.33146649770009
 31
0.0
  0
LINE
  8
DETAIL
  6
CONTINUOUS
 62
     5
 10
289.35139883960028
 20
-149.33146649770009
 30
0.0
 11
288.95407782880011
 21
-148.1158988950001
 31
0.0
  0
LINE
  8
DETAIL
  6
CONTINUOUS
 62
     5
 10
288.95407782880011
 20
-148.1158988950001
 30
0.0
 11
288.67624137780012
 21
-146.88386678410009
 31
0.0
  0
LINE
  8
DETAIL
  6
CONTINUOUS
 62
     5
 10
288.67624137780012
 20
-146.88386678410009
 30
0.0
 11
288.51835396949991
 21
-145.6412802924001
 31
0.0
  0
LINE
  8
DETAIL
  6
CONTINUOUS
 62
     5
 10
291.70000000000027
 20
-155.89701678080019
 30
0.0
 11
291.23609997030007
 21
-155.2996637726001
 31
0.0
  0
LINE
  8
DETAIL
  6
CONTINUOUS
 62
     5
 10
291.23609997030007
 20
-155.2996637726001
 30
0.0
 11
290.49542631419979
 21
-154.16720196060029
 31
0.0
  0
LINE
  8
DETAIL
  6
CONTINUOUS
 62
     5
 10
290.49542631419979
 20
-154.16720196060029
 30
0.0
 11
289.86615507229999
 21
-153.00157557010019
 31
0.0
  0
LINE
  8
DETAIL
  6
CONTINUOUS
 62
     5
 10
289.86615507229999
 20
-153.00157557010019
 30
0.0
 11
289.35205643170002
 21
-151.80807426740009
 31
0.0
  0
LINE
  8
DETAIL
  6
CONTINUOUS
 62
     5
 10
289.35205643170002
 20
-151.80807426740009
 30
0.0
 11
288.95473542080032
 21
-150.5925066647001
 31
0.0
  0
LINE
  8
DETAIL
  6
CONTINUOUS
 62
     5
 10
288.95473542080032
 20
-150.5925066647001
 30
0.0
 11
288.67689896979982
 21
-149.3604745538
 31
0.0
  0
LINE
  8
DETAIL
  6
CONTINUOUS
 62
     5
 10
288.67689896979982
 20
-149.3604745538
 30
0.0
 11
288.51901156160011
 21
-148.11788806210009
 31
0.0
  0
LINE
  8
DETAIL
  6
CONTINUOUS
 62
     5
 10
288.51901156160011
 20
-148.11788806210009
 30
0.0
 11
288.48025746100018
 21
-147.12184884320001
 31
0.0
  0
LINE
  8
DETAIL
  6
CONTINUOUS
 62
     5
 10
209.83218830720031
 20
-77.75733361750008
 30
0.0
 11
209.84727220639979
 21
-77.782711764300061
 31
0.0
  0
LINE
  8
DETAIL
  6
CONTINUOUS
 62
     5
 10
209.84727220639979
 20
-77.782711764300061
 30
0.0
 11
209.96020359740029
 21
-77.943792230999861
 31
0.0
  0
LINE
  8
DETAIL
  6
CONTINUOUS
 62
     5
 10
209.96020359740029
 20
-77.943792230999861
 30
0.0
 11
210.10459642370009
 21
-78.109066434999932
 31
0.0
  0
LINE
  8
DETAIL
  6
CONTINUOUS
 62
     5
 10
210.10459642370009
 20
-78.109066434999932
 30
0.0
 11
210.2805565836002
 21
-78.277838836100258
 31
0.0
  0
LINE
  8
DETAIL
  6
CONTINUOUS
 62
     5
 10
209.83238362970039
 20
-77.757326043099965
 30
0.0
 11
209.6999999999997
 21
-77.528030870400016
 31
0.0
  0
LINE
  8
DETAIL
  6
CONTINUOUS
 62
     5
 10
210.2805565836002
 20
-78.277838836100258
 30
0.0
 11
210.14668597890011
 21
-77.933167651699932
 31
0.0
  0
LINE
  8
DETAIL
  6
CONTINUOUS
 62
     5
 10
210.14668597890011
 20
-77.933167651699932
 30
0.0
 11
210.03018112330031
 21
-77.594204006200016
 31
0.0
  0
LINE
  8
DETAIL
  6
CONTINUOUS
 62
     5
 10
210.03018112330031
 20
-77.594204006200016
 30
0.0
 11
209.93103634779979
 21
-77.261963592200132
 31
0.0
  0
LINE
  8
DETAIL
  6
CONTINUOUS
 62
     5
 10
209.93103634779979
 20
-77.261963592200132
 30
0.0
 11
209.84926865980009
 21
-76.933399332000121
 31
0.0
  0
LINE
  8
DETAIL
  6
CONTINUOUS
 62
     5
 10
209.84926865980009
 20
-76.933399332000121
 30
0.0
 11
209.78465161950041
 21
-76.605920539499934
 31
0.0
  0
LINE
  8
DETAIL
  6
CONTINUOUS
 62
     5
 10
209.78465161950041
 20
-76.605920539499934
 30
0.0
 11
209.73790989969959
 21
-76.279173733199968
 31
0.0
  0
LINE
  8
DETAIL
  6
CONTINUOUS
 62
     5
 10
209.73790989969959
 20
-76.279173733199968
 30
0.0
 11
209.70977384229991
 21
-75.951789738900061
 31
0.0
  0
LINE
  8
DETAIL
  6
CONTINUOUS
 62
     5
 10
209.70977384229991
 20
-75.951789738900061
 30
0.0
 11
209.6999999999997
 21
-75.624224948100164
 31
0.0
  0
LINE
  8
DETAIL
  6
CONTINUOUS
 62
     5
 10
206.69844996000029
 20
-105.5818988534002
 30
0.0
 11
206.6316348886003
 21
-105.37965330350021
 31
0.0
  0
LINE
  8
DETAIL
  6
CONTINUOUS
 62
     5
 10
206.6316348886003
 20
-105.37965330350021
 30
0.0
 11
206.42716023240021
 21
-105.1836900939002
 31
0.0
  0
LINE
  8
DETAIL
  6
CONTINUOUS
 62
     5
 10
206.42716023240021
 20
-105.1836900939002
 30
0.0
 11
206.09711431700001
 21
-104.9995560019001
 31
0.0
  0
LINE
  8
DETAIL
  6
CONTINUOUS
 62
     5
 10
206.09711431700001
 20
-104.9995560019001
 30
0.0
 11
205.64601259450001
 21
-104.8335111878
 31
0.0
  0
LINE
  8
DETAIL
  6
CONTINUOUS
 62
     5
 10
205.64601259450001
 20
-104.8335111878
 30
0.0
 11
205.09254424360009
 21
-104.6896978427003
 31
0.0
  0
LINE
  8
DETAIL
  6
CONTINUOUS
 62
     5
 10
205.09254424360009
 20
-104.6896978427003
 30
0.0
 11
204.44922498000011
 21
-104.5735988792003
 31
0.0
  0
LINE
  8
DETAIL
  6
CONTINUOUS
 62
     5
 10
204.44922498000011
 20
-104.5735988792003
 30
0.0
 11
203.739090645
 21
-104.4874522928003
 31
0.0
  0
LINE
  8
DETAIL
  6
CONTINUOUS
 62
     5
 10
203.739090645
 20
-104.4874522928003
 30
0.0
 11
202.99274995330009
 21
-104.4358319206999
 31
0.0
  0
LINE
  8
DETAIL
  6
CONTINUOUS
 62
     5
 10
202.99274995330009
 20
-104.4358319206999
 30
0.0
 11
202.1999999999997
 21
-104.4172131504001
 31
0.0
  0
LINE
  8
DETAIL
  6
CONTINUOUS
 62
     5
 10
210.2805565836002
 20
82.70533077490019
 30
0.0
 11
210.1044922934002
 21
83.335642671999707
 31
0.0
  0
LINE
  8
DETAIL
  6
CONTINUOUS
 62
     5
 10
210.1044922934002
 20
83.335642671999707
 30
0.0
 11
209.96005016550041
 21
83.9527344406997
 31
0.0
  0
LINE
  8
DETAIL
  6
CONTINUOUS
 62
     5
 10
209.96005016550041
 20
83.9527344406997
 30
0.0
 11
209.84713665460001
 21
84.554022673300096
 31
0.0
  0
LINE
  8
DETAIL
  6
CONTINUOUS
 62
     5
 10
209.84713665460001
 20
84.554022673300096
 30
0.0
 11
209.76603239630001
 21
85.147257593199811
 31
0.0
  0
LINE
  8
DETAIL
  6
CONTINUOUS
 62
     5
 10
209.76603239630001
 20
85.147257593199811
 30
0.0
 11
209.7170180266003
 21
85.740189423599986
 31
0.0
  0
LINE
  8
DETAIL
  6
CONTINUOUS
 62
     5
 10
209.7170180266003
 20
85.740189423599986
 30
0.0
 11
209.6999999999997
 21
86.330234756800124
 31
0.0
  0
LINE
  8
DETAIL
  6
CONTINUOUS
 62
     5
 10
215.1999999999997
 20
-98.963933161100158
 30
0.0
 11
215.19999999999939
 21
-80.939831728852809
 31
0.0
  0
LINE
  8
DETAIL
  6
CONTINUOUS
 62
     5
 10
215.1999999999997
 20
52.019312013099807
 30
0.0
 11
215.1999999999997
 21
98.963933161099703
 31
0.0
  0
LINE
  8
DETAIL
  6
CONTINUOUS
 62
     5
 10
445.39446347570038
 20
-39.883489631200057
 30
0.0
 11
445.72870814160018
 21
-39.861132429999998
 31
0.0
  0
LINE
  8
DETAIL
  6
CONTINUOUS
 62
     5
 10
445.72870814160018
 20
-39.861132429999998
 30
0.0
 11
446.06213994970039
 21
-39.817902219399897
 31
0.0
  0
LINE
  8
DETAIL
  6
CONTINUOUS
 62
     5
 10
446.06213994970039
 20
-39.817902219399897
 30
0.0
 11
446.39274592940001
 21
-39.75379938839977
 31
0.0
  0
LINE
  8
DETAIL
  6
CONTINUOUS
 62
     5
 10
446.39274592940001
 20
-39.75379938839977
 30
0.0
 11
446.71886275309998
 21
-39.668898112499853
 31
0.0
  0
LINE
  8
DETAIL
  6
CONTINUOUS
 62
     5
 10
446.71886275309998
 20
-39.668898112499853
 30
0.0
 11
447.03876496220022
 21
-39.563449545500127
 31
0.0
  0
LINE
  8
DETAIL
  6
CONTINUOUS
 62
     5
 10
447.03876496220022
 20
-39.563449545500127
 30
0.0
 11
447.35074539969992
 21
-39.437811716600223
 31
0.0
  0
LINE
  8
DETAIL
  6
CONTINUOUS
 62
     5
 10
447.35074539969992
 20
-39.437811716600223
 30
0.0
 11
447.65316430930022
 21
-39.292486460999953
 31
0.0
  0
LINE
  8
DETAIL
  6
CONTINUOUS
 62
     5
 10
447.65316430930022
 20
-39.292486460999953
 30
0.0
 11
447.94438786109998
 21
-39.128137869799957
 31
0.0
  0
LINE
  8
DETAIL
  6
CONTINUOUS
 62
     5
 10
430.31071040939997
 20
-86.57363135300011
 30
0.0
 11
430.65337052860008
 21
-86.565497638900069
 31
0.0
  0
LINE
  8
DETAIL
  6
CONTINUOUS
 62
     5
 10
430.65337052860008
 20
-86.565497638900069
 30
0.0
 11
430.99468505050032
 21
-86.538695676299994
 31
0.0
  0
LINE
  8
DETAIL
  6
CONTINUOUS
 62
     5
 10
430.99468505050032
 20
-86.538695676299994
 30
0.0
 11
431.33303545929988
 21
-86.49332622969996
 31
0.0
  0
LINE
  8
DETAIL
  6
CONTINUOUS
 62
     5
 10
431.33303545929988
 20
-86.49332622969996
 30
0.0
 11
431.66683262430013
 21
-86.429543548400034
 31
0.0
  0
LINE
  8
DETAIL
  6
CONTINUOUS
 62
     5
 10
431.66683262430013
 20
-86.429543548400034
 30
0.0
 11
431.99456017010021
 21
-86.347589555500221
 31
0.0
  0
LINE
  8
DETAIL
  6
CONTINUOUS
 62
     5
 10
431.99456017010021
 20
-86.347589555500221
 30
0.0
 11
432.31446783390038
 21
-86.247842961600298
 31
0.0
  0
LINE
  8
DETAIL
  6
CONTINUOUS
 62
     5
 10
432.31446783390038
 20
-86.247842961600298
 30
0.0
 11
432.62480542850022
 21
-86.130847918199805
 31
0.0
  0
LINE
  8
DETAIL
  6
CONTINUOUS
 62
     5
 10
432.62480542850022
 20
-86.130847918199805
 30
0.0
 11
432.92432510550037
 21
-85.99705599339994
 31
0.0
  0
LINE
  8
DETAIL
  6
CONTINUOUS
 62
     5
 10
432.92432510550037
 20
-85.99705599339994
 30
0.0
 11
433.21175766790009
 21
-85.846984359000089
 31
0.0
  0
LINE
  8
DETAIL
  6
CONTINUOUS
 62
     5
 10
433.21175766790009
 20
-85.846984359000089
 30
0.0
 11
433.48560730960031
 21
-85.681338405300266
 31
0.0
  0
LINE
  8
DETAIL
  6
CONTINUOUS
 62
     5
 10
433.48560730960031
 20
-85.681338405300266
 30
0.0
 11
433.7445264367002
 21
-85.500884567800298
 31
0.0
  0
LINE
  8
DETAIL
  6
CONTINUOUS
 62
     5
 10
433.7445264367002
 20
-85.500884567800298
 30
0.0
 11
433.98719007100038
 21
-85.306487484300305
 31
0.0
  0
LINE
  8
DETAIL
  6
CONTINUOUS
 62
     5
 10
433.98719007100038
 20
-85.306487484300305
 30
0.0
 11
434.21231915020002
 21
-85.09915573319995
 31
0.0
  0
LINE
  8
DETAIL
  6
CONTINUOUS
 62
     5
 10
434.21231915020002
 20
-85.09915573319995
 30
0.0
 11
434.41895327589998
 21
-84.879736077100006
 31
0.0
  0
LINE
  8
DETAIL
  6
CONTINUOUS
 62
     5
 10
434.41895327589998
 20
-84.879736077100006
 30
0.0
 11
434.60617357830012
 21
-84.649122671200061
 31
0.0
  0
LINE
  8
DETAIL
  6
CONTINUOUS
 62
     5
 10
434.60617357830012
 20
-84.649122671200061
 30
0.0
 11
434.7729457958003
 21
-84.408478611600003
 31
0.0
  0
LINE
  8
DETAIL
  6
CONTINUOUS
 62
     5
 10
434.7729457958003
 20
-84.408478611600003
 30
0.0
 11
434.91841568320012
 21
-84.158959799000058
 31
0.0
  0
LINE
  8
DETAIL
  6
CONTINUOUS
 62
     5
 10
434.91841568320012
 20
-84.158959799000058
 30
0.0
 11
435.04178491590028
 21
-83.901872723799883
 31
0.0
  0
LINE
  8
DETAIL
  6
CONTINUOUS
 62
     5
 10
435.04178491590028
 20
-83.901872723799883
 30
0.0
 11
435.14238452110021
 21
-83.63865983210006
 31
0.0
  0
LINE
  8
DETAIL
  6
CONTINUOUS
 62
     5
 10
435.14238452110021
 20
-83.63865983210006
 30
0.0
 11
435.21982243420013
 21
-83.370398891499917
 31
0.0
  0
LINE
  8
DETAIL
  6
CONTINUOUS
 62
     5
 10
435.21982243420013
 20
-83.370398891499917
 30
0.0
 11
435.27374594180043
 21
-83.098193650399935
 31
0.0
  0
LINE
  8
DETAIL
  6
CONTINUOUS
 62
     5
 10
435.27374594180043
 20
-83.098193650399935
 30
0.0
 11
435.30385808320023
 21
-82.823538144300059
 31
0.0
  0
LINE
  8
DETAIL
  6
CONTINUOUS
 62
     5
 10
413.20000000000022
 20
-77.398102998899972
 30
0.0
 11
418.11944341639992
 21
-77.398102998899972
 31
0.0
  0
LINE
  8
DETAIL
  6
CONTINUOUS
 62
     5
 10
213.60102510459771
 20
-78.2778388361005
 30
0.0
 11
210.2805565836002
 21
-78.277838836100258
 31
0.0
  0
LINE
  8
DETAIL
  6
CONTINUOUS
 62
     5
 10
413.20000000000022
 20
-79.340683188599982
 30
0.0
 11
418.11944341639992
 21
-79.340683188599982
 31
0.0
  0
LINE
  8
DETAIL
  6
CONTINUOUS
 62
     5
 10
215.1999999999997
 20
-86.573617099500098
 30
0.0
 11
198.0892895905998
 21
-86.573631351100204
 31
0.0
  0
LINE
  8
DETAIL
  6
CONTINUOUS
 62
     5
 10
413.20000000000022
 20
-86.590491154400297
 30
0.0
 11
418.11944341639992
 21
-86.590491154400297
 31
0.0
  0
LINE
  8
DETAIL
  6
CONTINUOUS
 62
     5
 10
413.20000000000022
 20
-91.89771893040006
 30
0.0
 11
418.11944341639992
 21
-91.89771893040006
 31
0.0
  0
LINE
  8
DETAIL
  6
CONTINUOUS
 62
     5
 10
430.31071040939997
 20
-86.57363135300011
 30
0.0
 11
418.70000000000022
 21
-86.573617099500098
 31
0.0
  0
LINE
  8
DETAIL
  6
CONTINUOUS
 62
     5
 10
203.60095087189981
 20
-107.0852772942999
 30
0.0
 11
203.58581929880029
 21
-107.0754041173
 31
0.0
  0
LINE
  8
DETAIL
  6
CONTINUOUS
 62
     5
 10
203.58581929880029
 20
-107.0754041173
 30
0.0
 11
203.44651813040039
 21
-107.0084032070999
 31
0.0
  0
LINE
  8
DETAIL
  6
CONTINUOUS
 62
     5
 10
203.44651813040039
 20
-107.0084032070999
 30
0.0
 11
203.26066017180031
 21
-106.9494537053001
 31
0.0
  0
LINE
  8
DETAIL
  6
CONTINUOUS
 62
     5
 10
203.26066017180031
 20
-106.9494537053001
 30
0.0
 11
203.0328967864998
 21
-106.90135012590009
 31
0.0
  0
LINE
  8
DETAIL
  6
CONTINUOUS
 62
     5
 10
203.0328967864998
 20
-106.90135012590009
 30
0.0
 11
202.7740251485001
 21
-106.8652963305003
 31
0.0
  0
LINE
  8
DETAIL
  6
CONTINUOUS
 62
     5
 10
202.7740251485001
 20
-106.8652963305003
 30
0.0
 11
202.49793633990021
 21
-106.8436946061001
 31
0.0
  0
LINE
  8
DETAIL
  6
CONTINUOUS
 62
     5
 10
202.49793633990021
 20
-106.8436946061001
 30
0.0
 11
202.1999999999997
 21
-106.83574419040001
 31
0.0
  0
LINE
  8
DETAIL
  6
CONTINUOUS
 62
     5
 10
308.06971364079982
 20
-277.86956901719992
 30
0.0
 11
292.63967145210017
 21
-176.19234984290009
 31
0.0
  0
LINE
  8
DETAIL
  6
CONTINUOUS
 62
     5
 10
292.63967145210017
 20
-176.19234984290009
 30
0.0
 11
292.35243383700032
 21
-174.12564902790021
 31
0.0
  0
LINE
  8
DETAIL
  6
CONTINUOUS
 62
     5
 10
292.35243383700032
 20
-174.12564902790021
 30
0.0
 11
292.11746776690012
 21
-172.05602250470019
 31
0.0
  0
LINE
  8
DETAIL
  6
CONTINUOUS
 62
     5
 10
292.11746776690012
 20
-172.05602250470019
 30
0.0
 11
291.93479625430018
 21
-169.98461431600029
 31
0.0
  0
LINE
  8
DETAIL
  6
CONTINUOUS
 62
     5
 10
291.93479625430018
 20
-169.98461431600029
 30
0.0
 11
291.80434575730038
 21
-167.911683369
 31
0.0
  0
LINE
  8
DETAIL
  6
CONTINUOUS
 62
     5
 10
291.80434575730038
 20
-167.911683369
 30
0.0
 11
291.72608005419988
 21
-165.83748835680029
 31
0.0
  0
LINE
  8
DETAIL
  6
CONTINUOUS
 62
     5
 10
291.72608005419988
 20
-165.83748835680029
 30
0.0
 11
291.70000000000027
 21
-163.7631749757002
 31
0.0
  0
LINE
  8
DETAIL
  6
CONTINUOUS
 62
     5
 10
291.69545652610032
 20
-146.47402462030001
 30
0.0
 11
291.68788177559998
 21
-146.3076211554999
 31
0.0
  0
LINE
  8
DETAIL
  6
CONTINUOUS
 62
     5
 10
291.68788177559998
 20
-146.3076211554999
 30
0.0
 11
291.68161896670023
 21
-146.0856795191003
 31
0.0
  0
LINE
  8
DETAIL
  6
CONTINUOUS
 62
     5
 10
291.68161896670023
 20
-146.0856795191003
 30
0.0
 11
291.67980017170021
 21
-145.9191941917002
 31
0.0
  0
LINE
  8
DETAIL
  6
CONTINUOUS
 62
     5
 10
291.67980017170021
 20
-145.9191941917002
 30
0.0
 11
291.68121323969979
 21
-145.69720966549991
 31
0.0
  0
LINE
  8
DETAIL
  6
CONTINUOUS
 62
     5
 10
289.7180343150003
 20
-145.61348145630021
 30
0.0
 11
289.87005720410019
 21
-146.79603618920009
 31
0.0
  0
LINE
  8
DETAIL
  6
CONTINUOUS
 62
     5
 10
289.87005720410019
 20
-146.79603618920009
 30
0.0
 11
290.13604920360012
 21
-147.9684823712
 31
0.0
  0
LINE
  8
DETAIL
  6
CONTINUOUS
 62
     5
 10
290.13604920360012
 20
-147.9684823712
 30
0.0
 11
290.51556113430019
 21
-149.1252133875
 31
0.0
  0
LINE
  8
DETAIL
  6
CONTINUOUS
 62
     5
 10
290.51556113430019
 20
-149.1252133875
 30
0.0
 11
291.00602014380001
 21
-150.26091591630029
 31
0.0
  0
LINE
  8
DETAIL
  6
CONTINUOUS
 62
     5
 10
291.00602014380001
 20
-150.26091591630029
 30
0.0
 11
291.60589700210039
 21
-151.37008031640019
 31
0.0
  0
LINE
  8
DETAIL
  6
CONTINUOUS
 62
     5
 10
291.60589700210039
 20
-151.37008031640019
 30
0.0
 11
291.70000000000027
 21
-151.51377323789981
 31
0.0
  0
LINE
  8
DETAIL
  6
CONTINUOUS
 62
     5
 10
291.70000000000027
 20
163.7631749757002
 30
0.0
 11
291.70000000000027
 21
93.052496856999824
 31
0.0
  0
LINE
  8
DETAIL
  6
CONTINUOUS
 62
     5
 10
291.70000000000027
 20
-163.7631749757002
 30
0.0
 11
291.70000000000027
 21
-93.052496857099882
 31
0.0
  0
LINE
  8
DETAIL
  6
CONTINUOUS
 62
     5
 10
292.63967145210017
 20
176.19234984280001
 30
0.0
 11
292.35243383700032
 21
174.12564902780011
 31
0.0
  0
LINE
  8
DETAIL
  6
CONTINUOUS
 62
     5
 10
292.35243383700032
 20
174.12564902780011
 30
0.0
 11
292.11746776690012
 21
172.05602250469971
 31
0.0
  0
LINE
  8
DETAIL
  6
CONTINUOUS
 62
     5
 10
292.11746776690012
 20
172.05602250469971
 30
0.0
 11
291.93479625430018
 21
169.98461431599981
 31
0.0
  0
LINE
  8
DETAIL
  6
CONTINUOUS
 62
     5
 10
291.93479625430018
 20
169.98461431599981
 30
0.0
 11
291.80434575730038
 21
167.91168336889999
 31
0.0
  0
LINE
  8
DETAIL
  6
CONTINUOUS
 62
     5
 10
291.80434575730038
 20
167.91168336889999
 30
0.0
 11
291.72608005419988
 21
165.83748835679989
 31
0.0
  0
LINE
  8
DETAIL
  6
CONTINUOUS
 62
     5
 10
291.72608005419988
 20
165.83748835679989
 30
0.0
 11
291.70000000000027
 21
163.7631749757002
 31
0.0
  0
LINE
  8
DETAIL
  6
CONTINUOUS
 62
     5
 10
308.06971364080027
 20
277.86956901719992
 30
0.0
 11
292.63967145210017
 21
176.19234984280001
 31
0.0
  0
LINE
  8
DETAIL
  6
CONTINUOUS
 62
     5
 10
200.7990491280998
 20
-107.0852772942999
 30
0.0
 11
200.72963161140021
 21
-107.1482747984001
 31
0.0
  0
LINE
  8
DETAIL
  6
CONTINUOUS
 62
     5
 10
200.72963161140021
 20
-107.1482747984001
 30
0.0
 11
200.6999999999997
 21
-107.2239727581
 31
0.0
  0
LINE
  8
DETAIL
  6
CONTINUOUS
 62
     5
 10
200.6999999999997
 20
-107.2239727581
 30
0.0
 11
200.72963161140021
 21
-107.2996707177999
 31
0.0
  0
LINE
  8
DETAIL
  6
CONTINUOUS
 62
     5
 10
200.72963161140021
 20
-107.2996707177999
 30
0.0
 11
200.8141807011998
 21
-107.3725413989
 31
0.0
  0
LINE
  8
DETAIL
  6
CONTINUOUS
 62
     5
 10
200.8141807011998
 20
-107.3725413989
 30
0.0
 11
200.95348186960021
 21
-107.439542309
 31
0.0
  0
LINE
  8
DETAIL
  6
CONTINUOUS
 62
     5
 10
200.95348186960021
 20
-107.439542309
 30
0.0
 11
201.13933982820029
 21
-107.4984918109003
 31
0.0
  0
LINE
  8
DETAIL
  6
CONTINUOUS
 62
     5
 10
201.13933982820029
 20
-107.4984918109003
 30
0.0
 11
201.36710321350029
 21
-107.5465953903004
 31
0.0
  0
LINE
  8
DETAIL
  6
CONTINUOUS
 62
     5
 10
201.36710321350029
 20
-107.5465953903004
 30
0.0
 11
201.62597485150039
 21
-107.58264918570011
 31
0.0
  0
LINE
  8
DETAIL
  6
CONTINUOUS
 62
     5
 10
201.62597485150039
 20
-107.58264918570011
 30
0.0
 11
201.90206366009991
 21
-107.60425091009979
 31
0.0
  0
LINE
  8
DETAIL
  6
CONTINUOUS
 62
     5
 10
201.90206366009991
 20
-107.60425091009979
 30
0.0
 11
202.1999999999997
 21
-107.6122013257
 31
0.0
  0
LINE
  8
DETAIL
  6
CONTINUOUS
 62
     5
 10
441.82734103610022
 20
-39.991484678299898
 30
0.0
 11
441.95974136460018
 21
-39.961826417400061
 31
0.0
  0
LINE
  8
DETAIL
  6
CONTINUOUS
 62
     5
 10
441.95931950090022
 20
-39.961920692700012
 30
0.0
 11
442.05425624990028
 21
-39.946693830300319
 31
0.0
  0
LINE
  8
DETAIL
  6
CONTINUOUS
 62
     5
 10
442.05393723399987
 20
-39.946731057600118
 30
0.0
 11
442.05519597660032
 21
-39.946561126000233
 31
0.0
  0
LINE
  8
DETAIL
  6
CONTINUOUS
 62
     5
 10
442.05495437190018
 20
-39.946593705400119
 30
0.0
 11
442.05404978210032
 21
-39.94671585549986
 31
0.0
  0
LINE
  8
DETAIL
  6
CONTINUOUS
 62
     5
 10
442.05562786830018
 20
-39.946502969400171
 30
0.0
 11
442.27987944760031
 21
-39.920169522800293
 31
0.0
  0
LINE
  8
DETAIL
  6
CONTINUOUS
 62
     5
 10
442.27987944760031
 20
-39.920169522800293
 30
0.0
 11
442.54478879819999
 21
-39.898969823700092
 31
0.0
  0
LINE
  8
DETAIL
  6
CONTINUOUS
 62
     5
 10
442.54478879819999
 20
-39.898969823700092
 30
0.0
 11
442.80601206190022
 21
-39.888430715900093
 31
0.0
  0
LINE
  8
DETAIL
  6
CONTINUOUS
 62
     5
 10
442.80601206190022
 20
-39.888430715900093
 30
0.0
 11
442.94482283360003
 21
-39.886987960100207
 31
0.0
  0
LINE
  8
DETAIL
  6
CONTINUOUS
 62
     5
 10
442.05539453630041
 20
-39.946534419700129
 30
0.0
 11
442.27987599980003
 21
-39.920169861100007
 31
0.0
  0
LINE
  8
DETAIL
  6
CONTINUOUS
 62
     5
 10
202.1999999999997
 20
-106.83574419040001
 30
0.0
 11
201.90206366009991
 21
-106.8436946061001
 31
0.0
  0
LINE
  8
DETAIL
  6
CONTINUOUS
 62
     5
 10
201.90206366009991
 20
-106.8436946061001
 30
0.0
 11
201.62597485150039
 21
-106.8652963305003
 31
0.0
  0
LINE
  8
DETAIL
  6
CONTINUOUS
 62
     5
 10
201.62597485150039
 20
-106.8652963305003
 30
0.0
 11
201.36710321350029
 21
-106.90135012590009
 31
0.0
  0
LINE
  8
DETAIL
  6
CONTINUOUS
 62
     5
 10
201.36710321350029
 20
-106.90135012590009
 30
0.0
 11
201.13933982820029
 21
-106.9494537053001
 31
0.0
  0
LINE
  8
DETAIL
  6
CONTINUOUS
 62
     5
 10
201.13933982820029
 20
-106.9494537053001
 30
0.0
 11
200.95348186960021
 21
-107.0084032070999
 31
0.0
  0
LINE
  8
DETAIL
  6
CONTINUOUS
 62
     5
 10
200.95348186960021
 20
-107.0084032070999
 30
0.0
 11
200.8141807011998
 21
-107.0754041173
 31
0.0
  0
LINE
  8
DETAIL
  6
CONTINUOUS
 62
     5
 10
200.8141807011998
 20
-107.0754041173
 30
0.0
 11
200.7990491280998
 21
-107.0852772942999
 31
0.0
  0
LINE
  8
DETAIL
  6
CONTINUOUS
 62
     5
 10
202.1999999999997
 20
-107.6122013257
 30
0.0
 11
202.49793633990021
 21
-107.60425091009979
 31
0.0
  0
LINE
  8
DETAIL
  6
CONTINUOUS
 62
     5
 10
202.49793633990021
 20
-107.60425091009979
 30
0.0
 11
202.7740251485001
 21
-107.58264918570011
 31
0.0
  0
LINE
  8
DETAIL
  6
CONTINUOUS
 62
     5
 10
202.7740251485001
 20
-107.58264918570011
 30
0.0
 11
203.0328967864998
 21
-107.5465953903004
 31
0.0
  0
LINE
  8
DETAIL
  6
CONTINUOUS
 62
     5
 10
203.0328967864998
 20
-107.5465953903004
 30
0.0
 11
203.26066017180031
 21
-107.4984918109003
 31
0.0
  0
LINE
  8
DETAIL
  6
CONTINUOUS
 62
     5
 10
203.26066017180031
 20
-107.4984918109003
 30
0.0
 11
203.44651813040039
 21
-107.439542309
 31
0.0
  0
LINE
  8
DETAIL
  6
CONTINUOUS
 62
     5
 10
203.44651813040039
 20
-107.439542309
 30
0.0
 11
203.58581929880029
 21
-107.3725413989
 31
0.0
  0
LINE
  8
DETAIL
  6
CONTINUOUS
 62
     5
 10
203.58581929880029
 20
-107.3725413989
 30
0.0
 11
203.67036838859991
 21
-107.2996707177999
 31
0.0
  0
LINE
  8
DETAIL
  6
CONTINUOUS
 62
     5
 10
203.67036838859991
 20
-107.2996707177999
 30
0.0
 11
203.6999999999997
 21
-107.2239727581
 31
0.0
  0
LINE
  8
DETAIL
  6
CONTINUOUS
 62
     5
 10
203.6999999999997
 20
-107.2239727581
 30
0.0
 11
203.67036838859991
 21
-107.1482747984001
 31
0.0
  0
LINE
  8
DETAIL
  6
CONTINUOUS
 62
     5
 10
203.67036838859991
 20
-107.1482747984001
 30
0.0
 11
203.60095087189981
 21
-107.0852772942999
 31
0.0
  0
LINE
  8
DETAIL
  6
CONTINUOUS
 62
     5
 10
202.1999999999997
 20
-104.4172131504001
 30
0.0
 11
201.4072500467
 21
-104.4358319206999
 31
0.0
  0
LINE
  8
DETAIL
  6
CONTINUOUS
 62
     5
 10
201.4072500467
 20
-104.4358319206999
 30
0.0
 11
200.66090935500009
 21
-104.4874522928003
 31
0.0
  0
LINE
  8
DETAIL
  6
CONTINUOUS
 62
     5
 10
200.66090935500009
 20
-104.4874522928003
 30
0.0
 11
199.95077502000001
 21
-104.5735988792003
 31
0.0
  0
LINE
  8
DETAIL
  6
CONTINUOUS
 62
     5
 10
199.95077502000001
 20
-104.5735988792003
 30
0.0
 11
199.3074557564
 21
-104.6896978427003
 31
0.0
  0
LINE
  8
DETAIL
  6
CONTINUOUS
 62
     5
 10
199.3074557564
 20
-104.6896978427003
 30
0.0
 11
198.75398740550011
 21
-104.8335111878
 31
0.0
  0
LINE
  8
DETAIL
  6
CONTINUOUS
 62
     5
 10
198.75398740550011
 20
-104.8335111878
 30
0.0
 11
198.30288568300011
 21
-104.9995560019001
 31
0.0
  0
LINE
  8
DETAIL
  6
CONTINUOUS
 62
     5
 10
198.30288568300011
 20
-104.9995560019001
 30
0.0
 11
197.97283976759991
 21
-105.1836900939002
 31
0.0
  0
LINE
  8
DETAIL
  6
CONTINUOUS
 62
     5
 10
197.97283976759991
 20
-105.1836900939002
 30
0.0
 11
197.7683651114003
 21
-105.37965330350021
 31
0.0
  0
LINE
  8
DETAIL
  6
CONTINUOUS
 62
     5
 10
197.7683651114003
 20
-105.37965330350021
 30
0.0
 11
197.70155004000031
 21
-105.5818988534002
 31
0.0
  0
LINE
  8
DETAIL
  6
CONTINUOUS
 62
     5
 10
202.20000002820049
 20
-108.2762860254002
 30
0.0
 11
202.88041670780009
 21
-108.2616803446999
 31
0.0
  0
LINE
  8
DETAIL
  6
CONTINUOUS
 62
     5
 10
202.88041670780009
 20
-108.2616803446999
 30
0.0
 11
203.5374331363
 21
-108.21872771769991
 31
0.0
  0
LINE
  8
DETAIL
  6
CONTINUOUS
 62
     5
 10
203.5374331363
 20
-108.21872771769991
 30
0.0
 11
204.16318183610019
 21
-108.1480655201003
 31
0.0
  0
LINE
  8
DETAIL
  6
CONTINUOUS
 62
     5
 10
204.16318183610019
 20
-108.1480655201003
 30
0.0
 11
204.72327050300009
 21
-108.0545882127999
 31
0.0
  0
LINE
  8
DETAIL
  6
CONTINUOUS
 62
     5
 10
204.72327050300009
 20
-108.0545882127999
 30
0.0
 11
205.19341449539999
 21
-107.9466991214999
 31
0.0
  0
LINE
  8
DETAIL
  6
CONTINUOUS
 62
     5
 10
205.19341449539999
 20
-107.9466991214999
 30
0.0
 11
205.58617426970019
 21
-107.8267917088001
 31
0.0
  0
LINE
  8
DETAIL
  6
CONTINUOUS
 62
     5
 10
205.58617426970019
 20
-107.8267917088001
 30
0.0
 11
205.9080334178002
 21
-107.6968936226003
 31
0.0
  0
LINE
  8
DETAIL
  6
CONTINUOUS
 62
     5
 10
205.9080334178002
 20
-107.6968936226003
 30
0.0
 11
206.17072565730001
 21
-107.5547682416
 31
0.0
  0
LINE
  8
DETAIL
  6
CONTINUOUS
 62
     5
 10
206.17072565730001
 20
-107.5547682416
 30
0.0
 11
206.3850954088002
 21
-107.3929630542998
 31
0.0
  0
LINE
  8
DETAIL
  6
CONTINUOUS
 62
     5
 10
206.3850954088002
 20
-107.3929630542998
 30
0.0
 11
206.54990917410029
 21
-107.2060082687003
 31
0.0
  0
LINE
  8
DETAIL
  6
CONTINUOUS
 62
     5
 10
206.54990917410029
 20
-107.2060082687003
 30
0.0
 11
206.66045307150031
 21
-106.98533035519991
 31
0.0
  0
LINE
  8
DETAIL
  6
CONTINUOUS
 62
     5
 10
206.66045307150031
 20
-106.98533035519991
 30
0.0
 11
206.69999998030011
 21
-106.7409007949
 31
0.0
  0
LINE
  8
DETAIL
  6
CONTINUOUS
 62
     5
 10
215.1999999999997
 20
-98.963982160400064
 30
0.0
 11
225.92570941421809
 21
-98.963982160400278
 31
0.0
  0
LINE
  8
DETAIL
  6
CONTINUOUS
 62
     5
 10
413.20000000000022
 20
-98.963982160400064
 30
0.0
 11
403.20000000000022
 21
-98.963982160400064
 31
0.0
  0
LINE
  8
DETAIL
  6
CONTINUOUS
 62
     5
 10
403.20000000000022
 20
-106.9100682526
 30
0.0
 11
430.20000000000022
 21
-106.9100682526
 31
0.0
  0
LINE
  8
DETAIL
  6
CONTINUOUS
 62
     5
 10
225.2000000000003
 20
-106.9100682526
 30
0.0
 11
206.67262992729999
 21
-106.9100682526
 31
0.0
  0
LINE
  8
DETAIL
  6
CONTINUOUS
 62
     5
 10
426.19999997180003
 20
-108.2762860254002
 30
0.0
 11
425.51958329220002
 21
-108.2616803446999
 31
0.0
  0
LINE
  8
DETAIL
  6
CONTINUOUS
 62
     5
 10
425.51958329220002
 20
-108.2616803446999
 30
0.0
 11
424.86256686370001
 21
-108.21872771769991
 31
0.0
  0
LINE
  8
DETAIL
  6
CONTINUOUS
 62
     5
 10
424.86256686370001
 20
-108.21872771769991
 30
0.0
 11
424.23681816390041
 21
-108.1480655201003
 31
0.0
  0
LINE
  8
DETAIL
  6
CONTINUOUS
 62
     5
 10
424.23681816390041
 20
-108.1480655201003
 30
0.0
 11
423.676729497
 21
-108.0545882127999
 31
0.0
  0
LINE
  8
DETAIL
  6
CONTINUOUS
 62
     5
 10
423.676729497
 20
-108.0545882127999
 30
0.0
 11
423.2065855046003
 21
-107.9466991214999
 31
0.0
  0
LINE
  8
DETAIL
  6
CONTINUOUS
 62
     5
 10
423.2065855046003
 20
-107.9466991214999
 30
0.0
 11
422.81382573029992
 21
-107.8267917088001
 31
0.0
  0
LINE
  8
DETAIL
  6
CONTINUOUS
 62
     5
 10
422.81382573029992
 20
-107.8267917088001
 30
0.0
 11
422.49196658220001
 21
-107.6968936226003
 31
0.0
  0
LINE
  8
DETAIL
  6
CONTINUOUS
 62
     5
 10
422.49196658220001
 20
-107.6968936226003
 30
0.0
 11
422.22927434270002
 21
-107.5547682416
 31
0.0
  0
LINE
  8
DETAIL
  6
CONTINUOUS
 62
     5
 10
422.22927434270002
 20
-107.5547682416
 30
0.0
 11
422.01490459120032
 21
-107.3929630542998
 31
0.0
  0
LINE
  8
DETAIL
  6
CONTINUOUS
 62
     5
 10
422.01490459120032
 20
-107.3929630542998
 30
0.0
 11
421.85009082590022
 21
-107.2060082687003
 31
0.0
  0
LINE
  8
DETAIL
  6
CONTINUOUS
 62
     5
 10
421.85009082590022
 20
-107.2060082687003
 30
0.0
 11
421.7395469285002
 21
-106.98533035519991
 31
0.0
  0
LINE
  8
DETAIL
  6
CONTINUOUS
 62
     5
 10
421.7395469285002
 20
-106.98533035519991
 30
0.0
 11
421.72737007270013
 21
-106.9100682526
 31
0.0
  0
LINE
  8
DETAIL
  6
CONTINUOUS
 62
     5
 10
197.63628771950019
 20
-106.8759879314002
 30
0.0
 11
197.7230110871005
 21
-106.8853672656001
 31
0.0
  0
LINE
  8
DETAIL
  6
CONTINUOUS
 62
     5
 10
339.31831075490032
 20
-148.40901443180019
 30
0.0
 11
338.14450954919988
 21
-148.23295541780001
 31
0.0
  0
LINE
  8
DETAIL
  6
CONTINUOUS
 62
     5
 10
339.16579810900021
 20
-150.8626481230003
 30
0.0
 11
338.14516714130002
 21
-150.70956318750001
 31
0.0
  0
LINE
  8
DETAIL
  6
CONTINUOUS
 62
     5
 10
197.10238256390039
 20
-106.7614659190999
 30
0.0
 11
197.2195768048
 21
-106.7963578449999
 31
0.0
  0
LINE
  8
DETAIL
  6
CONTINUOUS
 62
     5
 10
197.2195768048
 20
-106.7963578449999
 30
0.0
 11
197.34749656690011
 21
-106.8272806783998
 31
0.0
  0
LINE
  8
DETAIL
  6
CONTINUOUS
 62
     5
 10
197.34749656690011
 20
-106.8272806783998
 30
0.0
 11
197.48891636270039
 21
-106.8543640587
 31
0.0
  0
LINE
  8
DETAIL
  6
CONTINUOUS
 62
     5
 10
197.48891636270039
 20
-106.8543640587
 30
0.0
 11
197.63628771950019
 21
-106.8759879314002
 31
0.0
  0
LINE
  8
DETAIL
  6
CONTINUOUS
 62
     5
 10
1.3272981833997619
 20
-3.455727108399969
 30
0.0
 11
1.3081514867999431
 21
-3.4456154065001101
 31
0.0
  0
LINE
  8
DETAIL
  6
CONTINUOUS
 62
     5
 10
1.3081514867999431
 20
-3.4456154065001101
 30
0.0
 11
1.280196968800283
 21
-3.4255516305001952
 31
0.0
  0
LINE
  8
DETAIL
  6
CONTINUOUS
 62
     5
 10
1.280196968800283
 20
-3.4255516305001952
 30
0.0
 11
1.2561889300004621
 21
-3.4021046422999461
 31
0.0
  0
LINE
  8
DETAIL
  6
CONTINUOUS
 62
     5
 10
1.2561889300004621
 20
-3.4021046422999461
 30
0.0
 11
1.2362702213004011
 21
-3.3751442599000261
 31
0.0
  0
LINE
  8
DETAIL
  6
CONTINUOUS
 62
     5
 10
1.2362702213004011
 20
-3.3751442599000261
 30
0.0
 11
1.2205736384003101
 21
-3.3445829229999622
 31
0.0
  0
LINE
  8
DETAIL
  6
CONTINUOUS
 62
     5
 10
1.2205736384003101
 20
-3.3445829229999622
 30
0.0
 11
1.209218517400132
 21
-3.310193782000169
 31
0.0
  0
LINE
  8
DETAIL
  6
CONTINUOUS
 62
     5
 10
1.209218517400132
 20
-3.310193782000169
 30
0.0
 11
1.202321499300524
 21
-3.2716887960000349
 31
0.0
  0
LINE
  8
DETAIL
  6
CONTINUOUS
 62
     5
 10
1.202321499300524
 20
-3.2716887960000349
 30
0.0
 11
1.1999999999998181
 21
-3.2291639784998551
 31
0.0
  0
LINE
  8
DETAIL
  6
CONTINUOUS
 62
     5
 10
353.20585089700262
 20
-276.65482954934492
 30
0.0
 11
337.1302863592
 21
-169.4406696671999
 31
0.0
  0
LINE
  8
DETAIL
  6
CONTINUOUS
 62
     5
 10
337.1302863592
 20
-169.4406696671999
 30
0.0
 11
336.9998362864003
 21
-168.50338284079999
 31
0.0
  0
LINE
  8
DETAIL
  6
CONTINUOUS
 62
     5
 10
336.9998362864003
 20
-168.50338284079999
 30
0.0
 11
336.89250962830022
 21
-167.5619596240999
 31
0.0
  0
LINE
  8
DETAIL
  6
CONTINUOUS
 62
     5
 10
336.89250962830022
 20
-167.5619596240999
 30
0.0
 11
336.80854579150002
 21
-166.61599284170009
 31
0.0
  0
LINE
  8
DETAIL
  6
CONTINUOUS
 62
     5
 10
336.80854579150002
 20
-166.61599284170009
 30
0.0
 11
336.74832868980002
 21
-165.66690391759991
 31
0.0
  0
LINE
  8
DETAIL
  6
CONTINUOUS
 62
     5
 10
336.74832868980002
 20
-165.66690391759991
 30
0.0
 11
336.71210809280001
 21
-164.7161060886001
 31
0.0
  0
LINE
  8
DETAIL
  6
CONTINUOUS
 62
     5
 10
336.71210809280001
 20
-164.7161060886001
 30
0.0
 11
336.70000000000027
 21
-163.7631749757002
 31
0.0
  0
LINE
  8
DETAIL
  6
CONTINUOUS
 62
     5
 10
337.1302863592
 20
169.4406696671999
 30
0.0
 11
336.9998362864003
 21
168.50338284069991
 31
0.0
  0
LINE
  8
DETAIL
  6
CONTINUOUS
 62
     5
 10
336.9998362864003
 20
168.50338284069991
 30
0.0
 11
336.89250962830022
 21
167.5619596240999
 31
0.0
  0
LINE
  8
DETAIL
  6
CONTINUOUS
 62
     5
 10
336.89250962830022
 20
167.5619596240999
 30
0.0
 11
336.80854579150002
 21
166.61599284159999
 31
0.0
  0
LINE
  8
DETAIL
  6
CONTINUOUS
 62
     5
 10
336.80854579150002
 20
166.61599284159999
 30
0.0
 11
336.74832868980002
 21
165.66690391759991
 31
0.0
  0
LINE
  8
DETAIL
  6
CONTINUOUS
 62
     5
 10
336.74832868980002
 20
165.66690391759991
 30
0.0
 11
336.71210809280001
 21
164.71610608850011
 31
0.0
  0
LINE
  8
DETAIL
  6
CONTINUOUS
 62
     5
 10
336.71210809280001
 20
164.71610608850011
 30
0.0
 11
336.70000000000027
 21
163.7631749757002
 31
0.0
  0
LINE
  8
DETAIL
  6
CONTINUOUS
 62
     5
 10
352.56032854790021
 20
271.11788884149968
 30
0.0
 11
337.1302863592
 21
169.4406696671999
 31
0.0
  0
LINE
  8
DETAIL
  6
CONTINUOUS
 62
     5
 10
289.76047384950022
 20
-145.71678727339989
 30
0.0
 11
289.75057955449972
 21
-145.8666441693999
 31
0.0
  0
LINE
  8
DETAIL
  6
CONTINUOUS
 62
     5
 10
418.11944341639992
 20
63.778222904599723
 30
0.0
 11
418.29550770649979
 21
63.947114468399832
 31
0.0
  0
LINE
  8
DETAIL
  6
CONTINUOUS
 62
     5
 10
418.29550770649979
 20
63.947114468399832
 30
0.0
 11
418.43994983450011
 21
64.112463709499934
 31
0.0
  0
LINE
  8
DETAIL
  6
CONTINUOUS
 62
     5
 10
418.43994983450011
 20
64.112463709499934
 30
0.0
 11
418.55286334540011
 21
64.273578405799981
 31
0.0
  0
LINE
  8
DETAIL
  6
CONTINUOUS
 62
     5
 10
418.55286334540011
 20
64.273578405799981
 30
0.0
 11
418.56780686180042
 21
64.298728311099694
 31
0.0
  0
LINE
  8
DETAIL
  6
CONTINUOUS
 62
     5
 10
441.71014502370002
 20
-40.026847795000322
 30
0.0
 11
441.82824804800021
 21
-39.991211666399977
 31
0.0
  0
LINE
  8
DETAIL
  6
CONTINUOUS
 62
     5
 10
341.83006671200019
 20
-145.80240204209991
 30
0.0
 11
340.62379519729978
 21
-145.84731555259989
 31
0.0
  0
LINE
  8
DETAIL
  6
CONTINUOUS
 62
     5
 10
339.81919879180032
 20
-145.87727335950009
 30
0.0
 11
338.61159846200002
 21
-145.92223634609991
 31
0.0
  0
LINE
  8
DETAIL
  6
CONTINUOUS
 62
     5
 10
343.60556621120031
 20
-148.9205357454002
 30
0.0
 11
341.73616817739997
 21
-148.99013966710029
 31
0.0
  0
LINE
  8
DETAIL
  6
CONTINUOUS
 62
     5
 10
339.91458067320042
 20
-149.0579634434998
 30
0.0
 11
339.72938124690018
 21
-149.06485903559999
 31
0.0
  0
LINE
  8
DETAIL
  6
CONTINUOUS
 62
     5
 10
338.14450954919988
 20
-148.23295541780001
 30
0.0
 11
338.14516714130002
 21
-150.70956318750001
 31
0.0
  0
LINE
  8
DETAIL
  6
CONTINUOUS
 62
     5
 10
339.31831075490032
 20
-148.40901443180019
 30
0.0
 11
339.31887597069999
 21
-150.53771695610021
 31
0.0
  0
LINE
  8
DETAIL
  6
CONTINUOUS
 62
     5
 10
339.81919879180032
 20
-145.87727335950009
 30
0.0
 11
339.81985638390012
 21
-148.35388112920009
 31
0.0
  0
LINE
  8
DETAIL
  6
CONTINUOUS
 62
     5
 10
341.83006671200019
 20
-145.80240204209991
 30
0.0
 11
341.83072430409987
 21
-148.27900981180031
 31
0.0
  0
LINE
  8
DETAIL
  6
CONTINUOUS
 62
     5
 10
336.70000000000027
 20
163.7631749757002
 30
0.0
 11
336.70000000000027
 21
93.052496856999824
 31
0.0
  0
LINE
  8
DETAIL
  6
CONTINUOUS
 62
     5
 10
336.70000000000027
 20
-163.7631749757002
 30
0.0
 11
336.70000000000027
 21
-93.052496857099882
 31
0.0
  0
LINE
  8
DETAIL
  6
CONTINUOUS
 62
     5
 10
339.81919879180032
 20
-145.87727335950009
 30
0.0
 11
339.7417841915003
 21
-146.51251864389999
 31
0.0
  0
LINE
  8
DETAIL
  6
CONTINUOUS
 62
     5
 10
339.7417841915003
 20
-146.51251864389999
 30
0.0
 11
339.63249798530018
 21
-147.14622391740019
 31
0.0
  0
LINE
  8
DETAIL
  6
CONTINUOUS
 62
     5
 10
339.63249798530018
 20
-147.14622391740019
 30
0.0
 11
339.49134017310013
 21
-147.77838918009999
 31
0.0
  0
LINE
  8
DETAIL
  6
CONTINUOUS
 62
     5
 10
339.49134017310013
 20
-147.77838918009999
 30
0.0
 11
339.31831075490032
 21
-148.40901443180019
 31
0.0
  0
LINE
  8
DETAIL
  6
CONTINUOUS
 62
     5
 10
339.81985638390012
 20
-148.35388112920009
 30
0.0
 11
339.74244178359999
 21
-148.98912641359991
 31
0.0
  0
LINE
  8
DETAIL
  6
CONTINUOUS
 62
     5
 10
339.74244178359999
 20
-148.98912641359991
 30
0.0
 11
339.63315557729987
 21
-149.62283168710019
 31
0.0
  0
LINE
  8
DETAIL
  6
CONTINUOUS
 62
     5
 10
339.63315557729987
 20
-149.62283168710019
 30
0.0
 11
339.54381266520022
 21
-150.02294759020009
 31
0.0
  0
LINE
  8
DETAIL
  6
CONTINUOUS
 62
     5
 10
341.83006671200019
 20
-145.80240204209991
 30
0.0
 11
341.65453828730011
 21
-147.12250162310011
 31
0.0
  0
LINE
  8
DETAIL
  6
CONTINUOUS
 62
     5
 10
341.65453828730011
 20
-147.12250162310011
 30
0.0
 11
341.35500158290012
 21
-148.42534511349999
 31
0.0
  0
LINE
  8
DETAIL
  6
CONTINUOUS
 62
     5
 10
341.35500158290012
 20
-148.42534511349999
 30
0.0
 11
340.93035286800028
 21
-149.71384557269991
 31
0.0
  0
LINE
  8
DETAIL
  6
CONTINUOUS
 62
     5
 10
340.93035286800028
 20
-149.71384557269991
 30
0.0
 11
340.38390333510011
 21
-150.97926382270001
 31
0.0
  0
LINE
  8
DETAIL
  6
CONTINUOUS
 62
     5
 10
340.38390333510011
 20
-150.97926382270001
 30
0.0
 11
339.71731117710038
 21
-152.21564684250009
 31
0.0
  0
LINE
  8
DETAIL
  6
CONTINUOUS
 62
     5
 10
339.71731117710038
 20
-152.21564684250009
 30
0.0
 11
338.93443166060018
 21
-153.41754922110019
 31
0.0
  0
LINE
  8
DETAIL
  6
CONTINUOUS
 62
     5
 10
338.93443166060018
 20
-153.41754922110019
 30
0.0
 11
338.03807162359999
 21
-154.57920014550021
 31
0.0
  0
LINE
  8
DETAIL
  6
CONTINUOUS
 62
     5
 10
338.03807162359999
 20
-154.57920014550021
 30
0.0
 11
337.03303454470012
 21
-155.6956228017998
 31
0.0
  0
LINE
  8
DETAIL
  6
CONTINUOUS
 62
     5
 10
337.03303454470012
 20
-155.6956228017998
 30
0.0
 11
336.70000000000027
 21
-156.01547554809989
 31
0.0
  0
LINE
  8
DETAIL
  6
CONTINUOUS
 62
     5
 10
341.83072430409987
 20
-148.27900981180031
 30
0.0
 11
341.65519587940031
 21
-149.5991093928001
 31
0.0
  0
LINE
  8
DETAIL
  6
CONTINUOUS
 62
     5
 10
341.65519587940031
 20
-149.5991093928001
 30
0.0
 11
341.35565917490021
 21
-150.90195288320001
 31
0.0
  0
LINE
  8
DETAIL
  6
CONTINUOUS
 62
     5
 10
341.35565917490021
 20
-150.90195288320001
 30
0.0
 11
340.93101046010008
 21
-152.19045334239991
 31
0.0
  0
LINE
  8
DETAIL
  6
CONTINUOUS
 62
     5
 10
340.93101046010008
 20
-152.19045334239991
 30
0.0
 11
340.38456092710021
 21
-153.45587159239989
 31
0.0
  0
LINE
  8
DETAIL
  6
CONTINUOUS
 62
     5
 10
340.38456092710021
 20
-153.45587159239989
 30
0.0
 11
339.71796876920013
 21
-154.6922546122
 31
0.0
  0
LINE
  8
DETAIL
  6
CONTINUOUS
 62
     5
 10
339.71796876920013
 20
-154.6922546122
 30
0.0
 11
338.93508925269998
 21
-155.89415699080021
 31
0.0
  0
LINE
  8
DETAIL
  6
CONTINUOUS
 62
     5
 10
338.93508925269998
 20
-155.89415699080021
 30
0.0
 11
338.03872921570019
 21
-157.05580791520009
 31
0.0
  0
LINE
  8
DETAIL
  6
CONTINUOUS
 62
     5
 10
338.03872921570019
 20
-157.05580791520009
 30
0.0
 11
337.03369213670021
 21
-158.17223057150019
 31
0.0
  0
LINE
  8
DETAIL
  6
CONTINUOUS
 62
     5
 10
337.03369213670021
 20
-158.17223057150019
 30
0.0
 11
336.70000000000027
 21
-158.49271488180011
 31
0.0
  0
LINE
  8
DETAIL
  6
CONTINUOUS
 62
     5
 10
338.14450954919988
 20
-148.23295541780001
 30
0.0
 11
338.30309640510001
 21
-147.65729764669999
 31
0.0
  0
LINE
  8
DETAIL
  6
CONTINUOUS
 62
     5
 10
338.30309640510001
 20
-147.65729764669999
 30
0.0
 11
338.43380684250042
 21
-147.08029187769989
 31
0.0
  0
LINE
  8
DETAIL
  6
CONTINUOUS
 62
     5
 10
338.43380684250042
 20
-147.08029187769989
 30
0.0
 11
338.53664086150002
 21
-146.5019381109
 31
0.0
  0
LINE
  8
DETAIL
  6
CONTINUOUS
 62
     5
 10
338.53664086150002
 20
-146.5019381109
 30
0.0
 11
338.61159846200002
 21
-145.92223634609991
 31
0.0
  0
LINE
  8
DETAIL
  6
CONTINUOUS
 62
     5
 10
418.56761637030007
 20
64.298735697700067
 30
0.0
 11
418.70000000000022
 21
64.528030870299972
 31
0.0
  0
LINE
  8
DETAIL
  6
CONTINUOUS
 62
     5
 10
447.94434887620002
 20
-39.128161543900212
 30
0.0
 11
448.22298069909988
 21
-38.945470488200037
 31
0.0
  0
LINE
  8
DETAIL
  6
CONTINUOUS
 62
     5
 10
448.22298069909988
 20
-38.945470488200037
 30
0.0
 11
448.48759477670001
 21
-38.745293606500127
 31
0.0
  0
LINE
  8
DETAIL
  6
CONTINUOUS
 62
     5
 10
448.48759477670001
 20
-38.745293606500127
 30
0.0
 11
448.73684603870021
 21
-38.528595150899953
 31
0.0
  0
LINE
  8
DETAIL
  6
CONTINUOUS
 62
     5
 10
441.4882879255
 20
-40.123916302700323
 30
0.0
 11
441.48878616890022
 21
-40.123639664000173
 31
0.0
  0
LINE
  8
DETAIL
  6
CONTINUOUS
 62
     5
 10
441.4882879255
 20
-40.123916302700323
 30
0.0
 11
441.52863123990028
 21
-40.102556573399852
 31
0.0
  0
LINE
  8
DETAIL
  6
CONTINUOUS
 62
     5
 10
441.52863123990028
 20
-40.102556573399852
 30
0.0
 11
441.61077820550003
 21
-40.064629932399853
 31
0.0
  0
LINE
  8
DETAIL
  6
CONTINUOUS
 62
     5
 10
441.61077820550003
 20
-40.064629932399853
 30
0.0
 11
441.71124252830032
 21
-40.026430492000152
 31
0.0
  0
LINE
  8
DETAIL
  6
CONTINUOUS
 62
     5
 10
418.11944341639992
 20
-79.340683188599982
 30
0.0
 11
418.29550770659989
 21
-79.970995085699982
 31
0.0
  0
LINE
  8
DETAIL
  6
CONTINUOUS
 62
     5
 10
418.29550770659989
 20
-79.970995085699982
 30
0.0
 11
418.43994983450011
 21
-80.58808685450002
 31
0.0
  0
LINE
  8
DETAIL
  6
CONTINUOUS
 62
     5
 10
418.43994983450011
 20
-80.58808685450002
 30
0.0
 11
418.55286334540011
 21
-81.189375087099975
 31
0.0
  0
LINE
  8
DETAIL
  6
CONTINUOUS
 62
     5
 10
418.55286334540011
 20
-81.189375087099975
 30
0.0
 11
418.6339676037
 21
-81.782610007000116
 31
0.0
  0
LINE
  8
DETAIL
  6
CONTINUOUS
 62
     5
 10
418.6339676037
 20
-81.782610007000116
 30
0.0
 11
418.68298197340027
 21
-82.375541837400291
 31
0.0
  0
LINE
  8
DETAIL
  6
CONTINUOUS
 62
     5
 10
418.68298197340027
 20
-82.375541837400291
 30
0.0
 11
418.70000000000022
 21
-82.96558717049993
 31
0.0
  0
LINE
  8
DETAIL
  6
CONTINUOUS
 62
     5
 10
413.20000000000022
 20
98.963933161099703
 30
0.0
 11
413.20000000000022
 21
52.019312013099807
 31
0.0
  0
LINE
  8
DETAIL
  6
CONTINUOUS
 62
     5
 10
413.20000000000022
 20
-52.019312013099807
 30
0.0
 11
413.20000000000022
 21
-98.963933161100158
 31
0.0
  0
LINE
  8
DETAIL
  6
CONTINUOUS
 62
     5
 10
418.70000000000022
 20
77.527864813299857
 30
0.0
 11
418.70000000000022
 21
64.528196927400131
 31
0.0
  0
LINE
  8
DETAIL
  6
CONTINUOUS
 62
     5
 10
418.70000000000022
 20
-78.148077021699919
 30
0.0
 11
418.70000000000022
 21
-91.147744907600099
 31
0.0
  0
LINE
  8
DETAIL
  6
CONTINUOUS
 62
     5
 10
414.33074849640019
 20
-106.9127133808001
 30
0.0
 11
414.32637293340042
 21
-107.6190806454001
 31
0.0
  0
LINE
  8
DETAIL
  6
CONTINUOUS
 62
     5
 10
414.32637293340042
 20
-107.6190806454001
 30
0.0
 11
414.31313002259998
 21
-108.3170121812
 31
0.0
  0
LINE
  8
DETAIL
  6
CONTINUOUS
 62
     5
 10
414.31313002259998
 20
-108.3170121812
 30
0.0
 11
414.29066952180023
 21
-109.0060651312001
 31
0.0
  0
LINE
  8
DETAIL
  6
CONTINUOUS
 62
     5
 10
414.29066952180023
 20
-109.0060651312001
 30
0.0
 11
414.2586411886
 21
-109.68579663850009
 31
0.0
  0
LINE
  8
DETAIL
  6
CONTINUOUS
 62
     5
 10
414.2586411886
 20
-109.68579663850009
 30
0.0
 11
414.21669478069998
 21
-110.35576384619981
 31
0.0
  0
LINE
  8
DETAIL
  6
CONTINUOUS
 62
     5
 10
414.21669478069998
 20
-110.35576384619981
 30
0.0
 11
414.16448005590019
 21
-111.0155238974003
 31
0.0
  0
LINE
  8
DETAIL
  6
CONTINUOUS
 62
     5
 10
414.16448005590019
 20
-111.0155238974003
 30
0.0
 11
414.10686398090002
 21
-111.6153320957001
 31
0.0
  0
LINE
  8
DETAIL
  6
CONTINUOUS
 62
     5
 10
414.10686398090002
 20
-111.6153320957001
 30
0.0
 11
414.0400541158001
 21
-112.2057902252
 31
0.0
  0
LINE
  8
DETAIL
  6
CONTINUOUS
 62
     5
 10
414.0400541158001
 20
-112.2057902252
 30
0.0
 11
413.96391137820052
 21
-112.78662974640019
 31
0.0
  0
LINE
  8
DETAIL
  6
CONTINUOUS
 62
     5
 10
413.96391137820052
 20
-112.78662974640019
 30
0.0
 11
413.8782966855
 21
-113.3575821199001
 31
0.0
  0
LINE
  8
DETAIL
  6
CONTINUOUS
 62
     5
 10
413.8782966855
 20
-113.3575821199001
 30
0.0
 11
413.78307095529999
 21
-113.91837880609999
 31
0.0
  0
LINE
  8
DETAIL
  6
CONTINUOUS
 62
     5
 10
413.78307095529999
 20
-113.91837880609999
 30
0.0
 11
413.6780951052001
 21
-114.4687512654
 31
0.0
  0
LINE
  8
DETAIL
  6
CONTINUOUS
 62
     5
 10
413.6780951052001
 20
-114.4687512654
 30
0.0
 11
413.56323005250022
 21
-115.0084309585
 31
0.0
  0
LINE
  8
DETAIL
  6
CONTINUOUS
 62
     5
 10
413.56323005250022
 20
-115.0084309585
 30
0.0
 11
413.43833671490029
 21
-115.5371493458001
 31
0.0
  0
LINE
  8
DETAIL
  6
CONTINUOUS
 62
     5
 10
413.43833671490029
 20
-115.5371493458001
 30
0.0
 11
413.30327600980041
 21
-116.0546378877998
 31
0.0
  0
LINE
  8
DETAIL
  6
CONTINUOUS
 62
     5
 10
413.30327600980041
 20
-116.0546378877998
 30
0.0
 11
413.15790916750018
 21
-116.5606928901002
 31
0.0
  0
LINE
  8
DETAIL
  6
CONTINUOUS
 62
     5
 10
413.15790916750018
 20
-116.5606928901002
 30
0.0
 11
413.00209866940031
 21
-117.05537003880001
 31
0.0
  0
LINE
  8
DETAIL
  6
CONTINUOUS
 62
     5
 10
413.00209866940031
 20
-117.05537003880001
 30
0.0
 11
412.83570730960042
 21
-117.5387898652002
 31
0.0
  0
LINE
  8
DETAIL
  6
CONTINUOUS
 62
     5
 10
412.83570730960042
 20
-117.5387898652002
 30
0.0
 11
412.65859788239999
 21
-118.01107290029999
 31
0.0
  0
LINE
  8
DETAIL
  6
CONTINUOUS
 62
     5
 10
412.65859788239999
 20
-118.01107290029999
 30
0.0
 11
412.47063318180022
 21
-118.4723396755999
 31
0.0
  0
LINE
  8
DETAIL
  6
CONTINUOUS
 62
     5
 10
412.47063318180022
 20
-118.4723396755999
 30
0.0
 11
412.27167600200028
 21
-118.92271072210001
 31
0.0
  0
LINE
  8
DETAIL
  6
CONTINUOUS
 62
     5
 10
412.27167600200028
 20
-118.92271072210001
 30
0.0
 11
412.06158913719992
 21
-119.36230657109989
 31
0.0
  0
LINE
  8
DETAIL
  6
CONTINUOUS
 62
     5
 10
412.06158913719992
 20
-119.36230657109989
 30
0.0
 11
411.84023538150001
 21
-119.79124775380021
 31
0.0
  0
LINE
  8
DETAIL
  6
CONTINUOUS
 62
     5
 10
411.84023538150001
 20
-119.79124775380021
 30
0.0
 11
411.60747752899988
 21
-120.20965480150021
 31
0.0
  0
LINE
  8
DETAIL
  6
CONTINUOUS
 62
     5
 10
411.60747752899988
 20
-120.20965480150021
 30
0.0
 11
411.38806702879998
 21
-120.5773447208003
 31
0.0
  0
LINE
  8
DETAIL
  6
CONTINUOUS
 62
     5
 10
411.38806702879998
 20
-120.5773447208003
 30
0.0
 11
411.15882087260019
 21
-120.9368713456001
 31
0.0
  0
LINE
  8
DETAIL
  6
CONTINUOUS
 62
     5
 10
411.15882087260019
 20
-120.9368713456001
 30
0.0
 11
410.91925185939999
 21
-121.2885064005
 31
0.0
  0
LINE
  8
DETAIL
  6
CONTINUOUS
 62
     5
 10
410.91925185939999
 20
-121.2885064005
 30
0.0
 11
410.66887278830018
 21
-121.6325216099999
 31
0.0
  0
LINE
  8
DETAIL
  6
CONTINUOUS
 62
     5
 10
410.66887278830018
 20
-121.6325216099999
 30
0.0
 11
410.40719645829989
 21
-121.96918869870019
 31
0.0
  0
LINE
  8
DETAIL
  6
CONTINUOUS
 62
     5
 10
410.40719645829989
 20
-121.96918869870019
 30
0.0
 11
410.13373566870001
 21
-122.2987793912998
 31
0.0
  0
LINE
  8
DETAIL
  6
CONTINUOUS
 62
     5
 10
410.13373566870001
 20
-122.2987793912998
 30
0.0
 11
409.84800321830022
 21
-122.6215654122998
 31
0.0
  0
LINE
  8
DETAIL
  6
CONTINUOUS
 62
     5
 10
409.84800321830022
 20
-122.6215654122998
 30
0.0
 11
409.54951190630032
 21
-122.9378184862999
 31
0.0
  0
LINE
  8
DETAIL
  6
CONTINUOUS
 62
     5
 10
409.54951190630032
 20
-122.9378184862999
 30
0.0
 11
409.23777453180043
 21
-123.24781033779981
 31
0.0
  0
LINE
  8
DETAIL
  6
CONTINUOUS
 62
     5
 10
409.23777453180043
 20
-123.24781033779981
 30
0.0
 11
408.91230389380007
 21
-123.55181269159991
 31
0.0
  0
LINE
  8
DETAIL
  6
CONTINUOUS
 62
     5
 10
418.70000000000022
 20
72.710354664499846
 30
0.0
 11
418.68293549060041
 21
72.119806817900098
 31
0.0
  0
LINE
  8
DETAIL
  6
CONTINUOUS
 62
     5
 10
418.68293549060041
 20
72.119806817900098
 30
0.0
 11
418.63388005450003
 21
71.526586688799838
 31
0.0
  0
LINE
  8
DETAIL
  6
CONTINUOUS
 62
     5
 10
418.63388005450003
 20
71.526586688799838
 30
0.0
 11
418.5527277936003
 21
70.933290068900078
 31
0.0
  0
LINE
  8
DETAIL
  6
CONTINUOUS
 62
     5
 10
418.5527277936003
 20
70.933290068900078
 30
0.0
 11
418.43979640260022
 21
70.332129583000096
 31
0.0
  0
LINE
  8
DETAIL
  6
CONTINUOUS
 62
     5
 10
418.43979640260022
 20
70.332129583000096
 30
0.0
 11
418.29540357629998
 21
69.715317856399906
 31
0.0
  0
LINE
  8
DETAIL
  6
CONTINUOUS
 62
     5
 10
418.29540357629998
 20
69.715317856399906
 30
0.0
 11
418.11944341639992
 21
69.085450680599934
 31
0.0
  0
LINE
  8
DETAIL
  6
CONTINUOUS
 62
     5
 10
418.70000000000022
 20
66.431836792599825
 30
0.0
 11
418.69021275260002
 21
66.104098019499816
 31
0.0
  0
LINE
  8
DETAIL
  6
CONTINUOUS
 62
     5
 10
418.69021275260002
 20
66.104098019499816
 30
0.0
 11
418.66205397279998
 21
65.776574435300063
 31
0.0
  0
LINE
  8
DETAIL
  6
CONTINUOUS
 62
     5
 10
418.66205397279998
 20
65.776574435300063
 30
0.0
 11
418.61527431400009
 21
65.449713872099892
 31
0.0
  0
LINE
  8
DETAIL
  6
CONTINUOUS
 62
     5
 10
418.61527431400009
 20
65.449713872099892
 30
0.0
 11
418.5506218165001
 21
65.122172833999684
 31
0.0
  0
LINE
  8
DETAIL
  6
CONTINUOUS
 62
     5
 10
418.5506218165001
 20
65.122172833999684
 30
0.0
 11
418.46883354200003
 21
64.793622391499866
 31
0.0
  0
LINE
  8
DETAIL
  6
CONTINUOUS
 62
     5
 10
418.46883354200003
 20
64.793622391499866
 30
0.0
 11
418.36969307920032
 21
64.46146667750007
 31
0.0
  0
LINE
  8
DETAIL
  6
CONTINUOUS
 62
     5
 10
418.36969307920032
 20
64.46146667750007
 30
0.0
 11
418.25323336349987
 21
64.122661993099882
 31
0.0
  0
LINE
  8
DETAIL
  6
CONTINUOUS
 62
     5
 10
418.25323336349987
 20
64.122661993099882
 30
0.0
 11
418.11944341639992
 21
63.778222904599723
 31
0.0
  0
LINE
  8
DETAIL
  6
CONTINUOUS
 62
     5
 10
418.70000000000022
 20
77.306548741499697
 30
0.0
 11
418.68293549060041
 21
77.148311922899651
 31
0.0
  0
LINE
  8
DETAIL
  6
CONTINUOUS
 62
     5
 10
418.68293549060041
 20
77.148311922899651
 30
0.0
 11
418.63388005450003
 21
76.989359068400063
 31
0.0
  0
LINE
  8
DETAIL
  6
CONTINUOUS
 62
     5
 10
418.63388005450003
 20
76.989359068400063
 30
0.0
 11
418.5527277936003
 21
76.830385718199963
 31
0.0
  0
LINE
  8
DETAIL
  6
CONTINUOUS
 62
     5
 10
418.5527277936003
 20
76.830385718199963
 30
0.0
 11
418.43979640260022
 21
76.669305251500191
 31
0.0
  0
LINE
  8
DETAIL
  6
CONTINUOUS
 62
     5
 10
418.43979640260022
 20
76.669305251500191
 30
0.0
 11
418.29540357629998
 21
76.504031047499652
 31
0.0
  0
LINE
  8
DETAIL
  6
CONTINUOUS
 62
     5
 10
418.29540357629998
 20
76.504031047499652
 30
0.0
 11
418.11944341639992
 21
76.33525864639978
 31
0.0
  0
LINE
  8
DETAIL
  6
CONTINUOUS
 62
     5
 10
339.22231588029979
 20
-150.75869547020011
 30
0.0
 11
339.74677725390018
 21
-149.55846155850031
 31
0.0
  0
LINE
  8
DETAIL
  6
CONTINUOUS
 62
     5
 10
339.74677725390018
 20
-149.55846155850031
 30
0.0
 11
340.15657105199989
 21
-148.33619192720019
 31
0.0
  0
LINE
  8
DETAIL
  6
CONTINUOUS
 62
     5
 10
340.15657105199989
 20
-148.33619192720019
 30
0.0
 11
340.44856200290002
 21
-147.10005034379989
 31
0.0
  0
LINE
  8
DETAIL
  6
CONTINUOUS
 62
     5
 10
340.44856200290002
 20
-147.10005034379989
 30
0.0
 11
340.62379519729978
 21
-145.84731555259989
 31
0.0
  0
LINE
  8
DETAIL
  6
CONTINUOUS
 62
     5
 10
338.58476698060008
 20
-151.9313337011998
 30
0.0
 11
339.22231588029979
 21
-150.75869547020011
 31
0.0
  0
LINE
  8
DETAIL
  6
CONTINUOUS
 62
     5
 10
336.70000000000027
 20
-154.48765719250011
 30
0.0
 11
336.9839208018002
 21
-154.17315565860011
 31
0.0
  0
LINE
  8
DETAIL
  6
CONTINUOUS
 62
     5
 10
336.9839208018002
 20
-154.17315565860011
 30
0.0
 11
337.83775113079992
 21
-153.07128608740001
 31
0.0
  0
LINE
  8
DETAIL
  6
CONTINUOUS
 62
     5
 10
337.83775113079992
 20
-153.07128608740001
 30
0.0
 11
338.58476698060008
 21
-151.9313337011998
 31
0.0
  0
LINE
  8
DETAIL
  6
CONTINUOUS
 62
     5
 10
448.73684168790032
 20
-38.528599175000167
 30
0.0
 11
448.96937495370003
 21
-38.296582476999909
 31
0.0
  0
LINE
  8
DETAIL
  6
CONTINUOUS
 62
     5
 10
448.96937495370003
 20
-38.296582476999909
 30
0.0
 11
449.18424394029989
 21
-38.050244355500134
 31
0.0
  0
LINE
  8
DETAIL
  6
CONTINUOUS
 62
     5
 10
449.18424394029989
 20
-38.050244355500134
 30
0.0
 11
449.38041059850002
 21
-37.790851403000033
 31
0.0
  0
LINE
  8
DETAIL
  6
CONTINUOUS
 62
     5
 10
449.38041059850002
 20
-37.790851403000033
 30
0.0
 11
449.55710411000013
 21
-37.519516261299941
 31
0.0
  0
LINE
  8
DETAIL
  6
CONTINUOUS
 62
     5
 10
449.55710411000013
 20
-37.519516261299941
 30
0.0
 11
449.71352466720009
 21
-37.237559191699788
 31
0.0
  0
LINE
  8
DETAIL
  6
CONTINUOUS
 62
     5
 10
449.71352466720009
 20
-37.237559191699788
 30
0.0
 11
449.84906385020042
 21
-36.946188859500133
 31
0.0
  0
LINE
  8
DETAIL
  6
CONTINUOUS
 62
     5
 10
441.3628437696002
 20
-40.207009116500089
 30
0.0
 11
441.36014684030022
 21
-40.209695039200149
 31
0.0
  0
LINE
  8
DETAIL
  6
CONTINUOUS
 62
     5
 10
441.36014684030022
 20
-40.209695039200149
 30
0.0
 11
441.36630772400002
 21
-40.204315834000226
 31
0.0
  0
LINE
  8
DETAIL
  6
CONTINUOUS
 62
     5
 10
441.36630772400002
 20
-40.204315834000226
 30
0.0
 11
441.38159999280009
 21
-40.192114316199877
 31
0.0
  0
LINE
  8
DETAIL
  6
CONTINUOUS
 62
     5
 10
441.38159999280009
 20
-40.192114316199877
 30
0.0
 11
441.40592173440018
 21
-40.174540072699983
 31
0.0
  0
LINE
  8
DETAIL
  6
CONTINUOUS
 62
     5
 10
441.40592173440018
 20
-40.174540072699983
 30
0.0
 11
441.44090059830017
 21
-40.151708622100159
 31
0.0
  0
LINE
  8
DETAIL
  6
CONTINUOUS
 62
     5
 10
441.44090059830017
 20
-40.151708622100159
 30
0.0
 11
441.48878616890022
 21
-40.123639664000173
 31
0.0
  0
LINE
  8
DETAIL
  6
CONTINUOUS
 62
     5
 10
418.11944341639992
 20
-91.89771893040006
 30
0.0
 11
418.29550770649979
 21
-91.728827366599944
 31
0.0
  0
LINE
  8
DETAIL
  6
CONTINUOUS
 62
     5
 10
418.29550770649979
 20
-91.728827366599944
 30
0.0
 11
418.43994983450011
 21
-91.563478125500282
 31
0.0
  0
LINE
  8
DETAIL
  6
CONTINUOUS
 62
     5
 10
418.43994983450011
 20
-91.563478125500282
 30
0.0
 11
418.55286334540011
 21
-91.402363429199795
 31
0.0
  0
LINE
  8
DETAIL
  6
CONTINUOUS
 62
     5
 10
418.55286334540011
 20
-91.402363429199795
 30
0.0
 11
418.56780686180042
 21
-91.377213523900068
 31
0.0
  0
LINE
  8
DETAIL
  6
CONTINUOUS
 62
     5
 10
418.11944341639992
 20
76.33525864639978
 30
0.0
 11
418.29550770659989
 21
75.704946749299793
 31
0.0
  0
LINE
  8
DETAIL
  6
CONTINUOUS
 62
     5
 10
418.29550770659989
 20
75.704946749299793
 30
0.0
 11
418.43994983450011
 21
75.087854980500182
 31
0.0
  0
LINE
  8
DETAIL
  6
CONTINUOUS
 62
     5
 10
418.43994983450011
 20
75.087854980500182
 30
0.0
 11
418.55286334540011
 21
74.486566747899815
 31
0.0
  0
LINE
  8
DETAIL
  6
CONTINUOUS
 62
     5
 10
418.55286334540011
 20
74.486566747899815
 30
0.0
 11
418.6339676037
 21
73.8933318280001
 31
0.0
  0
LINE
  8
DETAIL
  6
CONTINUOUS
 62
     5
 10
418.6339676037
 20
73.8933318280001
 30
0.0
 11
418.68298197340027
 21
73.300399997699984
 31
0.0
  0
LINE
  8
DETAIL
  6
CONTINUOUS
 62
     5
 10
418.68298197340027
 20
73.300399997699984
 30
0.0
 11
418.70000000000022
 21
72.710354664499846
 31
0.0
  0
LINE
  8
DETAIL
  6
CONTINUOUS
 62
     5
 10
435.30385808320023
 20
82.823538144300059
 30
0.0
 11
435.27374623700013
 21
83.098186409500158
 31
0.0
  0
LINE
  8
DETAIL
  6
CONTINUOUS
 62
     5
 10
435.27374623700013
 20
83.098186409500158
 30
0.0
 11
435.21982316690003
 21
83.370388117699818
 31
0.0
  0
LINE
  8
DETAIL
  6
CONTINUOUS
 62
     5
 10
435.21982316690003
 20
83.370388117699818
 30
0.0
 11
435.14238555790013
 21
83.638650350399985
 31
0.0
  0
LINE
  8
DETAIL
  6
CONTINUOUS
 62
     5
 10
435.14238555790013
 20
83.638650350399985
 30
0.0
 11
435.04178611430012
 21
83.901866086599966
 31
0.0
  0
LINE
  8
DETAIL
  6
CONTINUOUS
 62
     5
 10
435.04178611430012
 20
83.901866086599966
 30
0.0
 11
434.91841709690021
 21
84.158954160099711
 31
0.0
  0
LINE
  8
DETAIL
  6
CONTINUOUS
 62
     5
 10
434.91841709690021
 20
84.158954160099711
 30
0.0
 11
434.77294742229998
 21
84.408473559399695
 31
0.0
  0
LINE
  8
DETAIL
  6
CONTINUOUS
 62
     5
 10
434.77294742229998
 20
84.408473559399695
 30
0.0
 11
434.60617543130002
 21
84.649118119400086
 31
0.0
  0
LINE
  8
DETAIL
  6
CONTINUOUS
 62
     5
 10
434.60617543130002
 20
84.649118119400086
 30
0.0
 11
434.4189553663
 21
84.879731904899927
 31
0.0
  0
LINE
  8
DETAIL
  6
CONTINUOUS
 62
     5
 10
434.4189553663
 20
84.879731904899927
 30
0.0
 11
434.21232148980022
 21
85.099151890899975
 31
0.0
  0
LINE
  8
DETAIL
  6
CONTINUOUS
 62
     5
 10
434.21232148980022
 20
85.099151890899975
 30
0.0
 11
433.98719266429998
 21
85.30648393320007
 31
0.0
  0
LINE
  8
DETAIL
  6
CONTINUOUS
 62
     5
 10
433.98719266429998
 20
85.30648393320007
 30
0.0
 11
433.74452927470008
 21
85.500881301500158
 31
0.0
  0
LINE
  8
DETAIL
  6
CONTINUOUS
 62
     5
 10
433.74452927470008
 20
85.500881301500158
 30
0.0
 11
433.48561038660051
 21
85.681335414699788
 31
0.0
  0
LINE
  8
DETAIL
  6
CONTINUOUS
 62
     5
 10
433.48561038660051
 20
85.681335414699788
 30
0.0
 11
433.21176097520032
 21
85.846981644000138
 31
0.0
  0
LINE
  8
DETAIL
  6
CONTINUOUS
 62
     5
 10
433.21176097520032
 20
85.846981644000138
 30
0.0
 11
432.92432864160043
 21
85.997053551000121
 31
0.0
  0
LINE
  8
DETAIL
  6
CONTINUOUS
 62
     5
 10
432.92432864160043
 20
85.997053551000121
 30
0.0
 11
432.62480918979998
 21
86.130845751400088
 31
0.0
  0
LINE
  8
DETAIL
  6
CONTINUOUS
 62
     5
 10
432.62480918979998
 20
86.130845751400088
 30
0.0
 11
432.31447184749999
 21
86.247841063900069
 31
0.0
  0
LINE
  8
DETAIL
  6
CONTINUOUS
 62
     5
 10
432.31447184749999
 20
86.247841063900069
 30
0.0
 11
431.99456472430018
 21
86.347587853700119
 31
0.0
  0
LINE
  8
DETAIL
  6
CONTINUOUS
 62
     5
 10
431.99456472430018
 20
86.347587853700119
 30
0.0
 11
431.66683732760009
 21
86.429542181700057
 31
0.0
  0
LINE
  8
DETAIL
  6
CONTINUOUS
 62
     5
 10
431.66683732760009
 20
86.429542181700057
 30
0.0
 11
431.33303891110018
 21
86.493325428499702
 31
0.0
  0
LINE
  8
DETAIL
  6
CONTINUOUS
 62
     5
 10
431.33303891110018
 20
86.493325428499702
 30
0.0
 11
430.9946869022001
 21
86.538695318299688
 31
0.0
  0
LINE
  8
DETAIL
  6
CONTINUOUS
 62
     5
 10
430.9946869022001
 20
86.538695318299688
 30
0.0
 11
430.65337131790011
 21
86.565497516399788
 31
0.0
  0
LINE
  8
DETAIL
  6
CONTINUOUS
 62
     5
 10
430.65337131790011
 20
86.565497516399788
 30
0.0
 11
430.31071040939997
 21
86.573631351099706
 31
0.0
  0
LINE
  8
DETAIL
  6
CONTINUOUS
 62
     5
 10
435.30385808320023
 20
96.261679781199746
 30
0.0
 11
436.95044196120028
 21
64.842987737699787
 31
0.0
  0
LINE
  8
DETAIL
  6
CONTINUOUS
 62
     5
 10
432.20000000000022
 20
-101.41618034390009
 30
0.0
 11
432.20000000000022
 21
-105.6512492074999
 31
0.0
  0
LINE
  8
DETAIL
  6
CONTINUOUS
 62
     5
 10
442.20000000000022
 20
60.999999999799911
 30
0.0
 11
442.20000000000022
 21
48.999914748500032
 31
0.0
  0
LINE
  8
DETAIL
  6
CONTINUOUS
 62
     5
 10
443.90000000000009
 20
58.99907700859967
 30
0.0
 11
443.90000000000009
 21
51.000922991299831
 31
0.0
  0
LINE
  8
DETAIL
  6
CONTINUOUS
 62
     5
 10
450.20000000000022
 20
35.99999999989997
 30
0.0
 11
450.20000000000022
 21
-35.218366790800253
 31
0.0
  0
LINE
  8
DETAIL
  6
CONTINUOUS
 62
     5
 10
423.52145548620001
 20
-108.0186159221003
 30
0.0
 11
423.4978958488
 21
-108.97127711590019
 31
0.0
  0
LINE
  8
DETAIL
  6
CONTINUOUS
 62
     5
 10
423.4978958488
 20
-108.97127711590019
 30
0.0
 11
423.4587387255001
 21
-109.92239472670011
 31
0.0
  0
LINE
  8
DETAIL
  6
CONTINUOUS
 62
     5
 10
423.4587387255001
 20
-109.92239472670011
 30
0.0
 11
423.40291229840022
 21
-110.87166936780019
 31
0.0
  0
LINE
  8
DETAIL
  6
CONTINUOUS
 62
     5
 10
423.40291229840022
 20
-110.87166936780019
 30
0.0
 11
423.32934474930022
 21
-111.8188016524
 31
0.0
  0
LINE
  8
DETAIL
  6
CONTINUOUS
 62
     5
 10
423.32934474930022
 20
-111.8188016524
 30
0.0
 11
423.25757388800002
 21
-112.5689805132001
 31
0.0
  0
LINE
  8
DETAIL
  6
CONTINUOUS
 62
     5
 10
423.25757388800002
 20
-112.5689805132001
 30
0.0
 11
423.17327304219998
 21
-113.3173904688001
 31
0.0
  0
LINE
  8
DETAIL
  6
CONTINUOUS
 62
     5
 10
423.17327304219998
 20
-113.3173904688001
 30
0.0
 11
423.07576921489999
 21
-114.0638015396999
 31
0.0
  0
LINE
  8
DETAIL
  6
CONTINUOUS
 62
     5
 10
423.07576921489999
 20
-114.0638015396999
 30
0.0
 11
422.96438940890039
 21
-114.8079837466003
 31
0.0
  0
LINE
  8
DETAIL
  6
CONTINUOUS
 62
     5
 10
422.96438940890039
 20
-114.8079837466003
 30
0.0
 11
422.83846062730032
 21
-115.5497071100999
 31
0.0
  0
LINE
  8
DETAIL
  6
CONTINUOUS
 62
     5
 10
422.83846062730032
 20
-115.5497071100999
 30
0.0
 11
422.69730987300039
 21
-116.28874165080011
 31
0.0
  0
LINE
  8
DETAIL
  6
CONTINUOUS
 62
     5
 10
422.69730987300039
 20
-116.28874165080011
 30
0.0
 11
422.54026414890001
 21
-117.02485738909991
 31
0.0
  0
LINE
  8
DETAIL
  6
CONTINUOUS
 62
     5
 10
422.54026414890001
 20
-117.02485738909991
 30
0.0
 11
422.36665045799998
 21
-117.7578243459002
 31
0.0
  0
LINE
  8
DETAIL
  6
CONTINUOUS
 62
     5
 10
422.36665045799998
 20
-117.7578243459002
 30
0.0
 11
422.17579580320017
 21
-118.48741254149991
 31
0.0
  0
LINE
  8
DETAIL
  6
CONTINUOUS
 62
     5
 10
422.17579580320017
 20
-118.48741254149991
 30
0.0
 11
421.9887291297
 21
-119.1409157267999
 31
0.0
  0
LINE
  8
DETAIL
  6
CONTINUOUS
 62
     5
 10
421.9887291297
 20
-119.1409157267999
 30
0.0
 11
421.78666016490018
 21
-119.7910445448001
 31
0.0
  0
LINE
  8
DETAIL
  6
CONTINUOUS
 62
     5
 10
421.78666016490018
 20
-119.7910445448001
 30
0.0
 11
421.56909692590028
 21
-120.4373477078998
 31
0.0
  0
LINE
  8
DETAIL
  6
CONTINUOUS
 62
     5
 10
421.56909692590028
 20
-120.4373477078998
 30
0.0
 11
421.33554742979999
 21
-121.07937392860001
 31
0.0
  0
LINE
  8
DETAIL
  6
CONTINUOUS
 62
     5
 10
421.33554742979999
 20
-121.07937392860001
 30
0.0
 11
421.08551969370001
 21
-121.7166719193001
 31
0.0
  0
LINE
  8
DETAIL
  6
CONTINUOUS
 62
     5
 10
421.08551969370001
 20
-121.7166719193001
 30
0.0
 11
420.81852173459993
 21
-122.3487903924001
 31
0.0
  0
LINE
  8
DETAIL
  6
CONTINUOUS
 62
     5
 10
420.81852173459993
 20
-122.3487903924001
 30
0.0
 11
420.53406156969999
 21
-122.9752780606
 31
0.0
  0
LINE
  8
DETAIL
  6
CONTINUOUS
 62
     5
 10
420.53406156969999
 20
-122.9752780606
 30
0.0
 11
420.23164721590001
 21
-123.5956836360001
 31
0.0
  0
LINE
  8
DETAIL
  6
CONTINUOUS
 62
     5
 10
420.23164721590001
 20
-123.5956836360001
 30
0.0
 11
419.91078669040007
 21
-124.2095558313999
 31
0.0
  0
LINE
  8
DETAIL
  6
CONTINUOUS
 62
     5
 10
419.91078669040007
 20
-124.2095558313999
 30
0.0
 11
419.57098801030003
 21
-124.816443359
 31
0.0
  0
LINE
  8
DETAIL
  6
CONTINUOUS
 62
     5
 10
419.57098801030003
 20
-124.816443359
 30
0.0
 11
419.24528067540001
 21
-125.3616954494
 31
0.0
  0
LINE
  8
DETAIL
  6
CONTINUOUS
 62
     5
 10
419.24528067540001
 20
-125.3616954494
 30
0.0
 11
418.90343663400017
 21
-125.9003249284001
 31
0.0
  0
LINE
  8
DETAIL
  6
CONTINUOUS
 62
     5
 10
418.90343663400017
 20
-125.9003249284001
 30
0.0
 11
418.54537714449998
 21
-126.43185460240009
 31
0.0
  0
LINE
  8
DETAIL
  6
CONTINUOUS
 62
     5
 10
418.54537714449998
 20
-126.43185460240009
 30
0.0
 11
418.17102346530021
 21
-126.9558072775999
 31
0.0
  0
LINE
  8
DETAIL
  6
CONTINUOUS
 62
     5
 10
418.17102346530021
 20
-126.9558072775999
 30
0.0
 11
417.78029685480033
 21
-127.47170576020019
 31
0.0
  0
LINE
  8
DETAIL
  6
CONTINUOUS
 62
     5
 10
417.78029685480033
 20
-127.47170576020019
 30
0.0
 11
417.37311857150007
 21
-127.9790728565999
 31
0.0
  0
LINE
  8
DETAIL
  6
CONTINUOUS
 62
     5
 10
417.37311857150007
 20
-127.9790728565999
 30
0.0
 11
416.94940987370001
 21
-128.47743137290041
 31
0.0
  0
LINE
  8
DETAIL
  6
CONTINUOUS
 62
     5
 10
416.94940987370001
 20
-128.47743137290041
 30
0.0
 11
416.50909201979988
 21
-128.96630411539991
 31
0.0
  0
LINE
  8
DETAIL
  6
CONTINUOUS
 62
     5
 10
416.50909201979988
 20
-128.96630411539991
 30
0.0
 11
416.05208626840022
 21
-129.44521389029981
 31
0.0
  0
LINE
  8
DETAIL
  6
CONTINUOUS
 62
     5
 10
416.05208626840022
 20
-129.44521389029981
 30
0.0
 11
415.57831387770011
 21
-129.91368350399989
 31
0.0
  0
LINE
  8
DETAIL
  6
CONTINUOUS
 62
     5
 10
415.57831387770011
 20
-129.91368350399989
 30
0.0
 11
415.08769610619993
 21
-130.37123576260001
 31
0.0
  0
LINE
  8
DETAIL
  6
CONTINUOUS
 62
     5
 10
418.70000000000022
 20
-82.96558717049993
 30
0.0
 11
418.68293549060041
 21
-83.556135017100118
 31
0.0
  0
LINE
  8
DETAIL
  6
CONTINUOUS
 62
     5
 10
418.68293549060041
 20
-83.556135017100118
 30
0.0
 11
418.63388005450003
 21
-84.149355146199923
 31
0.0
  0
LINE
  8
DETAIL
  6
CONTINUOUS
 62
     5
 10
418.63388005450003
 20
-84.149355146199923
 30
0.0
 11
418.5527277936003
 21
-84.742651766100138
 31
0.0
  0
LINE
  8
DETAIL
  6
CONTINUOUS
 62
     5
 10
418.5527277936003
 20
-84.742651766100138
 30
0.0
 11
418.43979640260022
 21
-85.34381225200012
 31
0.0
  0
LINE
  8
DETAIL
  6
CONTINUOUS
 62
     5
 10
418.43979640260022
 20
-85.34381225200012
 30
0.0
 11
418.29540357629998
 21
-85.96062397859987
 31
0.0
  0
LINE
  8
DETAIL
  6
CONTINUOUS
 62
     5
 10
418.29540357629998
 20
-85.96062397859987
 30
0.0
 11
418.11944341639992
 21
-86.590491154400297
 31
0.0
  0
LINE
  8
DETAIL
  6
CONTINUOUS
 62
     5
 10
418.70000000000022
 20
-89.244105042399966
 30
0.0
 11
418.69021275260002
 21
-89.571843815599991
 31
0.0
  0
LINE
  8
DETAIL
  6
CONTINUOUS
 62
     5
 10
418.69021275260002
 20
-89.571843815599991
 30
0.0
 11
418.66205397279998
 21
-89.899367399700168
 31
0.0
  0
LINE
  8
DETAIL
  6
CONTINUOUS
 62
     5
 10
418.66205397279998
 20
-89.899367399700168
 30
0.0
 11
418.61527431400009
 21
-90.226227962900353
 31
0.0
  0
LINE
  8
DETAIL
  6
CONTINUOUS
 62
     5
 10
418.61527431400009
 20
-90.226227962900353
 30
0.0
 11
418.5506218165001
 21
-90.553769001000077
 31
0.0
  0
LINE
  8
DETAIL
  6
CONTINUOUS
 62
     5
 10
418.5506218165001
 20
-90.553769001000077
 30
0.0
 11
418.46883354200003
 21
-90.882319443499924
 31
0.0
  0
LINE
  8
DETAIL
  6
CONTINUOUS
 62
     5
 10
418.46883354200003
 20
-90.882319443499924
 30
0.0
 11
418.36969307920032
 21
-91.214475157500132
 31
0.0
  0
LINE
  8
DETAIL
  6
CONTINUOUS
 62
     5
 10
418.36969307920032
 20
-91.214475157500132
 30
0.0
 11
418.25323336349987
 21
-91.553279841899865
 31
0.0
  0
LINE
  8
DETAIL
  6
CONTINUOUS
 62
     5
 10
418.25323336349987
 20
-91.553279841899865
 30
0.0
 11
418.11944341639992
 21
-91.89771893040006
 31
0.0
  0
LINE
  8
DETAIL
  6
CONTINUOUS
 62
     5
 10
432.20000000000022
 20
-105.6512492074999
 30
0.0
 11
432.1946849676001
 21
-105.7576229204001
 31
0.0
  0
LINE
  8
DETAIL
  6
CONTINUOUS
 62
     5
 10
432.1946849676001
 20
-105.7576229204001
 30
0.0
 11
432.17841733760002
 21
-105.86483482919991
 31
0.0
  0
LINE
  8
DETAIL
  6
CONTINUOUS
 62
     5
 10
432.17841733760002
 20
-105.86483482919991
 30
0.0
 11
432.15075011170029
 21
-105.97190553739981
 31
0.0
  0
LINE
  8
DETAIL
  6
CONTINUOUS
 62
     5
 10
432.15075011170029
 20
-105.97190553739981
 30
0.0
 11
432.11163140230019
 21
-106.0769957973998
 31
0.0
  0
LINE
  8
DETAIL
  6
CONTINUOUS
 62
     5
 10
432.11163140230019
 20
-106.0769957973998
 30
0.0
 11
432.06130648110002
 21
-106.1785078236999
 31
0.0
  0
LINE
  8
DETAIL
  6
CONTINUOUS
 62
     5
 10
432.06130648110002
 20
-106.1785078236999
 30
0.0
 11
432.00026510140009
 21
-106.27504275610001
 31
0.0
  0
LINE
  8
DETAIL
  6
CONTINUOUS
 62
     5
 10
432.00026510140009
 20
-106.27504275610001
 30
0.0
 11
431.92848465360021
 21
-106.36622750390011
 31
0.0
  0
LINE
  8
DETAIL
  6
CONTINUOUS
 62
     5
 10
431.92848465360021
 20
-106.36622750390011
 30
0.0
 11
431.84894903610018
 21
-106.4486608488
 31
0.0
  0
LINE
  8
DETAIL
  6
CONTINUOUS
 62
     5
 10
431.84894903610018
 20
-106.4486608488
 30
0.0
 11
431.7654057906002
 21
-106.52027798040039
 31
0.0
  0
LINE
  8
DETAIL
  6
CONTINUOUS
 62
     5
 10
431.7654057906002
 20
-106.52027798040039
 30
0.0
 11
431.67892564590011
 21
-106.58225204039989
 31
0.0
  0
LINE
  8
DETAIL
  6
CONTINUOUS
 62
     5
 10
431.67892564590011
 20
-106.58225204039989
 30
0.0
 11
431.59240774279988
 21
-106.6345341848
 31
0.0
  0
LINE
  8
DETAIL
  6
CONTINUOUS
 62
     5
 10
431.59240774279988
 20
-106.6345341848
 30
0.0
 11
431.50227800350012
 21
-106.68067289779989
 31
0.0
  0
LINE
  8
DETAIL
  6
CONTINUOUS
 62
     5
 10
431.50227800350012
 20
-106.68067289779989
 30
0.0
 11
431.40407830340018
 21
-106.72306605599989
 31
0.0
  0
LINE
  8
DETAIL
  6
CONTINUOUS
 62
     5
 10
431.40407830340018
 20
-106.72306605599989
 30
0.0
 11
431.29761743610021
 21
-106.7614659190999
 31
0.0
  0
LINE
  8
DETAIL
  6
CONTINUOUS
 62
     5
 10
431.29761743610021
 20
-106.7614659190999
 30
0.0
 11
431.18042319519998
 21
-106.7963578449999
 31
0.0
  0
LINE
  8
DETAIL
  6
CONTINUOUS
 62
     5
 10
431.18042319519998
 20
-106.7963578449999
 30
0.0
 11
431.05250343310041
 21
-106.8272806783998
 31
0.0
  0
LINE
  8
DETAIL
  6
CONTINUOUS
 62
     5
 10
431.05250343310041
 20
-106.8272806783998
 30
0.0
 11
430.91108363730018
 21
-106.8543640587
 31
0.0
  0
LINE
  8
DETAIL
  6
CONTINUOUS
 62
     5
 10
430.91108363730018
 20
-106.8543640587
 30
0.0
 11
430.76371228049987
 21
-106.8759879314002
 31
0.0
  0
LINE
  8
DETAIL
  6
CONTINUOUS
 62
     5
 10
430.76371228049987
 20
-106.8759879314002
 30
0.0
 11
430.62111278449999
 21
-106.89141039900009
 31
0.0
  0
LINE
  8
DETAIL
  6
CONTINUOUS
 62
     5
 10
430.62111278449999
 20
-106.89141039900009
 30
0.0
 11
430.47960060100007
 21
-106.90195015239991
 31
0.0
  0
LINE
  8
DETAIL
  6
CONTINUOUS
 62
     5
 10
430.47960060100007
 20
-106.90195015239991
 30
0.0
 11
430.33885943370018
 21
-106.90808109380031
 31
0.0
  0
LINE
  8
DETAIL
  6
CONTINUOUS
 62
     5
 10
430.33885943370018
 20
-106.90808109380031
 30
0.0
 11
430.20000000000022
 21
-106.9100682526
 31
0.0
  0
LINE
  8
DETAIL
  6
CONTINUOUS
 62
     5
 10
435.30385808320023
 20
-96.261679781200201
 30
0.0
 11
437.95167515980029
 21
-45.738320218800247
 31
0.0
  0
LINE
  8
DETAIL
  6
CONTINUOUS
 62
     5
 10
450.17213245690027
 20
-35.71397864490018
 30
0.0
 11
450.19639970190019
 21
-35.396768199600047
 31
0.0
  0
LINE
  8
DETAIL
  6
CONTINUOUS
 62
     5
 10
450.19639970190019
 20
-35.396768199600047
 30
0.0
 11
450.19999997280001
 21
-35.218652750099849
 31
0.0
  0
LINE
  8
DETAIL
  6
CONTINUOUS
 62
     5
 10
418.70000000000022
 20
-78.369393093500094
 30
0.0
 11
418.68293549060041
 21
-78.52762991210011
 31
0.0
  0
LINE
  8
DETAIL
  6
CONTINUOUS
 62
     5
 10
418.68293549060041
 20
-78.52762991210011
 30
0.0
 11
418.63388005450003
 21
-78.686582766600154
 31
0.0
  0
LINE
  8
DETAIL
  6
CONTINUOUS
 62
     5
 10
418.63388005450003
 20
-78.686582766600154
 30
0.0
 11
418.5527277936003
 21
-78.845556116800267
 31
0.0
  0
LINE
  8
DETAIL
  6
CONTINUOUS
 62
     5
 10
418.5527277936003
 20
-78.845556116800267
 30
0.0
 11
418.43979640260022
 21
-79.006636583500054
 31
0.0
  0
LINE
  8
DETAIL
  6
CONTINUOUS
 62
     5
 10
418.43979640260022
 20
-79.006636583500054
 30
0.0
 11
418.29540357629998
 21
-79.17191078760014
 31
0.0
  0
LINE
  8
DETAIL
  6
CONTINUOUS
 62
     5
 10
418.29540357629998
 20
-79.17191078760014
 30
0.0
 11
418.11944341639992
 21
-79.340683188599982
 31
0.0
  0
LINE
  8
DETAIL
  6
CONTINUOUS
 62
     5
 10
435.30385808320023
 20
-49.056829530300092
 30
0.0
 11
435.27374612140011
 21
-49.270436372699812
 31
0.0
  0
LINE
  8
DETAIL
  6
CONTINUOUS
 62
     5
 10
435.27374612140011
 20
-49.270436372699812
 30
0.0
 11
435.21982288890013
 21
-49.482195101099933
 31
0.0
  0
LINE
  8
DETAIL
  6
CONTINUOUS
 62
     5
 10
435.21982288890013
 20
-49.482195101099933
 30
0.0
 11
435.14238519180032
 21
-49.691309662799988
 31
0.0
  0
LINE
  8
DETAIL
  6
CONTINUOUS
 62
     5
 10
435.14238519180032
 20
-49.691309662799988
 30
0.0
 11
435.04178573640002
 21
-49.896795348599881
 31
0.0
  0
LINE
  8
DETAIL
  6
CONTINUOUS
 62
     5
 10
435.04178573640002
 20
-49.896795348599881
 30
0.0
 11
434.91841669310003
 21
-50.097788363800191
 31
0.0
  0
LINE
  8
DETAIL
  6
CONTINUOUS
 62
     5
 10
434.91841669310003
 20
-50.097788363800191
 30
0.0
 11
434.77294700360022
 21
-50.29317376220024
 31
0.0
  0
LINE
  8
DETAIL
  6
CONTINUOUS
 62
     5
 10
434.77294700360022
 20
-50.29317376220024
 30
0.0
 11
434.60617500320041
 21
-50.481902050400087
 31
0.0
  0
LINE
  8
DETAIL
  6
CONTINUOUS
 62
     5
 10
434.60617500320041
 20
-50.481902050400087
 30
0.0
 11
434.4189549339003
 21
-50.66307753880028
 31
0.0
  0
LINE
  8
DETAIL
  6
CONTINUOUS
 62
     5
 10
434.4189549339003
 20
-50.66307753880028
 30
0.0
 11
434.21232105699983
 21
-50.835758098200131
 31
0.0
  0
LINE
  8
DETAIL
  6
CONTINUOUS
 62
     5
 10
434.21232105699983
 20
-50.835758098200131
 30
0.0
 11
433.98719223650011
 21
-50.999245457200217
 31
0.0
  0
LINE
  8
DETAIL
  6
CONTINUOUS
 62
     5
 10
433.98719223650011
 20
-50.999245457200217
 30
0.0
 11
433.74452886100022
 21
-51.152845519600312
 31
0.0
  0
LINE
  8
DETAIL
  6
CONTINUOUS
 62
     5
 10
433.74452886100022
 20
-51.152845519600312
 30
0.0
 11
433.48560999360012
 21
-51.295771580199933
 31
0.0
  0
LINE
  8
DETAIL
  6
CONTINUOUS
 62
     5
 10
433.48560999360012
 20
-51.295771580199933
 30
0.0
 11
433.21176060800002
 21
-51.427305859900123
 31
0.0
  0
LINE
  8
DETAIL
  6
CONTINUOUS
 62
     5
 10
433.21176060800002
 20
-51.427305859900123
 30
0.0
 11
432.92432830479999
 21
-51.546851190300004
 31
0.0
  0
LINE
  8
DETAIL
  6
CONTINUOUS
 62
     5
 10
432.92432830479999
 20
-51.546851190300004
 30
0.0
 11
432.62480888720017
 21
-51.65381548510004
 31
0.0
  0
LINE
  8
DETAIL
  6
CONTINUOUS
 62
     5
 10
432.62480888720017
 20
-51.65381548510004
 30
0.0
 11
432.31447158250012
 21
-51.747790551899932
 31
0.0
  0
LINE
  8
DETAIL
  6
CONTINUOUS
 62
     5
 10
432.31447158250012
 20
-51.747790551899932
 30
0.0
 11
431.99456449990021
 21
-51.828388575100227
 31
0.0
  0
LINE
  8
DETAIL
  6
CONTINUOUS
 62
     5
 10
431.99456449990021
 20
-51.828388575100227
 30
0.0
 11
431.66683714610008
 21
-51.895186479800032
 31
0.0
  0
LINE
  8
DETAIL
  6
CONTINUOUS
 62
     5
 10
431.66683714610008
 20
-51.895186479800032
 30
0.0
 11
431.33303877430018
 21
-51.947841856200277
 31
0.0
  0
LINE
  8
DETAIL
  6
CONTINUOUS
 62
     5
 10
431.33303877430018
 20
-51.947841856200277
 30
0.0
 11
430.99468681110011
 21
-51.986168806799917
 31
0.0
  0
LINE
  8
DETAIL
  6
CONTINUOUS
 62
     5
 10
430.99468681110011
 20
-51.986168806799917
 30
0.0
 11
430.6533712726
 21
-52.010000678500091
 31
0.0
  0
LINE
  8
DETAIL
  6
CONTINUOUS
 62
     5
 10
430.6533712726
 20
-52.010000678500091
 30
0.0
 11
430.31071040939997
 21
-52.019288294100072
 31
0.0
  0
LINE
  8
DETAIL
  6
CONTINUOUS
 62
     5
 10
430.67698891290001
 20
-106.8853672656001
 30
0.0
 11
430.66160437709999
 21
-106.9818075649
 31
0.0
  0
LINE
  8
DETAIL
  6
CONTINUOUS
 62
     5
 10
430.66160437709999
 20
-106.9818075649
 30
0.0
 11
430.55159836270002
 21
-107.2035454959
 31
0.0
  0
LINE
  8
DETAIL
  6
CONTINUOUS
 62
     5
 10
430.55159836270002
 20
-107.2035454959
 30
0.0
 11
430.38693708110031
 21
-107.3912794029002
 31
0.0
  0
LINE
  8
DETAIL
  6
CONTINUOUS
 62
     5
 10
430.38693708110031
 20
-107.3912794029002
 30
0.0
 11
430.17250406000039
 21
-107.55363981470011
 31
0.0
  0
LINE
  8
DETAIL
  6
CONTINUOUS
 62
     5
 10
430.17250406000039
 20
-107.55363981470011
 30
0.0
 11
429.90978602730002
 21
-107.69607618959979
 31
0.0
  0
LINE
  8
DETAIL
  6
CONTINUOUS
 62
     5
 10
429.90978602730002
 20
-107.69607618959979
 30
0.0
 11
429.58789941210023
 21
-107.8261852187002
 31
0.0
  0
LINE
  8
DETAIL
  6
CONTINUOUS
 62
     5
 10
429.58789941210023
 20
-107.8261852187002
 30
0.0
 11
429.19506824349992
 21
-107.94625955379981
 31
0.0
  0
LINE
  8
DETAIL
  6
CONTINUOUS
 62
     5
 10
429.19506824349992
 20
-107.94625955379981
 30
0.0
 11
428.72476714320021
 21
-108.0542925172003
 31
0.0
  0
LINE
  8
DETAIL
  6
CONTINUOUS
 62
     5
 10
428.72476714320021
 20
-108.0542925172003
 30
0.0
 11
428.16431026430018
 21
-108.1479084282
 31
0.0
  0
LINE
  8
DETAIL
  6
CONTINUOUS
 62
     5
 10
428.16431026430018
 20
-108.1479084282
 30
0.0
 11
427.53810954310029
 21
-108.2186678800999
 31
0.0
  0
LINE
  8
DETAIL
  6
CONTINUOUS
 62
     5
 10
427.53810954310029
 20
-108.2186678800999
 30
0.0
 11
426.8807168262
 21
-108.2616673691
 31
0.0
  0
LINE
  8
DETAIL
  6
CONTINUOUS
 62
     5
 10
426.8807168262
 20
-108.2616673691
 30
0.0
 11
426.19999997180003
 21
-108.2762860254002
 31
0.0
  0
LINE
  8
DETAIL
  6
CONTINUOUS
 62
     5
 10
449.96313120769997
 20
-36.646756583099886
 30
0.0
 11
450.05524640890008
 21
-36.340647007199998
 31
0.0
  0
LINE
  8
DETAIL
  6
CONTINUOUS
 62
     5
 10
450.05524640890008
 20
-36.340647007199998
 30
0.0
 11
450.12500251330039
 21
-36.029274870799767
 31
0.0
  0
LINE
  8
DETAIL
  6
CONTINUOUS
 62
     5
 10
450.12500251330039
 20
-36.029274870799767
 30
0.0
 11
450.17211480480012
 21
-35.7141350582001
 31
0.0
  0
LINE
  8
DETAIL
  6
CONTINUOUS
 62
     5
 10
449.55714965080011
 20
-37.519440697999933
 30
0.0
 11
449.71358202330009
 21
-37.237446476899997
 31
0.0
  0
LINE
  8
DETAIL
  6
CONTINUOUS
 62
     5
 10
449.71358202330009
 20
-37.237446476899997
 30
0.0
 11
449.84912631830002
 21
-36.94604112619983
 31
0.0
  0
LINE
  8
DETAIL
  6
CONTINUOUS
 62
     5
 10
449.84912631830002
 20
-36.94604112619983
 30
0.0
 11
449.96319101180012
 21
-36.646580628100317
 31
0.0
  0
LINE
  8
DETAIL
  6
CONTINUOUS
 62
     5
 10
449.96319101180012
 20
-36.646580628100317
 30
0.0
 11
450.05529634800041
 21
-36.340455960700183
 31
0.0
  0
LINE
  8
DETAIL
  6
CONTINUOUS
 62
     5
 10
418.56761637030007
 20
-91.377206137300149
 30
0.0
 11
418.70000000000022
 21
-91.147910964699804
 31
0.0
  0
LINE
  8
DETAIL
  6
CONTINUOUS
 62
     5
 10
408.91230389380007
 20
-123.55181269159991
 30
0.0
 11
408.69972571050039
 21
-123.7406139484001
 31
0.0
  0
LINE
  8
DETAIL
  6
CONTINUOUS
 62
     5
 10
408.69972571050039
 20
-123.7406139484001
 30
0.0
 11
408.48479540760042
 21
-123.9241473515999
 31
0.0
  0
LINE
  8
DETAIL
  6
CONTINUOUS
 62
     5
 10
408.48479540760042
 20
-123.9241473515999
 30
0.0
 11
408.26744192390021
 21
-124.1024831981003
 31
0.0
  0
LINE
  8
DETAIL
  6
CONTINUOUS
 62
     5
 10
408.26744192390021
 20
-124.1024831981003
 30
0.0
 11
408.04759419830037
 21
-124.2756917849001
 31
0.0
  0
LINE
  8
DETAIL
  6
CONTINUOUS
 62
     5
 10
408.04759419830037
 20
-124.2756917849001
 30
0.0
 11
407.82518116969999
 21
-124.44384340890019
 31
0.0
  0
LINE
  8
DETAIL
  6
CONTINUOUS
 62
     5
 10
407.82518116969999
 20
-124.44384340890019
 30
0.0
 11
407.60013177700012
 21
-124.6070083673003
 31
0.0
  0
LINE
  8
DETAIL
  6
CONTINUOUS
 62
     5
 10
407.60013177700012
 20
-124.6070083673003
 30
0.0
 11
407.37237495929998
 21
-124.7652569569
 31
0.0
  0
LINE
  8
DETAIL
  6
CONTINUOUS
 62
     5
 10
407.37237495929998
 20
-124.7652569569
 30
0.0
 11
407.14183965529992
 21
-124.91865947470021
 31
0.0
  0
LINE
  8
DETAIL
  6
CONTINUOUS
 62
     5
 10
407.14183965529992
 20
-124.91865947470021
 30
0.0
 11
406.90845480389999
 21
-125.0672862176998
 31
0.0
  0
LINE
  8
DETAIL
  6
CONTINUOUS
 62
     5
 10
406.90845480389999
 20
-125.0672862176998
 30
0.0
 11
406.67214934420008
 21
-125.21120748290009
 31
0.0
  0
LINE
  8
DETAIL
  6
CONTINUOUS
 62
     5
 10
406.67214934420008
 20
-125.21120748290009
 30
0.0
 11
406.43285221510001
 21
-125.35049356730001
 31
0.0
  0
LINE
  8
DETAIL
  6
CONTINUOUS
 62
     5
 10
406.43285221510001
 20
-125.35049356730001
 30
0.0
 11
406.19049235530019
 21
-125.4852147679003
 31
0.0
  0
LINE
  8
DETAIL
  6
CONTINUOUS
 62
     5
 10
406.19049235530019
 20
-125.4852147679003
 30
0.0
 11
405.94499870400023
 21
-125.6154413815002
 31
0.0
  0
LINE
  8
DETAIL
  6
CONTINUOUS
 62
     5
 10
415.08769610619993
 20
-130.37123576260001
 30
0.0
 11
414.71915363020042
 21
-130.69775894329999
 31
0.0
  0
LINE
  8
DETAIL
  6
CONTINUOUS
 62
     5
 10
414.71915363020042
 20
-130.69775894329999
 30
0.0
 11
414.34534198130041
 21
-131.0147773993003
 31
0.0
  0
LINE
  8
DETAIL
  6
CONTINUOUS
 62
     5
 10
414.34534198130041
 20
-131.0147773993003
 30
0.0
 11
413.96642727199998
 21
-131.32236799070009
 31
0.0
  0
LINE
  8
DETAIL
  6
CONTINUOUS
 62
     5
 10
413.96642727199998
 20
-131.32236799070009
 30
0.0
 11
413.58257561500022
 21
-131.6206075773998
 31
0.0
  0
LINE
  8
DETAIL
  6
CONTINUOUS
 62
     5
 10
413.58257561500022
 20
-131.6206075773998
 30
0.0
 11
413.19395312279988
 21
-131.9095730196
 31
0.0
  0
LINE
  8
DETAIL
  6
CONTINUOUS
 62
     5
 10
413.19395312279988
 20
-131.9095730196
 30
0.0
 11
412.80072590809999
 21
-132.18934117729989
 31
0.0
  0
LINE
  8
DETAIL
  6
CONTINUOUS
 62
     5
 10
412.80072590809999
 20
-132.18934117729989
 30
0.0
 11
412.40306008350018
 21
-132.45998891060029
 31
0.0
  0
LINE
  8
DETAIL
  6
CONTINUOUS
 62
     5
 10
412.40306008350018
 20
-132.45998891060029
 30
0.0
 11
412.00112176150009
 21
-132.72159307940001
 31
0.0
  0
LINE
  8
DETAIL
  6
CONTINUOUS
 62
     5
 10
412.00112176150009
 20
-132.72159307940001
 30
0.0
 11
411.59507705480019
 21
-132.97423054389989
 31
0.0
  0
LINE
  8
DETAIL
  6
CONTINUOUS
 62
     5
 10
411.59507705480019
 20
-132.97423054389989
 30
0.0
 11
411.18509207600022
 21
-133.21797816400019
 31
0.0
  0
LINE
  8
DETAIL
  6
CONTINUOUS
 62
     5
 10
411.18509207600022
 20
-133.21797816400019
 30
0.0
 11
410.77133293760022
 21
-133.4529127999003
 31
0.0
  0
LINE
  8
DETAIL
  6
CONTINUOUS
 62
     5
 10
410.77133293760022
 20
-133.4529127999003
 30
0.0
 11
410.35396575230021
 21
-133.67911131160011
 31
0.0
  0
LINE
  8
DETAIL
  6
CONTINUOUS
 62
     5
 10
410.35396575230021
 20
-133.67911131160011
 30
0.0
 11
409.93315663269999
 21
-133.89665055900011
 31
0.0
  0
LINE
  8
DETAIL
  6
CONTINUOUS
 62
     5
 10
409.93315663269999
 20
-133.89665055900011
 30
0.0
 11
409.50907169130011
 21
-134.10560740240001
 31
0.0
  0
LINE
  8
DETAIL
  6
CONTINUOUS
 62
     5
 10
409.50907169130011
 20
-134.10560740240001
 30
0.0
 11
409.08187704080001
 21
-134.3060587015998
 31
0.0
  0
LINE
  8
DETAIL
  6
CONTINUOUS
 62
     5
 10
409.08187704080001
 20
-134.3060587015998
 30
0.0
 11
408.65173879380018
 21
-134.4980813167999
 31
0.0
  0
LINE
  8
DETAIL
  6
CONTINUOUS
 62
     5
 10
408.65173879380018
 20
-134.4980813167999
 30
0.0
 11
408.21882306279991
 21
-134.68175210800021
 31
0.0
  0
LINE
  8
DETAIL
  6
CONTINUOUS
 62
     5
 10
408.21882306279991
 20
-134.68175210800021
 30
0.0
 11
407.78329596050031
 21
-134.85714793519989
 31
0.0
  0
LINE
  8
DETAIL
  6
CONTINUOUS
 62
     5
 10
407.78329596050031
 20
-134.85714793519989
 30
0.0
 11
407.34532359950032
 21
-135.02434565850041
 31
0.0
  0
LINE
  8
DETAIL
  6
CONTINUOUS
 62
     5
 10
407.34532359950032
 20
-135.02434565850041
 30
0.0
 11
406.90507209240008
 21
-135.183422138
 31
0.0
  0
LINE
  8
DETAIL
  6
CONTINUOUS
 62
     5
 10
406.90507209240008
 20
-135.183422138
 30
0.0
 11
406.46270755170008
 21
-135.3344542335999
 31
0.0
  0
LINE
  8
DETAIL
  6
CONTINUOUS
 62
     5
 10
406.46270755170008
 20
-135.3344542335999
 30
0.0
 11
406.00252057050011
 21
-135.48248030490001
 31
0.0
  0
LINE
  8
DETAIL
  6
CONTINUOUS
 62
     5
 10
1.3272924727998541
 20
-470.49427215409997
 30
0.0
 11
1.308091930200135
 21
-470.50441660280012
 31
0.0
  0
LINE
  8
DETAIL
  6
CONTINUOUS
 62
     5
 10
1.308091930200135
 20
-470.50441660280012
 30
0.0
 11
1.2801656904998711
 21
-470.52447452280012
 31
0.0
  0
LINE
  8
DETAIL
  6
CONTINUOUS
 62
     5
 10
1.2801656904998711
 20
-470.52447452280012
 30
0.0
 11
1.256145897500119
 21
-470.54794781520002
 31
0.0
  0
LINE
  8
DETAIL
  6
CONTINUOUS
 62
     5
 10
1.256145897500119
 20
-470.54794781520002
 30
0.0
 11
1.2362200603001841
 21
-470.57493664459997
 31
0.0
  0
LINE
  8
DETAIL
  6
CONTINUOUS
 62
     5
 10
1.2362200603001841
 20
-470.57493664459997
 30
0.0
 11
1.2205353034000841
 21
-470.60550902290021
 31
0.0
  0
LINE
  8
DETAIL
  6
CONTINUOUS
 62
     5
 10
1.2205353034000841
 20
-470.60550902290021
 30
0.0
 11
1.2091970258998119
 21
-470.63989167879998
 31
0.0
  0
LINE
  8
DETAIL
  6
CONTINUOUS
 62
     5
 10
1.2091970258998119
 20
-470.63989167879998
 30
0.0
 11
1.202314996899986
 21
-470.6783651866001
 31
0.0
  0
LINE
  8
DETAIL
  6
CONTINUOUS
 62
     5
 10
1.202314996899986
 20
-470.6783651866001
 30
0.0
 11
1.1999999999998181
 21
-470.72083602150002
 31
0.0
  0
LINE
  8
DETAIL
  6
CONTINUOUS
 62
     5
 10
137.53292780970011
 20
-390.89987745110011
 30
0.0
 11
132.86842290920001
 21
-392.75696293570007
 31
0.0
  0
LINE
  8
DETAIL
  6
CONTINUOUS
 62
     5
 10
132.86842290920001
 20
-392.75696293570007
 30
0.0
 11
127.9526301894002
 21
-394.56609921069997
 31
0.0
  0
LINE
  8
DETAIL
  6
CONTINUOUS
 62
     5
 10
127.9526301894002
 20
-394.56609921069997
 30
0.0
 11
122.9609226134999
 21
-396.25701750150012
 31
0.0
  0
LINE
  8
DETAIL
  6
CONTINUOUS
 62
     5
 10
122.9609226134999
 20
-396.25701750150012
 30
0.0
 11
117.8930384640998
 21
-397.82941559940002
 31
0.0
  0
LINE
  8
DETAIL
  6
CONTINUOUS
 62
     5
 10
117.8930384640998
 20
-397.82941559940002
 30
0.0
 11
112.7482050787999
 21
-399.28317767120001
 31
0.0
  0
LINE
  8
DETAIL
  6
CONTINUOUS
 62
     5
 10
112.7482050787999
 20
-399.28317767120001
 30
0.0
 11
107.5264260604999
 21
-400.61799294489992
 31
0.0
  0
LINE
  8
DETAIL
  6
CONTINUOUS
 62
     5
 10
107.5264260604999
 20
-400.61799294489992
 30
0.0
 11
102.2280460715001
 21
-401.8335527319
 31
0.0
  0
LINE
  8
DETAIL
  6
CONTINUOUS
 62
     5
 10
102.2280460715001
 20
-401.8335527319
 30
0.0
 11
96.851355378899797
 21
-402.93006331320021
 31
0.0
  0
LINE
  8
DETAIL
  6
CONTINUOUS
 62
     5
 10
96.851355378899797
 20
-402.93006331320021
 30
0.0
 11
95.400000000000077
 21
-403.19013483520013
 31
0.0
  0
LINE
  8
DETAIL
  6
CONTINUOUS
 62
     5
 10
136.70607407209991
 20
-390.89987745110011
 30
0.0
 11
131.6631214746003
 21
-392.8327841178002
 31
0.0
  0
LINE
  8
DETAIL
  6
CONTINUOUS
 62
     5
 10
131.6631214746003
 20
-392.8327841178002
 30
0.0
 11
126.51008145110021
 21
-394.64941777989998
 31
0.0
  0
LINE
  8
DETAIL
  6
CONTINUOUS
 62
     5
 10
126.51008145110021
 20
-394.64941777989998
 30
0.0
 11
121.2753284969999
 21
-396.33849906670002
 31
0.0
  0
LINE
  8
DETAIL
  6
CONTINUOUS
 62
     5
 10
121.2753284969999
 20
-396.33849906670002
 30
0.0
 11
115.9578462084
 21
-397.89998423930001
 31
0.0
  0
LINE
  8
DETAIL
  6
CONTINUOUS
 62
     5
 10
115.9578462084
 20
-397.89998423930001
 30
0.0
 11
110.5566420398
 21
-399.33379876869998
 31
0.0
  0
LINE
  8
DETAIL
  6
CONTINUOUS
 62
     5
 10
110.5566420398
 20
-399.33379876869998
 30
0.0
 11
105.070583833
 21
-400.63988147840018
 31
0.0
  0
LINE
  8
DETAIL
  6
CONTINUOUS
 62
     5
 10
105.070583833
 20
-400.63988147840018
 30
0.0
 11
99.498968807699853
 21
-401.81806014780022
 31
0.0
  0
LINE
  8
DETAIL
  6
CONTINUOUS
 62
     5
 10
99.498968807699853
 20
-401.81806014780022
 30
0.0
 11
95.400000000000077
 21
-402.57897009399989
 31
0.0
  0
LINE
  8
DETAIL
  6
CONTINUOUS
 62
     5
 10
35.0
 20
-345.89987745110011
 30
0.0
 11
211.0
 21
-345.89987745110011
 31
0.0
  0
LINE
  8
DETAIL
  6
CONTINUOUS
 62
     5
 10
162.1952792969
 20
-390.97923673740002
 30
0.0
 11
159.9865814674998
 21
-390.90606817529999
 31
0.0
  0
LINE
  8
DETAIL
  6
CONTINUOUS
 62
     5
 10
340.24027077630012
 20
-329.12420687000031
 30
0.0
 11
341.86697995699973
 21
-326.37486635830021
 31
0.0
  0
LINE
  8
DETAIL
  6
CONTINUOUS
 62
     5
 10
35.0
 20
-390.89987745110011
 30
0.0
 11
211.0
 21
-390.89987745110011
 31
0.0
  0
LINE
  8
DETAIL
  6
CONTINUOUS
 62
     5
 10
122.9499999999998
 20
-401.52334159460003
 30
0.0
 11
119.4499999999998
 21
-401.52334159460003
 31
0.0
  0
LINE
  8
DETAIL
  6
CONTINUOUS
 62
     5
 10
35.0
 20
-418.69999999999999
 30
0.0
 11
45.400000000000098
 21
-418.69999999999999
 31
0.0
  0
LINE
  8
DETAIL
  6
CONTINUOUS
 62
     5
 10
94.19999999999979
 20
-469.0
 30
0.0
 11
95.400000000000077
 21
-469.0
 31
0.0
  0
LINE
  8
DETAIL
  6
CONTINUOUS
 62
     5
 10
1.1999999999998181
 20
-470.72083602150002
 30
0.0
 11
0.0
 21
-470.72083602150002
 31
0.0
  0
LINE
  8
DETAIL
  6
CONTINUOUS
 62
     5
 10
1.1999999999998181
 20
-472.60000000000008
 30
0.0
 11
0.0
 21
-472.60000000000008
 31
0.0
  0
LINE
  8
DETAIL
  6
CONTINUOUS
 62
     5
 10
4.5467842369998834
 20
-473.80000000000013
 30
0.0
 11
35.0
 21
-473.80000000000013
 31
0.0
  0
LINE
  8
DETAIL
  6
CONTINUOUS
 62
     5
 10
4.5467842369998834
 20
-473.80000000000013
 30
0.0
 11
2.4000000000000909
 21
-473.80000000000013
 31
0.0
  0
LINE
  8
DETAIL
  6
CONTINUOUS
 62
     5
 10
35.0
 20
-475.0
 30
0.0
 11
2.4000000000000909
 21
-475.0
 31
0.0
  0
LINE
  8
DETAIL
  6
CONTINUOUS
 62
     5
 10
0.7029437251999298
 20
-470.44999999999999
 30
0.0
 11
0.8007028385000012
 21
-470.45132997450003
 31
0.0
  0
LINE
  8
DETAIL
  6
CONTINUOUS
 62
     5
 10
0.8007028385000012
 20
-470.45132997450003
 30
0.0
 11
0.9034886337999524
 21
-470.45532354710008
 31
0.0
  0
LINE
  8
DETAIL
  6
CONTINUOUS
 62
     5
 10
0.9034886337999524
 20
-470.45532354710008
 30
0.0
 11
1.0109724949002159
 21
-470.46197369560008
 31
0.0
  0
LINE
  8
DETAIL
  6
CONTINUOUS
 62
     5
 10
1.0109724949002159
 20
-470.46197369560008
 30
0.0
 11
1.122839638099776
 21
-470.47130878500002
 31
0.0
  0
LINE
  8
DETAIL
  6
CONTINUOUS
 62
     5
 10
1.122839638099776
 20
-470.47130878500002
 30
0.0
 11
1.238779713300119
 21
-470.48334014070002
 31
0.0
  0
LINE
  8
DETAIL
  6
CONTINUOUS
 62
     5
 10
1.238779713300119
 20
-470.48334014070002
 30
0.0
 11
1.3583812482002029
 21
-470.49811185930002
 31
0.0
  0
LINE
  8
DETAIL
  6
CONTINUOUS
 62
     5
 10
1.3583812482002029
 20
-470.49811185930002
 30
0.0
 11
1.4812038180002669
 21
-470.51565123300003
 31
0.0
  0
LINE
  8
DETAIL
  6
CONTINUOUS
 62
     5
 10
1.4812038180002669
 20
-470.51565123300003
 30
0.0
 11
1.606933082799969
 21
-470.53601999990002
 31
0.0
  0
LINE
  8
DETAIL
  6
CONTINUOUS
 62
     5
 10
1.606933082799969
 20
-470.53601999990002
 30
0.0
 11
1.735251064199929
 21
-470.55927252190003
 31
0.0
  0
LINE
  8
DETAIL
  6
CONTINUOUS
 62
     5
 10
1.735251064199929
 20
-470.55927252190003
 30
0.0
 11
1.8656937599002961
 21
-470.58545822020011
 31
0.0
  0
LINE
  8
DETAIL
  6
CONTINUOUS
 62
     5
 10
1.8656937599002961
 20
-470.58545822020011
 30
0.0
 11
1.9978117115001619
 21
-470.61460961830022
 31
0.0
  0
LINE
  8
DETAIL
  6
CONTINUOUS
 62
     5
 10
1.9978117115001619
 20
-470.61460961830022
 30
0.0
 11
2.1311890954998489
 21
-470.6468317703002
 31
0.0
  0
LINE
  8
DETAIL
  6
CONTINUOUS
 62
     5
 10
2.1311890954998489
 20
-470.6468317703002
 30
0.0
 11
2.265391234399885
 21
-470.68225505830009
 31
0.0
  0
LINE
  8
DETAIL
  6
CONTINUOUS
 62
     5
 10
2.265391234399885
 20
-470.68225505830009
 30
0.0
 11
2.4000000000000909
 21
-470.72083602150002
 31
0.0
  0
ARC
  8
DETAIL
  6
CONTINUOUS
 62
     5
 10
45.400000000000098
 20
-467.5
 30
0.0
 40
48.799999999999997
 50
0.0
 51
90.0
  0
ARC
  8
DETAIL
  6
CONTINUOUS
 62
     5
 10
45.400000000000098
 20
467.5
 30
0.0
 40
48.799999999999997
 50
270.0
 51
0.0
  0
ARC
  8
DETAIL
  6
CONTINUOUS
 62
     5
 10
445.20000000000022
 20
36.0
 30
0.0
 40
5.0
 50
0.0
 51
90.0
  0
ARC
  8
DETAIL
  6
CONTINUOUS
 62
     5
 10
442.94482283360003
 20
-46.0
 30
0.0
 40
5.0
 50
122.0461963102872
 51
176.9999999999944
  0
ARC
  8
DETAIL
  6
CONTINUOUS
 62
     5
 10
442.94482283360003
 20
46.0
 30
0.0
 40
5.0
 50
209.99998819818191
 51
270.0
  0
ARC
  8
DETAIL
  6
CONTINUOUS
 62
     5
 10
430.31071040939997
 20
96.0
 30
0.0
 40
5.0
 50
3.0000000000055942
 51
90.0
  0
ARC
  8
DETAIL
  6
CONTINUOUS
 62
     5
 10
430.31071040939997
 20
-96.0
 30
0.0
 40
5.0
 50
303.7529332073143
 51
356.99999999999437
  0
ARC
  8
DETAIL
  6
CONTINUOUS
 62
     5
 10
183.1999999999997
 20
36.0
 30
0.0
 40
5.0
 50
90.0
 51
180.0
  0
ARC
  8
DETAIL
  6
CONTINUOUS
 62
     5
 10
185.45517716640009
 20
46.0
 30
0.0
 40
5.0
 50
270.0
 51
330.00001180181818
  0
ARC
  8
DETAIL
  6
CONTINUOUS
 62
     5
 10
198.0892895905998
 20
96.0
 30
0.0
 40
5.0
 50
90.0
 51
176.9999999999944
  0
ARC
  8
DETAIL
  6
CONTINUOUS
 62
     5
 10
198.0892895905998
 20
-96.0
 30
0.0
 40
5.0
 50
183.0000000000056
 51
236.2470667926857
  0
ARC
  8
DETAIL
  6
CONTINUOUS
 62
     5
 10
1.0500000000001819
 20
0.0
 30
0.0
 40
3.5
 50
292.68809115091778
 51
67.311908849082329
  0
ARC
  8
DETAIL
  6
CONTINUOUS
 62
     5
 10
1.0500000000001819
 20
473.94999999999987
 30
0.0
 40
3.5
 50
292.68809115091778
 51
357.54371427640172
  0
ARC
  8
DETAIL
  6
CONTINUOUS
 62
     5
 10
1.0500000000001819
 20
-473.94999999999999
 30
0.0
 40
3.5
 50
2.456285723598381
 51
67.311908849082329
  0
ARC
  8
DETAIL
  6
CONTINUOUS
 62
     5
 10
438.70000000000022
 20
-39.219035532400078
 30
0.0
 40
3.0
 50
302.04619631041021
 51
343.27773525818941
  0
ARC
  8
DETAIL
  6
CONTINUOUS
 62
     5
 10
2.4000000000000909
 20
472.59999999999991
 30
0.0
 40
2.3999999999999999
 50
90.0
 51
180.0
  0
ARC
  8
DETAIL
  6
CONTINUOUS
 62
     5
 10
2.4000000000000909
 20
-472.60000000000008
 30
0.0
 40
2.3999999999999999
 50
180.0
 51
270.0
  0
ARC
  8
DETAIL
  6
CONTINUOUS
 62
     5
 10
434.20000000000022
 20
-101.8200881849998
 30
0.0
 40
2.0
 50
123.7529332073143
 51
175.31274443391499
  0
ARC
  8
DETAIL
  6
CONTINUOUS
 62
     5
 10
194.1999999999997
 20
-101.8200881849998
 30
0.0
 40
2.0
 50
0.0
 51
56.247066792685693
  0
ARC
  8
DETAIL
  6
CONTINUOUS
 62
     5
 10
2.4000000000000909
 20
-472.60000000000008
 30
0.0
 40
1.2
 50
180.0
 51
270.0
  0
ARC
  8
DETAIL
  6
CONTINUOUS
 62
     5
 10
2.4000000000000909
 20
472.59999999999991
 30
0.0
 40
1.2
 50
90.0
 51
180.0
  0
ARC
  8
DETAIL
  6
CONTINUOUS
 62
     5
 10
441.19999999860011
 20
48.99998127229992
 30
0.0
 40
1.0000000013999999
 50
270.18289644511611
 51
0.0
  0
ARC
  8
DETAIL
  6
CONTINUOUS
 62
     5
 10
187.20000000140041
 20
48.99998127229992
 30
0.0
 40
1.0000000013999999
 50
180.00000003079711
 51
269.81710355488389
  0
ARC
  8
DETAIL
  6
CONTINUOUS
 62
     5
 10
441.20000000000022
 20
61.0
 30
0.0
 40
1.0
 50
0.0
 51
90.0
  0
ARC
  8
DETAIL
  6
CONTINUOUS
 62
     5
 10
187.1999999999997
 20
61.0
 30
0.0
 40
1.0
 50
90.0
 51
180.0
  0
ARC
  8
DETAIL
  6
CONTINUOUS
 62
     5
 10
185.0
 20
59.0
 30
0.0
 40
0.5
 50
90.0
 51
180.0
  0
ARC
  8
DETAIL
  6
CONTINUOUS
 62
     5
 10
185.0
 20
51.0
 30
0.0
 40
0.5
 50
180.0
 51
270.0
  0
ARC
  8
DETAIL
  6
CONTINUOUS
 62
     5
 10
443.40000000000009
 20
59.0
 30
0.0
 40
0.5
 50
0.0
 51
90.0
  0
ARC
  8
DETAIL
  6
CONTINUOUS
 62
     5
 10
443.40000000000009
 20
51.0
 30
0.0
 40
0.5
 50
270.0
 51
0.0
  0
LINE
  8
OUTLINE
  6
CONTINUOUS
 62
     3
 10
2.4000000000000909
 20
475.0
 30
0.0
 11
35.000000000000448
 21
475.0
 31
0.0
  0
LINE
  8
OUTLINE
  6
CONTINUOUS
 62
     3
 10
94.200000000000287
 20
469.0
 30
0.0
 11
95.400000000000077
 21
469.0
 31
0.0
  0
LINE
  8
OUTLINE
  6
CONTINUOUS
 62
     3
 10
35.000000000000448
 20
418.69999999999987
 30
0.0
 11
45.400000000000098
 21
418.69999999999987
 31
0.0
  0
LINE
  8
OUTLINE
  6
CONTINUOUS
 62
     3
 10
94.200000000000287
 20
390.89987745100012
 30
0.0
 11
211.00000000000051
 21
390.89987745100012
 31
0.0
  0
LINE
  8
OUTLINE
  6
CONTINUOUS
 62
     3
 10
273.26672459880052
 20
405.63823611359982
 30
0.0
 11
270.79126127090012
 21
404.88792053709989
 31
0.0
  0
LINE
  8
OUTLINE
  6
CONTINUOUS
 62
     3
 10
270.79126127090012
 20
404.88792053709989
 30
0.0
 11
268.26145851310002
 21
404.01157310889988
 31
0.0
  0
LINE
  8
OUTLINE
  6
CONTINUOUS
 62
     3
 10
268.26145851310002
 20
404.01157310889988
 30
0.0
 11
265.67718681160028
 21
403.00968466159958
 31
0.0
  0
LINE
  8
OUTLINE
  6
CONTINUOUS
 62
     3
 10
265.67718681160028
 20
403.00968466159958
 30
0.0
 11
263.03809652379999
 21
401.88276160449999
 31
0.0
  0
LINE
  8
OUTLINE
  6
CONTINUOUS
 62
     3
 10
263.03809652379999
 20
401.88276160449999
 30
0.0
 11
260.34388203610018
 21
400.63132255419993
 31
0.0
  0
LINE
  8
OUTLINE
  6
CONTINUOUS
 62
     3
 10
260.34388203610018
 20
400.63132255419993
 30
0.0
 11
257.59424090450011
 21
399.25590057499988
 31
0.0
  0
LINE
  8
OUTLINE
  6
CONTINUOUS
 62
     3
 10
257.59424090450011
 20
399.25590057499988
 30
0.0
 11
254.78891394620001
 21
397.75717527820012
 31
0.0
  0
LINE
  8
OUTLINE
  6
CONTINUOUS
 62
     3
 10
254.78891394620001
 20
397.75717527820012
 30
0.0
 11
251.9274487797002
 21
396.1357835563
 31
0.0
  0
LINE
  8
OUTLINE
  6
CONTINUOUS
 62
     3
 10
251.9274487797002
 20
396.1357835563
 30
0.0
 11
249.00943184260001
 21
394.39237342409967
 31
0.0
  0
LINE
  8
OUTLINE
  6
CONTINUOUS
 62
     3
 10
249.00943184260001
 20
394.39237342409967
 30
0.0
 11
246.03440947080031
 21
392.52758159919989
 31
0.0
  0
LINE
  8
OUTLINE
  6
CONTINUOUS
 62
     3
 10
246.03440947080031
 20
392.52758159919989
 30
0.0
 11
243.0019047032001
 21
390.5421273062002
 31
0.0
  0
LINE
  8
OUTLINE
  6
CONTINUOUS
 62
     3
 10
243.0019047032001
 20
390.5421273062002
 30
0.0
 11
240.2180951980998
 21
388.6456766291999
 31
0.0
  0
LINE
  8
OUTLINE
  6
CONTINUOUS
 62
     3
 10
273.666226714
 20
405.61887373140007
 30
0.0
 11
273.62849930660008
 21
405.65343258450002
 31
0.0
  0
LINE
  8
OUTLINE
  6
CONTINUOUS
 62
     3
 10
273.62849930660008
 20
405.65343258450002
 30
0.0
 11
273.57807751479999
 21
405.67249311959989
 31
0.0
  0
LINE
  8
OUTLINE
  6
CONTINUOUS
 62
     3
 10
273.57807751479999
 20
405.67249311959989
 30
0.0
 11
273.51445627980002
 21
405.67907605360011
 31
0.0
  0
LINE
  8
OUTLINE
  6
CONTINUOUS
 62
     3
 10
273.51445627980002
 20
405.67907605360011
 30
0.0
 11
273.43996860540028
 21
405.67472726599999
 31
0.0
  0
LINE
  8
OUTLINE
  6
CONTINUOUS
 62
     3
 10
273.43996860540028
 20
405.67472726599999
 30
0.0
 11
273.35773042170013
 21
405.66129773119968
 31
0.0
  0
LINE
  8
OUTLINE
  6
CONTINUOUS
 62
     3
 10
273.35773042170013
 20
405.66129773119968
 30
0.0
 11
273.26672459880052
 21
405.63823611359982
 31
0.0
  0
LINE
  8
OUTLINE
  6
CONTINUOUS
 62
     3
 10
274.20311354260002
 20
404.82358849110011
 30
0.0
 11
273.66626350840028
 21
405.61890184520013
 31
0.0
  0
LINE
  8
OUTLINE
  6
CONTINUOUS
 62
     3
 10
274.75157424380041
 20
404.00834419400007
 30
0.0
 11
274.20311354260002
 21
404.82358849110011
 31
0.0
  0
LINE
  8
OUTLINE
  6
CONTINUOUS
 62
     3
 10
267.03949083560019
 20
398.88440743929999
 30
0.0
 11
267.2046704759
 21
399.01348924859991
 31
0.0
  0
LINE
  8
OUTLINE
  6
CONTINUOUS
 62
     3
 10
267.2046704759
 20
399.01348924859991
 30
0.0
 11
267.3821120155003
 21
399.15490554079997
 31
0.0
  0
LINE
  8
OUTLINE
  6
CONTINUOUS
 62
     3
 10
267.3821120155003
 20
399.15490554079997
 30
0.0
 11
267.5716972665
 21
399.30817291029962
 31
0.0
  0
LINE
  8
OUTLINE
  6
CONTINUOUS
 62
     3
 10
267.5716972665
 20
399.30817291029962
 30
0.0
 11
267.77416156700008
 21
399.4744252477999
 31
0.0
  0
LINE
  8
OUTLINE
  6
CONTINUOUS
 62
     3
 10
267.77416156700008
 20
399.4744252477999
 30
0.0
 11
267.99065436090001
 21
399.65485946599978
 31
0.0
  0
LINE
  8
OUTLINE
  6
CONTINUOUS
 62
     3
 10
267.99065436090001
 20
399.65485946599978
 30
0.0
 11
268.2199280857003
 21
399.84870587180012
 31
0.0
  0
LINE
  8
OUTLINE
  6
CONTINUOUS
 62
     3
 10
268.2199280857003
 20
399.84870587180012
 30
0.0
 11
268.46241067760002
 21
400.05666780709998
 31
0.0
  0
LINE
  8
OUTLINE
  6
CONTINUOUS
 62
     3
 10
268.46241067760002
 20
400.05666780709998
 30
0.0
 11
268.71427595990008
 21
400.27547211249998
 31
0.0
  0
LINE
  8
OUTLINE
  6
CONTINUOUS
 62
     3
 10
268.71427595990008
 20
400.27547211249998
 30
0.0
 11
268.9725372605003
 21
400.50283720439973
 31
0.0
  0
LINE
  8
OUTLINE
  6
CONTINUOUS
 62
     3
 10
268.9725372605003
 20
400.50283720439973
 30
0.0
 11
269.23495348670031
 21
400.73660651869972
 31
0.0
  0
LINE
  8
OUTLINE
  6
CONTINUOUS
 62
     3
 10
269.23495348670031
 20
400.73660651869972
 30
0.0
 11
269.4985599826
 21
400.97427194519969
 31
0.0
  0
LINE
  8
OUTLINE
  6
CONTINUOUS
 62
     3
 10
269.4985599826
 20
400.97427194519969
 30
0.0
 11
269.76234746670019
 21
401.21475048619999
 31
0.0
  0
LINE
  8
OUTLINE
  6
CONTINUOUS
 62
     3
 10
269.76234746670019
 20
401.21475048619999
 30
0.0
 11
270.02485099110032
 21
401.45674678050011
 31
0.0
  0
LINE
  8
OUTLINE
  6
CONTINUOUS
 62
     3
 10
270.02485099110032
 20
401.45674678050011
 30
0.0
 11
270.28432839100009
 21
401.69849097799988
 31
0.0
  0
LINE
  8
OUTLINE
  6
CONTINUOUS
 62
     3
 10
270.28432839100009
 20
401.69849097799988
 30
0.0
 11
270.5385908006001
 21
401.93795901670001
 31
0.0
  0
LINE
  8
OUTLINE
  6
CONTINUOUS
 62
     3
 10
270.5385908006001
 20
401.93795901670001
 30
0.0
 11
270.78733832790022
 21
402.17475958370011
 31
0.0
  0
LINE
  8
OUTLINE
  6
CONTINUOUS
 62
     3
 10
270.78733832790022
 20
402.17475958370011
 30
0.0
 11
271.02950370200011
 21
402.40783845200002
 31
0.0
  0
LINE
  8
OUTLINE
  6
CONTINUOUS
 62
     3
 10
271.02950370200011
 20
402.40783845200002
 30
0.0
 11
271.26511366149998
 21
402.63722774169992
 31
0.0
  0
LINE
  8
OUTLINE
  6
CONTINUOUS
 62
     3
 10
271.26511366149998
 20
402.63722774169992
 30
0.0
 11
271.49412371680052
 21
402.86288165129997
 31
0.0
  0
LINE
  8
OUTLINE
  6
CONTINUOUS
 62
     3
 10
271.49412371680052
 20
402.86288165129997
 30
0.0
 11
271.71565388729999
 21
403.08399055319978
 31
0.0
  0
LINE
  8
OUTLINE
  6
CONTINUOUS
 62
     3
 10
271.71565388729999
 20
403.08399055319978
 30
0.0
 11
271.92912215759998
 21
403.3000661627002
 31
0.0
  0
LINE
  8
OUTLINE
  6
CONTINUOUS
 62
     3
 10
271.92912215759998
 20
403.3000661627002
 30
0.0
 11
272.13352992290038
 21
403.51015118590021
 31
0.0
  0
LINE
  8
OUTLINE
  6
CONTINUOUS
 62
     3
 10
272.13352992290038
 20
403.51015118590021
 30
0.0
 11
272.32774409810008
 21
403.71320544619988
 31
0.0
  0
LINE
  8
OUTLINE
  6
CONTINUOUS
 62
     3
 10
272.32774409810008
 20
403.71320544619988
 30
0.0
 11
272.51151126530021
 21
403.90907072899972
 31
0.0
  0
LINE
  8
OUTLINE
  6
CONTINUOUS
 62
     3
 10
272.51151126530021
 20
403.90907072899972
 30
0.0
 11
272.68449442270003
 21
404.09753669919968
 31
0.0
  0
LINE
  8
OUTLINE
  6
CONTINUOUS
 62
     3
 10
272.68449442270003
 20
404.09753669919968
 30
0.0
 11
272.8457857348003
 21
404.27774852829998
 31
0.0
  0
LINE
  8
OUTLINE
  6
CONTINUOUS
 62
     3
 10
272.8457857348003
 20
404.27774852829998
 30
0.0
 11
272.9944672470001
 21
404.44888182629961
 31
0.0
  0
LINE
  8
OUTLINE
  6
CONTINUOUS
 62
     3
 10
272.9944672470001
 20
404.44888182629961
 30
0.0
 11
273.1301902293003
 21
404.61070090629983
 31
0.0
  0
LINE
  8
OUTLINE
  6
CONTINUOUS
 62
     3
 10
273.1301902293003
 20
404.61070090629983
 30
0.0
 11
273.25256269420021
 21
404.7629880098998
 31
0.0
  0
LINE
  8
OUTLINE
  6
CONTINUOUS
 62
     3
 10
273.25256269420021
 20
404.7629880098998
 30
0.0
 11
273.360788555
 21
404.90489134879999
 31
0.0
  0
LINE
  8
OUTLINE
  6
CONTINUOUS
 62
     3
 10
273.360788555
 20
404.90489134879999
 30
0.0
 11
273.45395095560019
 21
405.03546610709958
 31
0.0
  0
LINE
  8
OUTLINE
  6
CONTINUOUS
 62
     3
 10
273.45395095560019
 20
405.03546610709958
 30
0.0
 11
273.53200694910038
 21
405.15483889699999
 31
0.0
  0
LINE
  8
OUTLINE
  6
CONTINUOUS
 62
     3
 10
273.53200694910038
 20
405.15483889699999
 30
0.0
 11
273.59477521980028
 21
405.26294124000009
 31
0.0
  0
LINE
  8
OUTLINE
  6
CONTINUOUS
 62
     3
 10
273.59477521980028
 20
405.26294124000009
 30
0.0
 11
273.6417817585002
 21
405.35940315340002
 31
0.0
  0
LINE
  8
OUTLINE
  6
CONTINUOUS
 62
     3
 10
273.6417817585002
 20
405.35940315340002
 30
0.0
 11
273.67262616040028
 21
405.44402157389999
 31
0.0
  0
LINE
  8
OUTLINE
  6
CONTINUOUS
 62
     3
 10
273.67262616040028
 20
405.44402157389999
 30
0.0
 11
273.6869339089003
 21
405.51622509109978
 31
0.0
  0
LINE
  8
OUTLINE
  6
CONTINUOUS
 62
     3
 10
273.6869339089003
 20
405.51622509109978
 30
0.0
 11
273.68392057049999
 21
405.57547803940002
 31
0.0
  0
LINE
  8
OUTLINE
  6
CONTINUOUS
 62
     3
 10
273.68392057049999
 20
405.57547803940002
 30
0.0
 11
273.666226714
 21
405.61887373140007
 31
0.0
  0
LINE
  8
OUTLINE
  6
CONTINUOUS
 62
     3
 10
438.61469565080012
 20
43.500001274499937
 30
0.0
 11
438.5644944407004
 21
43.5905238739997
 31
0.0
  0
LINE
  8
OUTLINE
  6
CONTINUOUS
 62
     3
 10
438.5644944407004
 20
43.5905238739997
 30
0.0
 11
438.46311005340021
 21
43.800268202599909
 31
0.0
  0
LINE
  8
OUTLINE
  6
CONTINUOUS
 62
     3
 10
438.46311005340021
 20
43.800268202599909
 30
0.0
 11
438.37827995949999
 21
44.017323877599672
 31
0.0
  0
LINE
  8
OUTLINE
  6
CONTINUOUS
 62
     3
 10
438.37827995949999
 20
44.017323877599672
 30
0.0
 11
438.31053836640012
 21
44.240369970700158
 31
0.0
  0
LINE
  8
OUTLINE
  6
CONTINUOUS
 62
     3
 10
438.31053836640012
 20
44.240369970700158
 30
0.0
 11
438.26031048919998
 21
44.468051398199798
 31
0.0
  0
LINE
  8
OUTLINE
  6
CONTINUOUS
 62
     3
 10
438.26031048919998
 20
44.468051398199798
 30
0.0
 11
438.22791213149998
 21
44.6989844044001
 31
0.0
  0
LINE
  8
OUTLINE
  6
CONTINUOUS
 62
     3
 10
438.22791213149998
 20
44.6989844044001
 30
0.0
 11
438.21354823050018
 21
44.931763367099848
 31
0.0
  0
LINE
  8
OUTLINE
  6
CONTINUOUS
 62
     3
 10
438.21354823050018
 20
44.931763367099848
 30
0.0
 11
438.2173112759001
 21
45.164970418200028
 31
0.0
  0
LINE
  8
OUTLINE
  6
CONTINUOUS
 62
     3
 10
438.2173112759001
 20
45.164970418200028
 30
0.0
 11
438.23918030160041
 21
45.397181851099958
 31
0.0
  0
LINE
  8
OUTLINE
  6
CONTINUOUS
 62
     3
 10
438.23918030160041
 20
45.397181851099958
 30
0.0
 11
438.27902277130028
 21
45.626990733499959
 31
0.0
  0
LINE
  8
OUTLINE
  6
CONTINUOUS
 62
     3
 10
438.27902277130028
 20
45.626990733499959
 30
0.0
 11
438.33659451280022
 21
45.852998213500101
 31
0.0
  0
LINE
  8
OUTLINE
  6
CONTINUOUS
 62
     3
 10
438.33659451280022
 20
45.852998213500101
 30
0.0
 11
438.41154719800028
 21
46.073845203599817
 31
0.0
  0
LINE
  8
OUTLINE
  6
CONTINUOUS
 62
     3
 10
438.41154719800028
 20
46.073845203599817
 30
0.0
 11
438.50342762980023
 21
46.288199536699707
 31
0.0
  0
LINE
  8
OUTLINE
  6
CONTINUOUS
 62
     3
 10
438.50342762980023
 20
46.288199536699707
 30
0.0
 11
438.61168109729988
 21
46.494768253200156
 31
0.0
  0
LINE
  8
OUTLINE
  6
CONTINUOUS
 62
     3
 10
438.61168109729988
 20
46.494768253200156
 30
0.0
 11
438.73565536110033
 21
46.692306178099898
 31
0.0
  0
LINE
  8
OUTLINE
  6
CONTINUOUS
 62
     3
 10
438.73565536110033
 20
46.692306178099898
 30
0.0
 11
438.87460086830009
 21
46.879617986599897
 31
0.0
  0
LINE
  8
OUTLINE
  6
CONTINUOUS
 62
     3
 10
438.87460086830009
 20
46.879617986599897
 30
0.0
 11
439.02767828740019
 21
47.055571543799942
 31
0.0
  0
LINE
  8
OUTLINE
  6
CONTINUOUS
 62
     3
 10
439.02767828740019
 20
47.055571543799942
 30
0.0
 11
439.19396198489989
 21
47.219102476399698
 31
0.0
  0
LINE
  8
OUTLINE
  6
CONTINUOUS
 62
     3
 10
439.19396198489989
 20
47.219102476399698
 30
0.0
 11
439.3724462764003
 21
47.369221715000087
 31
0.0
  0
LINE
  8
OUTLINE
  6
CONTINUOUS
 62
     3
 10
439.3724462764003
 20
47.369221715000087
 30
0.0
 11
439.5620524725
 21
47.505022114999967
 31
0.0
  0
LINE
  8
OUTLINE
  6
CONTINUOUS
 62
     3
 10
439.5620524725
 20
47.505022114999967
 30
0.0
 11
439.76163428479998
 21
47.625682832199793
 31
0.0
  0
LINE
  8
OUTLINE
  6
CONTINUOUS
 62
     3
 10
439.76163428479998
 20
47.625682832199793
 30
0.0
 11
439.96998575140009
 21
47.730474934200167
 31
0.0
  0
LINE
  8
OUTLINE
  6
CONTINUOUS
 62
     3
 10
439.96998575140009
 20
47.730474934200167
 30
0.0
 11
440.18584779889989
 21
47.818765241299843
 31
0.0
  0
LINE
  8
OUTLINE
  6
CONTINUOUS
 62
     3
 10
440.18584779889989
 20
47.818765241299843
 30
0.0
 11
440.40791600030019
 21
47.89002026470007
 31
0.0
  0
LINE
  8
OUTLINE
  6
CONTINUOUS
 62
     3
 10
440.40791600030019
 20
47.89002026470007
 30
0.0
 11
440.63484843900011
 21
47.943809420200068
 31
0.0
  0
LINE
  8
OUTLINE
  6
CONTINUOUS
 62
     3
 10
440.63484843900011
 20
47.943809420200068
 30
0.0
 11
440.86527381090042
 21
47.979807628699753
 31
0.0
  0
LINE
  8
OUTLINE
  6
CONTINUOUS
 62
     3
 10
440.86527381090042
 20
47.979807628699753
 30
0.0
 11
441.09779978650022
 21
47.997797283099779
 31
0.0
  0
LINE
  8
OUTLINE
  6
CONTINUOUS
 62
     3
 10
441.09779978650022
 20
47.997797283099779
 30
0.0
 11
441.20319214300031
 21
47.999985781799737
 31
0.0
  0
LINE
  8
OUTLINE
  6
CONTINUOUS
 62
     3
 10
274.75152748510038
 20
404.00830845229967
 30
0.0
 11
274.7689842087002
 21
403.96530968569999
 31
0.0
  0
LINE
  8
OUTLINE
  6
CONTINUOUS
 62
     3
 10
274.7689842087002
 20
403.96530968569999
 30
0.0
 11
274.77197039740031
 21
403.90568577929992
 31
0.0
  0
LINE
  8
OUTLINE
  6
CONTINUOUS
 62
     3
 10
274.77197039740031
 20
403.90568577929992
 30
0.0
 11
274.75740808609999
 21
403.83294217859981
 31
0.0
  0
LINE
  8
OUTLINE
  6
CONTINUOUS
 62
     3
 10
274.75740808609999
 20
403.83294217859981
 30
0.0
 11
274.72612861970038
 21
403.74764630359999
 31
0.0
  0
LINE
  8
OUTLINE
  6
CONTINUOUS
 62
     3
 10
274.72612861970038
 20
403.74764630359999
 30
0.0
 11
274.67853945100012
 21
403.65041029219992
 31
0.0
  0
LINE
  8
OUTLINE
  6
CONTINUOUS
 62
     3
 10
274.67853945100012
 20
403.65041029219992
 30
0.0
 11
274.61504666000008
 21
403.54141928609988
 31
0.0
  0
LINE
  8
OUTLINE
  6
CONTINUOUS
 62
     3
 10
274.61504666000008
 20
403.54141928609988
 30
0.0
 11
274.53613609920012
 21
403.42103381490011
 31
0.0
  0
LINE
  8
OUTLINE
  6
CONTINUOUS
 62
     3
 10
274.53613609920012
 20
403.42103381490011
 30
0.0
 11
274.44200484540028
 21
403.28933667810003
 31
0.0
  0
LINE
  8
OUTLINE
  6
CONTINUOUS
 62
     3
 10
274.44200484540028
 20
403.28933667810003
 30
0.0
 11
274.33270896680011
 21
403.1462084425998
 31
0.0
  0
LINE
  8
OUTLINE
  6
CONTINUOUS
 62
     3
 10
274.33270896680011
 20
403.1462084425998
 30
0.0
 11
274.20918609050028
 21
402.99260715010001
 31
0.0
  0
LINE
  8
OUTLINE
  6
CONTINUOUS
 62
     3
 10
274.20918609050028
 20
402.99260715010001
 30
0.0
 11
274.07225039230008
 21
402.82939719279972
 31
0.0
  0
LINE
  8
OUTLINE
  6
CONTINUOUS
 62
     3
 10
274.07225039230008
 20
402.82939719279972
 30
0.0
 11
273.92231327920041
 21
402.65680880109988
 31
0.0
  0
LINE
  8
OUTLINE
  6
CONTINUOUS
 62
     3
 10
273.92231327920041
 20
402.65680880109988
 30
0.0
 11
273.7597465445001
 21
402.47509543409973
 31
0.0
  0
LINE
  8
OUTLINE
  6
CONTINUOUS
 62
     3
 10
273.7597465445001
 20
402.47509543409973
 30
0.0
 11
273.5854737615
 21
402.28508068050002
 31
0.0
  0
LINE
  8
OUTLINE
  6
CONTINUOUS
 62
     3
 10
273.5854737615
 20
402.28508068050002
 30
0.0
 11
273.40041305670002
 21
402.08762420720001
 31
0.0
  0
LINE
  8
OUTLINE
  6
CONTINUOUS
 62
     3
 10
273.40041305670002
 20
402.08762420720001
 30
0.0
 11
273.20490786330038
 21
401.88293925379998
 31
0.0
  0
LINE
  8
OUTLINE
  6
CONTINUOUS
 62
     3
 10
273.20490786330038
 20
401.88293925379998
 30
0.0
 11
272.99922211090012
 21
401.67119024779998
 31
0.0
  0
LINE
  8
OUTLINE
  6
CONTINUOUS
 62
     3
 10
272.99922211090012
 20
401.67119024779998
 30
0.0
 11
272.78448533950001
 21
401.45341346829991
 31
0.0
  0
LINE
  8
OUTLINE
  6
CONTINUOUS
 62
     3
 10
272.78448533950001
 20
401.45341346829991
 30
0.0
 11
272.56174337020002
 21
401.23060953930008
 31
0.0
  0
LINE
  8
OUTLINE
  6
CONTINUOUS
 62
     3
 10
272.56174337020002
 20
401.23060953930008
 30
0.0
 11
272.33143305060003
 21
401.00313260419989
 31
0.0
  0
LINE
  8
OUTLINE
  6
CONTINUOUS
 62
     3
 10
272.33143305060003
 20
401.00313260419989
 30
0.0
 11
272.09411257030013
 21
400.77148633209981
 31
0.0
  0
LINE
  8
OUTLINE
  6
CONTINUOUS
 62
     3
 10
272.09411257030013
 20
400.77148633209981
 30
0.0
 11
271.85041028210031
 21
400.53626515420001
 31
0.0
  0
LINE
  8
OUTLINE
  6
CONTINUOUS
 62
     3
 10
271.85041028210031
 20
400.53626515420001
 30
0.0
 11
271.60090289969997
 21
400.29803092690003
 31
0.0
  0
LINE
  8
OUTLINE
  6
CONTINUOUS
 62
     3
 10
271.60090289969997
 20
400.29803092690003
 30
0.0
 11
271.34623928020028
 21
400.05743260530022
 31
0.0
  0
LINE
  8
OUTLINE
  6
CONTINUOUS
 62
     3
 10
271.34623928020028
 20
400.05743260530022
 30
0.0
 11
271.08657826050012
 21
399.81470565069998
 31
0.0
  0
LINE
  8
OUTLINE
  6
CONTINUOUS
 62
     3
 10
271.08657826050012
 20
399.81470565069998
 30
0.0
 11
270.82389330460052
 21
399.57170218660002
 31
0.0
  0
LINE
  8
OUTLINE
  6
CONTINUOUS
 62
     3
 10
270.82389330460052
 20
399.57170218660002
 30
0.0
 11
270.55945994990037
 21
399.32977425589968
 31
0.0
  0
LINE
  8
OUTLINE
  6
CONTINUOUS
 62
     3
 10
270.55945994990037
 20
399.32977425589968
 30
0.0
 11
270.29536717590008
 21
399.0907827538
 31
0.0
  0
LINE
  8
OUTLINE
  6
CONTINUOUS
 62
     3
 10
270.29536717590008
 20
399.0907827538
 30
0.0
 11
270.03345113559999
 21
398.85656524019998
 31
0.0
  0
LINE
  8
OUTLINE
  6
CONTINUOUS
 62
     3
 10
270.03345113559999
 20
398.85656524019998
 30
0.0
 11
269.77556197150028
 21
398.62867584449998
 31
0.0
  0
LINE
  8
OUTLINE
  6
CONTINUOUS
 62
     3
 10
269.77556197150028
 20
398.62867584449998
 30
0.0
 11
269.52310428710013
 21
398.40851605460011
 31
0.0
  0
LINE
  8
OUTLINE
  6
CONTINUOUS
 62
     3
 10
269.52310428710013
 20
398.40851605460011
 30
0.0
 11
269.27910340080012
 21
398.19847800970001
 31
0.0
  0
LINE
  8
OUTLINE
  6
CONTINUOUS
 62
     3
 10
269.27910340080012
 20
398.19847800970001
 30
0.0
 11
269.04639843440009
 21
398.00108433920008
 31
0.0
  0
LINE
  8
OUTLINE
  6
CONTINUOUS
 62
     3
 10
269.04639843440009
 20
398.00108433920008
 30
0.0
 11
268.82679884049998
 21
397.81745653649978
 31
0.0
  0
LINE
  8
OUTLINE
  6
CONTINUOUS
 62
     3
 10
268.82679884049998
 20
397.81745653649978
 30
0.0
 11
268.62393212970028
 21
397.65040232730001
 31
0.0
  0
LINE
  8
OUTLINE
  6
CONTINUOUS
 62
     3
 10
268.62393212970028
 20
397.65040232730001
 30
0.0
 11
268.43514517170019
 21
397.49741574870001
 31
0.0
  0
LINE
  8
OUTLINE
  6
CONTINUOUS
 62
     3
 10
268.43514517170019
 20
397.49741574870001
 30
0.0
 11
268.25892472340001
 21
397.35663860049999
 31
0.0
  0
LINE
  8
OUTLINE
  6
CONTINUOUS
 62
     3
 10
268.25892472340001
 20
397.35663860049999
 30
0.0
 11
268.09563861920009
 21
397.22880078290018
 31
0.0
  0
LINE
  8
OUTLINE
  6
CONTINUOUS
 62
     3
 10
0.0
 20
-472.60000000000008
 30
0.0
 11
0.0
 21
-3.2291639784998551
 31
0.0
  0
LINE
  8
OUTLINE
  6
CONTINUOUS
 62
     3
 10
0.0
 20
3.2291639784998551
 30
0.0
 11
0.0000000000004547
 21
472.59999999999991
 31
0.0
  0
LINE
  8
OUTLINE
  6
CONTINUOUS
 62
     3
 10
253.64716877550021
 20
386.35192365829971
 30
0.0
 11
255.5912518522
 21
388.49277500670001
 31
0.0
  0
LINE
  8
OUTLINE
  6
CONTINUOUS
 62
     3
 10
255.5912518522
 20
388.49277500670001
 30
0.0
 11
257.64707705640012
 21
390.61669300599988
 31
0.0
  0
LINE
  8
OUTLINE
  6
CONTINUOUS
 62
     3
 10
257.64707705640012
 20
390.61669300599988
 30
0.0
 11
259.81834425200032
 21
392.72201199079967
 31
0.0
  0
LINE
  8
OUTLINE
  6
CONTINUOUS
 62
     3
 10
259.81834425200032
 20
392.72201199079967
 30
0.0
 11
262.1063696547003
 21
394.80428592079988
 31
0.0
  0
LINE
  8
OUTLINE
  6
CONTINUOUS
 62
     3
 10
262.1063696547003
 20
394.80428592079988
 30
0.0
 11
264.51334404170029
 21
396.85957345679992
 31
0.0
  0
LINE
  8
OUTLINE
  6
CONTINUOUS
 62
     3
 10
264.51334404170029
 20
396.85957345679992
 30
0.0
 11
267.03949083560019
 21
398.88440743929999
 31
0.0
  0
LINE
  8
OUTLINE
  6
CONTINUOUS
 62
     3
 10
255.7668516386002
 20
385.8190023246998
 30
0.0
 11
256.56535193780007
 21
386.69256563179988
 31
0.0
  0
LINE
  8
OUTLINE
  6
CONTINUOUS
 62
     3
 10
256.56535193780007
 20
386.69256563179988
 30
0.0
 11
257.42801911110018
 21
387.6108897836998
 31
0.0
  0
LINE
  8
OUTLINE
  6
CONTINUOUS
 62
     3
 10
257.42801911110018
 20
387.6108897836998
 30
0.0
 11
258.35205756200003
 21
388.56682227980002
 31
0.0
  0
LINE
  8
OUTLINE
  6
CONTINUOUS
 62
     3
 10
258.35205756200003
 20
388.56682227980002
 30
0.0
 11
259.3367165259001
 21
389.55566249240019
 31
0.0
  0
LINE
  8
OUTLINE
  6
CONTINUOUS
 62
     3
 10
259.3367165259001
 20
389.55566249240019
 30
0.0
 11
260.38181468680023
 21
390.57345639229959
 31
0.0
  0
LINE
  8
OUTLINE
  6
CONTINUOUS
 62
     3
 10
260.38181468680023
 20
390.57345639229959
 30
0.0
 11
261.48409117160008
 21
391.61356260550019
 31
0.0
  0
LINE
  8
OUTLINE
  6
CONTINUOUS
 62
     3
 10
261.48409117160008
 20
391.61356260550019
 30
0.0
 11
262.65123113359999
 21
392.67957239219999
 31
0.0
  0
LINE
  8
OUTLINE
  6
CONTINUOUS
 62
     3
 10
262.65123113359999
 20
392.67957239219999
 30
0.0
 11
263.88714197070021
 21
393.77120366729997
 31
0.0
  0
LINE
  8
OUTLINE
  6
CONTINUOUS
 62
     3
 10
263.88714197070021
 20
393.77120366729997
 30
0.0
 11
265.20095531480001
 21
394.89197823860007
 31
0.0
  0
LINE
  8
OUTLINE
  6
CONTINUOUS
 62
     3
 10
265.20095531480001
 20
394.89197823860007
 30
0.0
 11
266.60402840460029
 21
396.04621461779971
 31
0.0
  0
LINE
  8
OUTLINE
  6
CONTINUOUS
 62
     3
 10
266.60402840460029
 20
396.04621461779971
 30
0.0
 11
268.09563861920009
 21
397.22880078290018
 31
0.0
  0
LINE
  8
OUTLINE
  6
CONTINUOUS
 62
     3
 10
35.0
 20
-475.0
 30
0.0
 11
35.000000000000448
 21
-418.69999999999987
 31
0.0
  0
LINE
  8
OUTLINE
  6
CONTINUOUS
 62
     3
 10
336.70000000000027
 20
144.5
 30
0.0
 11
403.20000000000022
 21
144.5
 31
0.0
  0
LINE
  8
OUTLINE
  6
CONTINUOUS
 62
     3
 10
403.20000000000022
 20
101.0
 30
0.0
 11
430.31071040939997
 21
101.0
 31
0.0
  0
LINE
  8
OUTLINE
  6
CONTINUOUS
 62
     3
 10
94.200000000000287
 20
469.0
 30
0.0
 11
94.200000000000287
 21
390.89987745100012
 31
0.0
  0
LINE
  8
OUTLINE
  6
CONTINUOUS
 62
     3
 10
94.19999999999979
 20
-467.5
 30
0.0
 11
94.19999999999979
 21
-469.0
 31
0.0
  0
LINE
  8
OUTLINE
  6
CONTINUOUS
 62
     3
 10
95.400000000000077
 20
469.0
 30
0.0
 11
95.400000000000077
 21
390.89987745100012
 31
0.0
  0
LINE
  8
OUTLINE
  6
CONTINUOUS
 62
     3
 10
95.400000000000077
 20
-390.89987745110011
 30
0.0
 11
95.400000000000077
 21
-469.0
 31
0.0
  0
LINE
  8
OUTLINE
  6
CONTINUOUS
 62
     3
 10
439.94633045130013
 20
62.0
 30
0.0
 11
441.20000000000022
 21
62.0
 31
0.0
  0
LINE
  8
OUTLINE
  6
CONTINUOUS
 62
     3
 10
442.20000000000022
 20
59.5
 30
0.0
 11
443.40000000000009
 21
59.5
 31
0.0
  0
LINE
  8
OUTLINE
  6
CONTINUOUS
 62
     3
 10
442.20000000000022
 20
50.5
 30
0.0
 11
443.40000000000009
 21
50.5
 31
0.0
  0
LINE
  8
OUTLINE
  6
CONTINUOUS
 62
     3
 10
442.94482283360003
 20
41.0
 30
0.0
 11
445.20000000000022
 21
41.0
 31
0.0
  0
LINE
  8
OUTLINE
  6
CONTINUOUS
 62
     3
 10
439.94633045130013
 20
61.99999701589968
 30
0.0
 11
439.82971587690002
 21
62.002264368799842
 31
0.0
  0
LINE
  8
OUTLINE
  6
CONTINUOUS
 62
     3
 10
439.82971587690002
 20
62.002264368799842
 30
0.0
 11
439.59556419340021
 21
62.020573770899773
 31
0.0
  0
LINE
  8
OUTLINE
  6
CONTINUOUS
 62
     3
 10
439.59556419340021
 20
62.020573770899773
 30
0.0
 11
439.3635619464003
 21
62.057144585100097
 31
0.0
  0
LINE
  8
OUTLINE
  6
CONTINUOUS
 62
     3
 10
439.3635619464003
 20
62.057144585100097
 30
0.0
 11
439.13513125729997
 21
62.111752737499963
 31
0.0
  0
LINE
  8
OUTLINE
  6
CONTINUOUS
 62
     3
 10
439.13513125729997
 20
62.111752737499963
 30
0.0
 11
438.91167231960031
 21
62.184063573499778
 31
0.0
  0
LINE
  8
OUTLINE
  6
CONTINUOUS
 62
     3
 10
438.91167231960031
 20
62.184063573499778
 30
0.0
 11
438.69455485480012
 21
62.273633907600008
 31
0.0
  0
LINE
  8
OUTLINE
  6
CONTINUOUS
 62
     3
 10
438.69455485480012
 20
62.273633907600008
 30
0.0
 11
438.48510971180031
 21
62.379914740799897
 31
0.0
  0
LINE
  8
OUTLINE
  6
CONTINUOUS
 62
     3
 10
438.48510971180031
 20
62.379914740799897
 30
0.0
 11
438.28462070540041
 21
62.502254626700051
 31
0.0
  0
LINE
  8
OUTLINE
  6
CONTINUOUS
 62
     3
 10
438.28462070540041
 20
62.502254626700051
 30
0.0
 11
438.09431674369989
 21
62.639903666499777
 31
0.0
  0
LINE
  8
OUTLINE
  6
CONTINUOUS
 62
     3
 10
438.09431674369989
 20
62.639903666499777
 30
0.0
 11
437.91536429130019
 21
62.792018108299999
 31
0.0
  0
LINE
  8
OUTLINE
  6
CONTINUOUS
 62
     3
 10
437.91536429130019
 20
62.792018108299999
 30
0.0
 11
437.74886021690003
 21
62.957665520999853
 31
0.0
  0
LINE
  8
OUTLINE
  6
CONTINUOUS
 62
     3
 10
437.74886021690003
 20
62.957665520999853
 30
0.0
 11
437.59582506779998
 21
63.135830513399917
 31
0.0
  0
LINE
  8
OUTLINE
  6
CONTINUOUS
 62
     3
 10
437.59582506779998
 20
63.135830513399917
 30
0.0
 11
437.4571968094001
 21
63.325420964200021
 31
0.0
  0
LINE
  8
OUTLINE
  6
CONTINUOUS
 62
     3
 10
437.4571968094001
 20
63.325420964200021
 30
0.0
 11
437.33382508500023
 21
63.525274704899857
 31
0.0
  0
LINE
  8
OUTLINE
  6
CONTINUOUS
 62
     3
 10
437.33382508500023
 20
63.525274704899857
 30
0.0
 11
437.22646599950002
 21
63.734166649499898
 31
0.0
  0
LINE
  8
OUTLINE
  6
CONTINUOUS
 62
     3
 10
437.22646599950002
 20
63.734166649499898
 30
0.0
 11
437.13577745850017
 21
63.950816365199898
 31
0.0
  0
LINE
  8
OUTLINE
  6
CONTINUOUS
 62
     3
 10
437.13577745850017
 20
63.950816365199898
 30
0.0
 11
437.06231516700018
 21
64.173895890599852
 31
0.0
  0
LINE
  8
OUTLINE
  6
CONTINUOUS
 62
     3
 10
437.06231516700018
 20
64.173895890599852
 30
0.0
 11
437.00652924730002
 21
64.402037784499953
 31
0.0
  0
LINE
  8
OUTLINE
  6
CONTINUOUS
 62
     3
 10
437.00652924730002
 20
64.402037784499953
 30
0.0
 11
436.96876143870031
 21
64.633843557799992
 31
0.0
  0
LINE
  8
OUTLINE
  6
CONTINUOUS
 62
     3
 10
436.96876143870031
 20
64.633843557799992
 30
0.0
 11
436.95044442080012
 21
64.842987905899932
 31
0.0
  0
LINE
  8
OUTLINE
  6
CONTINUOUS
 62
     3
 10
445.19999993689999
 20
-39.88698796000017
 30
0.0
 11
445.39441931120018
 21
-39.88349122930002
 31
0.0
  0
LINE
  8
OUTLINE
  6
CONTINUOUS
 62
     3
 10
445.39441931120018
 20
-39.88349122930002
 30
0.0
 11
445.72863203150018
 21
-39.861139904100128
 31
0.0
  0
LINE
  8
OUTLINE
  6
CONTINUOUS
 62
     3
 10
445.72863203150018
 20
-39.861139904100128
 30
0.0
 11
446.06204612960022
 21
-39.817917279599897
 31
0.0
  0
LINE
  8
OUTLINE
  6
CONTINUOUS
 62
     3
 10
446.06204612960022
 20
-39.817917279599897
 30
0.0
 11
446.39264548170007
 21
-39.753822213000149
 31
0.0
  0
LINE
  8
OUTLINE
  6
CONTINUOUS
 62
     3
 10
446.39264548170007
 20
-39.753822213000149
 30
0.0
 11
446.71876377950002
 21
-39.66892719840007
 31
0.0
  0
LINE
  8
OUTLINE
  6
CONTINUOUS
 62
     3
 10
446.71876377950002
 20
-39.66892719840007
 30
0.0
 11
447.03867476400001
 21
-39.563482561599812
 31
0.0
  0
LINE
  8
OUTLINE
  6
CONTINUOUS
 62
     3
 10
447.03867476400001
 20
-39.563482561599812
 30
0.0
 11
447.35066825640018
 21
-39.437845635599842
 31
0.0
  0
LINE
  8
OUTLINE
  6
CONTINUOUS
 62
     3
 10
447.35066825640018
 20
-39.437845635599842
 30
0.0
 11
447.65310442660029
 21
-39.292517743299868
 31
0.0
  0
LINE
  8
OUTLINE
  6
CONTINUOUS
 62
     3
 10
442.94482283360003
 20
-39.886987960100207
 30
0.0
 11
445.19999993660042
 21
-39.886987960100207
 31
0.0
  0
LINE
  8
OUTLINE
  6
CONTINUOUS
 62
     3
 10
445.39446347570038
 20
-39.883489631200057
 30
0.0
 11
445.72870814160018
 21
-39.861132429999998
 31
0.0
  0
LINE
  8
OUTLINE
  6
CONTINUOUS
 62
     3
 10
445.72870814160018
 20
-39.861132429999998
 30
0.0
 11
446.06213994970039
 21
-39.817902219399897
 31
0.0
  0
LINE
  8
OUTLINE
  6
CONTINUOUS
 62
     3
 10
446.06213994970039
 20
-39.817902219399897
 30
0.0
 11
446.39274592940001
 21
-39.75379938839977
 31
0.0
  0
LINE
  8
OUTLINE
  6
CONTINUOUS
 62
     3
 10
446.39274592940001
 20
-39.75379938839977
 30
0.0
 11
446.71886275309998
 21
-39.668898112499853
 31
0.0
  0
LINE
  8
OUTLINE
  6
CONTINUOUS
 62
     3
 10
446.71886275309998
 20
-39.668898112499853
 30
0.0
 11
447.03876496220022
 21
-39.563449545500127
 31
0.0
  0
LINE
  8
OUTLINE
  6
CONTINUOUS
 62
     3
 10
447.03876496220022
 20
-39.563449545500127
 30
0.0
 11
447.35074539969992
 21
-39.437811716600223
 31
0.0
  0
LINE
  8
OUTLINE
  6
CONTINUOUS
 62
     3
 10
447.35074539969992
 20
-39.437811716600223
 30
0.0
 11
447.65316430930022
 21
-39.292486460999953
 31
0.0
  0
LINE
  8
OUTLINE
  6
CONTINUOUS
 62
     3
 10
447.65316430930022
 20
-39.292486460999953
 30
0.0
 11
447.94438786109998
 21
-39.128137869799957
 31
0.0
  0
LINE
  8
OUTLINE
  6
CONTINUOUS
 62
     3
 10
441.82734103610022
 20
-39.991484678299898
 30
0.0
 11
441.95974136460018
 21
-39.961826417400061
 31
0.0
  0
LINE
  8
OUTLINE
  6
CONTINUOUS
 62
     3
 10
441.95931950090022
 20
-39.961920692700012
 30
0.0
 11
442.05425624990028
 21
-39.946693830300319
 31
0.0
  0
LINE
  8
OUTLINE
  6
CONTINUOUS
 62
     3
 10
442.05393723399987
 20
-39.946731057600118
 30
0.0
 11
442.05519597660032
 21
-39.946561126000233
 31
0.0
  0
LINE
  8
OUTLINE
  6
CONTINUOUS
 62
     3
 10
442.05495437190018
 20
-39.946593705400119
 30
0.0
 11
442.05404978210032
 21
-39.94671585549986
 31
0.0
  0
LINE
  8
OUTLINE
  6
CONTINUOUS
 62
     3
 10
442.05562786830018
 20
-39.946502969400171
 30
0.0
 11
442.27987944760031
 21
-39.920169522800293
 31
0.0
  0
LINE
  8
OUTLINE
  6
CONTINUOUS
 62
     3
 10
442.27987944760031
 20
-39.920169522800293
 30
0.0
 11
442.54478879819999
 21
-39.898969823700092
 31
0.0
  0
LINE
  8
OUTLINE
  6
CONTINUOUS
 62
     3
 10
442.54478879819999
 20
-39.898969823700092
 30
0.0
 11
442.80601206190022
 21
-39.888430715900093
 31
0.0
  0
LINE
  8
OUTLINE
  6
CONTINUOUS
 62
     3
 10
442.80601206190022
 20
-39.888430715900093
 30
0.0
 11
442.94482283360003
 21
-39.886987960100207
 31
0.0
  0
LINE
  8
OUTLINE
  6
CONTINUOUS
 62
     3
 10
442.05539453630041
 20
-39.946534419700129
 30
0.0
 11
442.27987599980003
 21
-39.920169861100007
 31
0.0
  0
LINE
  8
OUTLINE
  6
CONTINUOUS
 62
     3
 10
426.19999997180003
 20
-108.2762860254002
 30
0.0
 11
425.51958329220002
 21
-108.2616803446999
 31
0.0
  0
LINE
  8
OUTLINE
  6
CONTINUOUS
 62
     3
 10
425.51958329220002
 20
-108.2616803446999
 30
0.0
 11
424.86256686370001
 21
-108.21872771769991
 31
0.0
  0
LINE
  8
OUTLINE
  6
CONTINUOUS
 62
     3
 10
424.86256686370001
 20
-108.21872771769991
 30
0.0
 11
424.23681816390041
 21
-108.1480655201003
 31
0.0
  0
LINE
  8
OUTLINE
  6
CONTINUOUS
 62
     3
 10
424.23681816390041
 20
-108.1480655201003
 30
0.0
 11
423.676729497
 21
-108.0545882127999
 31
0.0
  0
LINE
  8
OUTLINE
  6
CONTINUOUS
 62
     3
 10
423.676729497
 20
-108.0545882127999
 30
0.0
 11
423.52144712870722
 21
-108.0189538669806
 31
0.0
  0
LINE
  8
OUTLINE
  6
CONTINUOUS
 62
     3
 10
353.20585089700262
 20
-276.65482954934492
 30
0.0
 11
337.1302863592
 21
-169.4406696671999
 31
0.0
  0
LINE
  8
OUTLINE
  6
CONTINUOUS
 62
     3
 10
337.1302863592
 20
-169.4406696671999
 30
0.0
 11
336.9998362864003
 21
-168.50338284079999
 31
0.0
  0
LINE
  8
OUTLINE
  6
CONTINUOUS
 62
     3
 10
336.9998362864003
 20
-168.50338284079999
 30
0.0
 11
336.89250962830022
 21
-167.5619596240999
 31
0.0
  0
LINE
  8
OUTLINE
  6
CONTINUOUS
 62
     3
 10
336.89250962830022
 20
-167.5619596240999
 30
0.0
 11
336.80854579150002
 21
-166.61599284170009
 31
0.0
  0
LINE
  8
OUTLINE
  6
CONTINUOUS
 62
     3
 10
336.80854579150002
 20
-166.61599284170009
 30
0.0
 11
336.74832868980002
 21
-165.66690391759991
 31
0.0
  0
LINE
  8
OUTLINE
  6
CONTINUOUS
 62
     3
 10
336.74832868980002
 20
-165.66690391759991
 30
0.0
 11
336.71210809280001
 21
-164.7161060886001
 31
0.0
  0
LINE
  8
OUTLINE
  6
CONTINUOUS
 62
     3
 10
336.71210809280001
 20
-164.7161060886001
 30
0.0
 11
336.70000000000027
 21
-163.7631749757002
 31
0.0
  0
LINE
  8
OUTLINE
  6
CONTINUOUS
 62
     3
 10
337.1302863592
 20
169.4406696671999
 30
0.0
 11
336.9998362864003
 21
168.50338284069991
 31
0.0
  0
LINE
  8
OUTLINE
  6
CONTINUOUS
 62
     3
 10
336.9998362864003
 20
168.50338284069991
 30
0.0
 11
336.89250962830022
 21
167.5619596240999
 31
0.0
  0
LINE
  8
OUTLINE
  6
CONTINUOUS
 62
     3
 10
336.89250962830022
 20
167.5619596240999
 30
0.0
 11
336.80854579150002
 21
166.61599284159999
 31
0.0
  0
LINE
  8
OUTLINE
  6
CONTINUOUS
 62
     3
 10
336.80854579150002
 20
166.61599284159999
 30
0.0
 11
336.74832868980002
 21
165.66690391759991
 31
0.0
  0
LINE
  8
OUTLINE
  6
CONTINUOUS
 62
     3
 10
336.74832868980002
 20
165.66690391759991
 30
0.0
 11
336.71210809280001
 21
164.71610608850011
 31
0.0
  0
LINE
  8
OUTLINE
  6
CONTINUOUS
 62
     3
 10
336.71210809280001
 20
164.71610608850011
 30
0.0
 11
336.70000000000027
 21
163.7631749757002
 31
0.0
  0
LINE
  8
OUTLINE
  6
CONTINUOUS
 62
     3
 10
352.56032854790021
 20
271.11788884149968
 30
0.0
 11
337.1302863592
 21
169.4406696671999
 31
0.0
  0
LINE
  8
OUTLINE
  6
CONTINUOUS
 62
     3
 10
441.71014502370002
 20
-40.026847795000322
 30
0.0
 11
441.82824804800021
 21
-39.991211666399977
 31
0.0
  0
LINE
  8
OUTLINE
  6
CONTINUOUS
 62
     3
 10
336.70000000000027
 20
-144.5
 30
0.0
 11
403.20000000000022
 21
-144.5
 31
0.0
  0
LINE
  8
OUTLINE
  6
CONTINUOUS
 62
     3
 10
336.70000000000027
 20
163.7631749757002
 30
0.0
 11
336.70000000000027
 21
144.49999999999989
 31
0.0
  0
LINE
  8
OUTLINE
  6
CONTINUOUS
 62
     3
 10
336.70000000000027
 20
-163.7631749757002
 30
0.0
 11
336.70000000000027
 21
-144.49999999999989
 31
0.0
  0
LINE
  8
OUTLINE
  6
CONTINUOUS
 62
     3
 10
447.94434887620002
 20
-39.128161543900212
 30
0.0
 11
448.22298069909988
 21
-38.945470488200037
 31
0.0
  0
LINE
  8
OUTLINE
  6
CONTINUOUS
 62
     3
 10
448.22298069909988
 20
-38.945470488200037
 30
0.0
 11
448.48759477670001
 21
-38.745293606500127
 31
0.0
  0
LINE
  8
OUTLINE
  6
CONTINUOUS
 62
     3
 10
448.48759477670001
 20
-38.745293606500127
 30
0.0
 11
448.73684603870021
 21
-38.528595150899953
 31
0.0
  0
LINE
  8
OUTLINE
  6
CONTINUOUS
 62
     3
 10
441.4882879255
 20
-40.123916302700323
 30
0.0
 11
441.48878616890022
 21
-40.123639664000173
 31
0.0
  0
LINE
  8
OUTLINE
  6
CONTINUOUS
 62
     3
 10
441.4882879255
 20
-40.123916302700323
 30
0.0
 11
441.52863123990028
 21
-40.102556573399852
 31
0.0
  0
LINE
  8
OUTLINE
  6
CONTINUOUS
 62
     3
 10
441.52863123990028
 20
-40.102556573399852
 30
0.0
 11
441.61077820550003
 21
-40.064629932399853
 31
0.0
  0
LINE
  8
OUTLINE
  6
CONTINUOUS
 62
     3
 10
441.61077820550003
 20
-40.064629932399853
 30
0.0
 11
441.71124252830032
 21
-40.026430492000152
 31
0.0
  0
LINE
  8
OUTLINE
  6
CONTINUOUS
 62
     3
 10
403.20000000000022
 20
-144.5
 30
0.0
 11
403.20000000000022
 21
-136.20060199009819
 31
0.0
  0
LINE
  8
OUTLINE
  6
CONTINUOUS
 62
     3
 10
448.73684168790032
 20
-38.528599175000167
 30
0.0
 11
448.96937495370003
 21
-38.296582476999909
 31
0.0
  0
LINE
  8
OUTLINE
  6
CONTINUOUS
 62
     3
 10
448.96937495370003
 20
-38.296582476999909
 30
0.0
 11
449.18424394029989
 21
-38.050244355500134
 31
0.0
  0
LINE
  8
OUTLINE
  6
CONTINUOUS
 62
     3
 10
449.18424394029989
 20
-38.050244355500134
 30
0.0
 11
449.38041059850002
 21
-37.790851403000033
 31
0.0
  0
LINE
  8
OUTLINE
  6
CONTINUOUS
 62
     3
 10
449.38041059850002
 20
-37.790851403000033
 30
0.0
 11
449.55710411000013
 21
-37.519516261299941
 31
0.0
  0
LINE
  8
OUTLINE
  6
CONTINUOUS
 62
     3
 10
449.55710411000013
 20
-37.519516261299941
 30
0.0
 11
449.71352466720009
 21
-37.237559191699788
 31
0.0
  0
LINE
  8
OUTLINE
  6
CONTINUOUS
 62
     3
 10
449.71352466720009
 20
-37.237559191699788
 30
0.0
 11
449.84906385020042
 21
-36.946188859500133
 31
0.0
  0
LINE
  8
OUTLINE
  6
CONTINUOUS
 62
     3
 10
441.3628437696002
 20
-40.207009116500089
 30
0.0
 11
441.36014684030022
 21
-40.209695039200149
 31
0.0
  0
LINE
  8
OUTLINE
  6
CONTINUOUS
 62
     3
 10
441.36014684030022
 20
-40.209695039200149
 30
0.0
 11
441.36630772400002
 21
-40.204315834000226
 31
0.0
  0
LINE
  8
OUTLINE
  6
CONTINUOUS
 62
     3
 10
441.36630772400002
 20
-40.204315834000226
 30
0.0
 11
441.38159999280009
 21
-40.192114316199877
 31
0.0
  0
LINE
  8
OUTLINE
  6
CONTINUOUS
 62
     3
 10
441.38159999280009
 20
-40.192114316199877
 30
0.0
 11
441.40592173440018
 21
-40.174540072699983
 31
0.0
  0
LINE
  8
OUTLINE
  6
CONTINUOUS
 62
     3
 10
441.40592173440018
 20
-40.174540072699983
 30
0.0
 11
441.44090059830017
 21
-40.151708622100159
 31
0.0
  0
LINE
  8
OUTLINE
  6
CONTINUOUS
 62
     3
 10
441.44090059830017
 20
-40.151708622100159
 30
0.0
 11
441.48878616890022
 21
-40.123639664000173
 31
0.0
  0
LINE
  8
OUTLINE
  6
CONTINUOUS
 62
     3
 10
435.30385808320023
 20
96.261679781199746
 30
0.0
 11
436.95044196120028
 21
64.842987737699787
 31
0.0
  0
LINE
  8
OUTLINE
  6
CONTINUOUS
 62
     3
 10
432.20000000000022
 20
-101.41618034390009
 30
0.0
 11
432.20000000000022
 21
-105.6512492074999
 31
0.0
  0
LINE
  8
OUTLINE
  6
CONTINUOUS
 62
     3
 10
442.20000000000022
 20
60.999999999799911
 30
0.0
 11
442.20000000000022
 21
59.5
 31
0.0
  0
LINE
  8
OUTLINE
  6
CONTINUOUS
 62
     3
 10
443.90000000000009
 20
58.99907700859967
 30
0.0
 11
443.90000000000009
 21
51.000922991299831
 31
0.0
  0
LINE
  8
OUTLINE
  6
CONTINUOUS
 62
     3
 10
450.20000000000022
 20
35.99999999989997
 30
0.0
 11
450.20000000000022
 21
-35.218366790800253
 31
0.0
  0
LINE
  8
OUTLINE
  6
CONTINUOUS
 62
     3
 10
423.52145548620001
 20
-108.0186159221003
 30
0.0
 11
423.4978958488
 21
-108.97127711590019
 31
0.0
  0
LINE
  8
OUTLINE
  6
CONTINUOUS
 62
     3
 10
423.4978958488
 20
-108.97127711590019
 30
0.0
 11
423.4587387255001
 21
-109.92239472670011
 31
0.0
  0
LINE
  8
OUTLINE
  6
CONTINUOUS
 62
     3
 10
423.4587387255001
 20
-109.92239472670011
 30
0.0
 11
423.40291229840022
 21
-110.87166936780019
 31
0.0
  0
LINE
  8
OUTLINE
  6
CONTINUOUS
 62
     3
 10
423.40291229840022
 20
-110.87166936780019
 30
0.0
 11
423.32934474930022
 21
-111.8188016524
 31
0.0
  0
LINE
  8
OUTLINE
  6
CONTINUOUS
 62
     3
 10
423.32934474930022
 20
-111.8188016524
 30
0.0
 11
423.25757388800002
 21
-112.5689805132001
 31
0.0
  0
LINE
  8
OUTLINE
  6
CONTINUOUS
 62
     3
 10
423.25757388800002
 20
-112.5689805132001
 30
0.0
 11
423.17327304219998
 21
-113.3173904688001
 31
0.0
  0
LINE
  8
OUTLINE
  6
CONTINUOUS
 62
     3
 10
423.17327304219998
 20
-113.3173904688001
 30
0.0
 11
423.07576921489999
 21
-114.0638015396999
 31
0.0
  0
LINE
  8
OUTLINE
  6
CONTINUOUS
 62
     3
 10
423.07576921489999
 20
-114.0638015396999
 30
0.0
 11
422.96438940890039
 21
-114.8079837466003
 31
0.0
  0
LINE
  8
OUTLINE
  6
CONTINUOUS
 62
     3
 10
422.96438940890039
 20
-114.8079837466003
 30
0.0
 11
422.83846062730032
 21
-115.5497071100999
 31
0.0
  0
LINE
  8
OUTLINE
  6
CONTINUOUS
 62
     3
 10
422.83846062730032
 20
-115.5497071100999
 30
0.0
 11
422.69730987300039
 21
-116.28874165080011
 31
0.0
  0
LINE
  8
OUTLINE
  6
CONTINUOUS
 62
     3
 10
422.69730987300039
 20
-116.28874165080011
 30
0.0
 11
422.54026414890001
 21
-117.02485738909991
 31
0.0
  0
LINE
  8
OUTLINE
  6
CONTINUOUS
 62
     3
 10
422.54026414890001
 20
-117.02485738909991
 30
0.0
 11
422.36665045799998
 21
-117.7578243459002
 31
0.0
  0
LINE
  8
OUTLINE
  6
CONTINUOUS
 62
     3
 10
422.36665045799998
 20
-117.7578243459002
 30
0.0
 11
422.17579580320017
 21
-118.48741254149991
 31
0.0
  0
LINE
  8
OUTLINE
  6
CONTINUOUS
 62
     3
 10
422.17579580320017
 20
-118.48741254149991
 30
0.0
 11
421.9887291297
 21
-119.1409157267999
 31
0.0
  0
LINE
  8
OUTLINE
  6
CONTINUOUS
 62
     3
 10
421.9887291297
 20
-119.1409157267999
 30
0.0
 11
421.78666016490018
 21
-119.7910445448001
 31
0.0
  0
LINE
  8
OUTLINE
  6
CONTINUOUS
 62
     3
 10
421.78666016490018
 20
-119.7910445448001
 30
0.0
 11
421.56909692590028
 21
-120.4373477078998
 31
0.0
  0
LINE
  8
OUTLINE
  6
CONTINUOUS
 62
     3
 10
421.56909692590028
 20
-120.4373477078998
 30
0.0
 11
421.33554742979999
 21
-121.07937392860001
 31
0.0
  0
LINE
  8
OUTLINE
  6
CONTINUOUS
 62
     3
 10
421.33554742979999
 20
-121.07937392860001
 30
0.0
 11
421.08551969370001
 21
-121.7166719193001
 31
0.0
  0
LINE
  8
OUTLINE
  6
CONTINUOUS
 62
     3
 10
421.08551969370001
 20
-121.7166719193001
 30
0.0
 11
420.81852173459993
 21
-122.3487903924001
 31
0.0
  0
LINE
  8
OUTLINE
  6
CONTINUOUS
 62
     3
 10
420.81852173459993
 20
-122.3487903924001
 30
0.0
 11
420.53406156969999
 21
-122.9752780606
 31
0.0
  0
LINE
  8
OUTLINE
  6
CONTINUOUS
 62
     3
 10
420.53406156969999
 20
-122.9752780606
 30
0.0
 11
420.23164721590001
 21
-123.5956836360001
 31
0.0
  0
LINE
  8
OUTLINE
  6
CONTINUOUS
 62
     3
 10
420.23164721590001
 20
-123.5956836360001
 30
0.0
 11
419.91078669040007
 21
-124.2095558313999
 31
0.0
  0
LINE
  8
OUTLINE
  6
CONTINUOUS
 62
     3
 10
419.91078669040007
 20
-124.2095558313999
 30
0.0
 11
419.57098801030003
 21
-124.816443359
 31
0.0
  0
LINE
  8
OUTLINE
  6
CONTINUOUS
 62
     3
 10
419.57098801030003
 20
-124.816443359
 30
0.0
 11
419.24528067540001
 21
-125.3616954494
 31
0.0
  0
LINE
  8
OUTLINE
  6
CONTINUOUS
 62
     3
 10
419.24528067540001
 20
-125.3616954494
 30
0.0
 11
418.90343663400017
 21
-125.9003249284001
 31
0.0
  0
LINE
  8
OUTLINE
  6
CONTINUOUS
 62
     3
 10
418.90343663400017
 20
-125.9003249284001
 30
0.0
 11
418.54537714449998
 21
-126.43185460240009
 31
0.0
  0
LINE
  8
OUTLINE
  6
CONTINUOUS
 62
     3
 10
418.54537714449998
 20
-126.43185460240009
 30
0.0
 11
418.17102346530021
 21
-126.9558072775999
 31
0.0
  0
LINE
  8
OUTLINE
  6
CONTINUOUS
 62
     3
 10
418.17102346530021
 20
-126.9558072775999
 30
0.0
 11
417.78029685480033
 21
-127.47170576020019
 31
0.0
  0
LINE
  8
OUTLINE
  6
CONTINUOUS
 62
     3
 10
417.78029685480033
 20
-127.47170576020019
 30
0.0
 11
417.37311857150007
 21
-127.9790728565999
 31
0.0
  0
LINE
  8
OUTLINE
  6
CONTINUOUS
 62
     3
 10
417.37311857150007
 20
-127.9790728565999
 30
0.0
 11
416.94940987370001
 21
-128.47743137290041
 31
0.0
  0
LINE
  8
OUTLINE
  6
CONTINUOUS
 62
     3
 10
416.94940987370001
 20
-128.47743137290041
 30
0.0
 11
416.50909201979988
 21
-128.96630411539991
 31
0.0
  0
LINE
  8
OUTLINE
  6
CONTINUOUS
 62
     3
 10
416.50909201979988
 20
-128.96630411539991
 30
0.0
 11
416.05208626840022
 21
-129.44521389029981
 31
0.0
  0
LINE
  8
OUTLINE
  6
CONTINUOUS
 62
     3
 10
416.05208626840022
 20
-129.44521389029981
 30
0.0
 11
415.57831387770011
 21
-129.91368350399989
 31
0.0
  0
LINE
  8
OUTLINE
  6
CONTINUOUS
 62
     3
 10
415.57831387770011
 20
-129.91368350399989
 30
0.0
 11
415.08769610619993
 21
-130.37123576260001
 31
0.0
  0
LINE
  8
OUTLINE
  6
CONTINUOUS
 62
     3
 10
432.20000000000022
 20
-105.6512492074999
 30
0.0
 11
432.1946849676001
 21
-105.7576229204001
 31
0.0
  0
LINE
  8
OUTLINE
  6
CONTINUOUS
 62
     3
 10
432.1946849676001
 20
-105.7576229204001
 30
0.0
 11
432.17841733760002
 21
-105.86483482919991
 31
0.0
  0
LINE
  8
OUTLINE
  6
CONTINUOUS
 62
     3
 10
432.17841733760002
 20
-105.86483482919991
 30
0.0
 11
432.15075011170029
 21
-105.97190553739981
 31
0.0
  0
LINE
  8
OUTLINE
  6
CONTINUOUS
 62
     3
 10
432.15075011170029
 20
-105.97190553739981
 30
0.0
 11
432.11163140230019
 21
-106.0769957973998
 31
0.0
  0
LINE
  8
OUTLINE
  6
CONTINUOUS
 62
     3
 10
432.11163140230019
 20
-106.0769957973998
 30
0.0
 11
432.06130648110002
 21
-106.1785078236999
 31
0.0
  0
LINE
  8
OUTLINE
  6
CONTINUOUS
 62
     3
 10
432.06130648110002
 20
-106.1785078236999
 30
0.0
 11
432.00026510140009
 21
-106.27504275610001
 31
0.0
  0
LINE
  8
OUTLINE
  6
CONTINUOUS
 62
     3
 10
432.00026510140009
 20
-106.27504275610001
 30
0.0
 11
431.92848465360021
 21
-106.36622750390011
 31
0.0
  0
LINE
  8
OUTLINE
  6
CONTINUOUS
 62
     3
 10
431.92848465360021
 20
-106.36622750390011
 30
0.0
 11
431.84894903610018
 21
-106.4486608488
 31
0.0
  0
LINE
  8
OUTLINE
  6
CONTINUOUS
 62
     3
 10
431.84894903610018
 20
-106.4486608488
 30
0.0
 11
431.7654057906002
 21
-106.52027798040039
 31
0.0
  0
LINE
  8
OUTLINE
  6
CONTINUOUS
 62
     3
 10
431.7654057906002
 20
-106.52027798040039
 30
0.0
 11
431.67892564590011
 21
-106.58225204039989
 31
0.0
  0
LINE
  8
OUTLINE
  6
CONTINUOUS
 62
     3
 10
431.67892564590011
 20
-106.58225204039989
 30
0.0
 11
431.59240774279988
 21
-106.6345341848
 31
0.0
  0
LINE
  8
OUTLINE
  6
CONTINUOUS
 62
     3
 10
431.59240774279988
 20
-106.6345341848
 30
0.0
 11
431.50227800350012
 21
-106.68067289779989
 31
0.0
  0
LINE
  8
OUTLINE
  6
CONTINUOUS
 62
     3
 10
431.50227800350012
 20
-106.68067289779989
 30
0.0
 11
431.40407830340018
 21
-106.72306605599989
 31
0.0
  0
LINE
  8
OUTLINE
  6
CONTINUOUS
 62
     3
 10
431.40407830340018
 20
-106.72306605599989
 30
0.0
 11
431.29761743610021
 21
-106.7614659190999
 31
0.0
  0
LINE
  8
OUTLINE
  6
CONTINUOUS
 62
     3
 10
431.29761743610021
 20
-106.7614659190999
 30
0.0
 11
431.18042319519998
 21
-106.7963578449999
 31
0.0
  0
LINE
  8
OUTLINE
  6
CONTINUOUS
 62
     3
 10
431.18042319519998
 20
-106.7963578449999
 30
0.0
 11
431.05250343310041
 21
-106.8272806783998
 31
0.0
  0
LINE
  8
OUTLINE
  6
CONTINUOUS
 62
     3
 10
431.05250343310041
 20
-106.8272806783998
 30
0.0
 11
430.91108363730018
 21
-106.8543640587
 31
0.0
  0
LINE
  8
OUTLINE
  6
CONTINUOUS
 62
     3
 10
430.91108363730018
 20
-106.8543640587
 30
0.0
 11
430.76371228049987
 21
-106.8759879314002
 31
0.0
  0
LINE
  8
OUTLINE
  6
CONTINUOUS
 62
     3
 10
430.76371228049987
 20
-106.8759879314002
 30
0.0
 11
430.62111278449999
 21
-106.89141039900009
 31
0.0
  0
LINE
  8
OUTLINE
  6
CONTINUOUS
 62
     3
 10
430.62111278449999
 20
-106.89141039900009
 30
0.0
 11
430.47960060100007
 21
-106.90195015239991
 31
0.0
  0
LINE
  8
OUTLINE
  6
CONTINUOUS
 62
     3
 10
430.47960060100007
 20
-106.90195015239991
 30
0.0
 11
430.33885943370018
 21
-106.90808109380031
 31
0.0
  0
LINE
  8
OUTLINE
  6
CONTINUOUS
 62
     3
 10
430.33885943370018
 20
-106.90808109380031
 30
0.0
 11
430.20000000000022
 21
-106.9100682526
 31
0.0
  0
LINE
  8
OUTLINE
  6
CONTINUOUS
 62
     3
 10
435.30385808320023
 20
-96.261679781200201
 30
0.0
 11
437.95167515980029
 21
-45.738320218800247
 31
0.0
  0
LINE
  8
OUTLINE
  6
CONTINUOUS
 62
     3
 10
450.17213245690027
 20
-35.71397864490018
 30
0.0
 11
450.19639970190019
 21
-35.396768199600047
 31
0.0
  0
LINE
  8
OUTLINE
  6
CONTINUOUS
 62
     3
 10
450.19639970190019
 20
-35.396768199600047
 30
0.0
 11
450.19999997280001
 21
-35.218652750099849
 31
0.0
  0
LINE
  8
OUTLINE
  6
CONTINUOUS
 62
     3
 10
430.67698891290001
 20
-106.8853672656001
 30
0.0
 11
430.66160437709999
 21
-106.9818075649
 31
0.0
  0
LINE
  8
OUTLINE
  6
CONTINUOUS
 62
     3
 10
430.66160437709999
 20
-106.9818075649
 30
0.0
 11
430.55159836270002
 21
-107.2035454959
 31
0.0
  0
LINE
  8
OUTLINE
  6
CONTINUOUS
 62
     3
 10
430.55159836270002
 20
-107.2035454959
 30
0.0
 11
430.38693708110031
 21
-107.3912794029002
 31
0.0
  0
LINE
  8
OUTLINE
  6
CONTINUOUS
 62
     3
 10
430.38693708110031
 20
-107.3912794029002
 30
0.0
 11
430.17250406000039
 21
-107.55363981470011
 31
0.0
  0
LINE
  8
OUTLINE
  6
CONTINUOUS
 62
     3
 10
430.17250406000039
 20
-107.55363981470011
 30
0.0
 11
429.90978602730002
 21
-107.69607618959979
 31
0.0
  0
LINE
  8
OUTLINE
  6
CONTINUOUS
 62
     3
 10
429.90978602730002
 20
-107.69607618959979
 30
0.0
 11
429.58789941210023
 21
-107.8261852187002
 31
0.0
  0
LINE
  8
OUTLINE
  6
CONTINUOUS
 62
     3
 10
429.58789941210023
 20
-107.8261852187002
 30
0.0
 11
429.19506824349992
 21
-107.94625955379981
 31
0.0
  0
LINE
  8
OUTLINE
  6
CONTINUOUS
 62
     3
 10
429.19506824349992
 20
-107.94625955379981
 30
0.0
 11
428.72476714320021
 21
-108.0542925172003
 31
0.0
  0
LINE
  8
OUTLINE
  6
CONTINUOUS
 62
     3
 10
428.72476714320021
 20
-108.0542925172003
 30
0.0
 11
428.16431026430018
 21
-108.1479084282
 31
0.0
  0
LINE
  8
OUTLINE
  6
CONTINUOUS
 62
     3
 10
428.16431026430018
 20
-108.1479084282
 30
0.0
 11
427.53810954310029
 21
-108.2186678800999
 31
0.0
  0
LINE
  8
OUTLINE
  6
CONTINUOUS
 62
     3
 10
427.53810954310029
 20
-108.2186678800999
 30
0.0
 11
426.8807168262
 21
-108.2616673691
 31
0.0
  0
LINE
  8
OUTLINE
  6
CONTINUOUS
 62
     3
 10
426.8807168262
 20
-108.2616673691
 30
0.0
 11
426.19999997180003
 21
-108.2762860254002
 31
0.0
  0
LINE
  8
OUTLINE
  6
CONTINUOUS
 62
     3
 10
449.96313120769997
 20
-36.646756583099886
 30
0.0
 11
450.05524640890008
 21
-36.340647007199998
 31
0.0
  0
LINE
  8
OUTLINE
  6
CONTINUOUS
 62
     3
 10
450.05524640890008
 20
-36.340647007199998
 30
0.0
 11
450.12500251330039
 21
-36.029274870799767
 31
0.0
  0
LINE
  8
OUTLINE
  6
CONTINUOUS
 62
     3
 10
450.12500251330039
 20
-36.029274870799767
 30
0.0
 11
450.17211480480012
 21
-35.7141350582001
 31
0.0
  0
LINE
  8
OUTLINE
  6
CONTINUOUS
 62
     3
 10
449.55714965080011
 20
-37.519440697999933
 30
0.0
 11
449.71358202330009
 21
-37.237446476899997
 31
0.0
  0
LINE
  8
OUTLINE
  6
CONTINUOUS
 62
     3
 10
449.71358202330009
 20
-37.237446476899997
 30
0.0
 11
449.84912631830002
 21
-36.94604112619983
 31
0.0
  0
LINE
  8
OUTLINE
  6
CONTINUOUS
 62
     3
 10
449.84912631830002
 20
-36.94604112619983
 30
0.0
 11
449.96319101180012
 21
-36.646580628100317
 31
0.0
  0
LINE
  8
OUTLINE
  6
CONTINUOUS
 62
     3
 10
449.96319101180012
 20
-36.646580628100317
 30
0.0
 11
450.05529634800041
 21
-36.340455960700183
 31
0.0
  0
LINE
  8
OUTLINE
  6
CONTINUOUS
 62
     3
 10
415.08769610619993
 20
-130.37123576260001
 30
0.0
 11
414.71915363020042
 21
-130.69775894329999
 31
0.0
  0
LINE
  8
OUTLINE
  6
CONTINUOUS
 62
     3
 10
414.71915363020042
 20
-130.69775894329999
 30
0.0
 11
414.34534198130041
 21
-131.0147773993003
 31
0.0
  0
LINE
  8
OUTLINE
  6
CONTINUOUS
 62
     3
 10
414.34534198130041
 20
-131.0147773993003
 30
0.0
 11
413.96642727199998
 21
-131.32236799070009
 31
0.0
  0
LINE
  8
OUTLINE
  6
CONTINUOUS
 62
     3
 10
413.96642727199998
 20
-131.32236799070009
 30
0.0
 11
413.58257561500022
 21
-131.6206075773998
 31
0.0
  0
LINE
  8
OUTLINE
  6
CONTINUOUS
 62
     3
 10
413.58257561500022
 20
-131.6206075773998
 30
0.0
 11
413.19395312279988
 21
-131.9095730196
 31
0.0
  0
LINE
  8
OUTLINE
  6
CONTINUOUS
 62
     3
 10
413.19395312279988
 20
-131.9095730196
 30
0.0
 11
412.80072590809999
 21
-132.18934117729989
 31
0.0
  0
LINE
  8
OUTLINE
  6
CONTINUOUS
 62
     3
 10
412.80072590809999
 20
-132.18934117729989
 30
0.0
 11
412.40306008350018
 21
-132.45998891060029
 31
0.0
  0
LINE
  8
OUTLINE
  6
CONTINUOUS
 62
     3
 10
412.40306008350018
 20
-132.45998891060029
 30
0.0
 11
412.00112176150009
 21
-132.72159307940001
 31
0.0
  0
LINE
  8
OUTLINE
  6
CONTINUOUS
 62
     3
 10
412.00112176150009
 20
-132.72159307940001
 30
0.0
 11
411.59507705480019
 21
-132.97423054389989
 31
0.0
  0
LINE
  8
OUTLINE
  6
CONTINUOUS
 62
     3
 10
411.59507705480019
 20
-132.97423054389989
 30
0.0
 11
411.18509207600022
 21
-133.21797816400019
 31
0.0
  0
LINE
  8
OUTLINE
  6
CONTINUOUS
 62
     3
 10
411.18509207600022
 20
-133.21797816400019
 30
0.0
 11
410.77133293760022
 21
-133.4529127999003
 31
0.0
  0
LINE
  8
OUTLINE
  6
CONTINUOUS
 62
     3
 10
410.77133293760022
 20
-133.4529127999003
 30
0.0
 11
410.35396575230021
 21
-133.67911131160011
 31
0.0
  0
LINE
  8
OUTLINE
  6
CONTINUOUS
 62
     3
 10
410.35396575230021
 20
-133.67911131160011
 30
0.0
 11
409.93315663269999
 21
-133.89665055900011
 31
0.0
  0
LINE
  8
OUTLINE
  6
CONTINUOUS
 62
     3
 10
409.93315663269999
 20
-133.89665055900011
 30
0.0
 11
409.50907169130011
 21
-134.10560740240001
 31
0.0
  0
LINE
  8
OUTLINE
  6
CONTINUOUS
 62
     3
 10
409.50907169130011
 20
-134.10560740240001
 30
0.0
 11
409.08187704080001
 21
-134.3060587015998
 31
0.0
  0
LINE
  8
OUTLINE
  6
CONTINUOUS
 62
     3
 10
409.08187704080001
 20
-134.3060587015998
 30
0.0
 11
408.65173879380018
 21
-134.4980813167999
 31
0.0
  0
LINE
  8
OUTLINE
  6
CONTINUOUS
 62
     3
 10
408.65173879380018
 20
-134.4980813167999
 30
0.0
 11
408.21882306279991
 21
-134.68175210800021
 31
0.0
  0
LINE
  8
OUTLINE
  6
CONTINUOUS
 62
     3
 10
408.21882306279991
 20
-134.68175210800021
 30
0.0
 11
407.78329596050031
 21
-134.85714793519989
 31
0.0
  0
LINE
  8
OUTLINE
  6
CONTINUOUS
 62
     3
 10
407.78329596050031
 20
-134.85714793519989
 30
0.0
 11
407.34532359950032
 21
-135.02434565850041
 31
0.0
  0
LINE
  8
OUTLINE
  6
CONTINUOUS
 62
     3
 10
407.34532359950032
 20
-135.02434565850041
 30
0.0
 11
406.90507209240008
 21
-135.183422138
 31
0.0
  0
LINE
  8
OUTLINE
  6
CONTINUOUS
 62
     3
 10
406.90507209240008
 20
-135.183422138
 30
0.0
 11
406.46270755170008
 21
-135.3344542335999
 31
0.0
  0
LINE
  8
OUTLINE
  6
CONTINUOUS
 62
     3
 10
406.46270755170008
 20
-135.3344542335999
 30
0.0
 11
406.00252057050011
 21
-135.48248030490001
 31
0.0
  0
LINE
  8
OUTLINE
  6
CONTINUOUS
 62
     3
 10
406.00252057050011
 20
-135.48248030490001
 30
0.0
 11
405.54030685960021
 21
-135.62212565539991
 31
0.0
  0
LINE
  8
OUTLINE
  6
CONTINUOUS
 62
     3
 10
405.54030685960021
 20
-135.62212565539991
 30
0.0
 11
405.07612773180023
 21
-135.75355461039999
 31
0.0
  0
LINE
  8
OUTLINE
  6
CONTINUOUS
 62
     3
 10
405.07612773180023
 20
-135.75355461039999
 30
0.0
 11
404.61004450000007
 21
-135.87693149500001
 31
0.0
  0
LINE
  8
OUTLINE
  6
CONTINUOUS
 62
     3
 10
404.61004450000007
 20
-135.87693149500001
 30
0.0
 11
404.14211847710021
 21
-135.99242063430029
 31
0.0
  0
LINE
  8
OUTLINE
  6
CONTINUOUS
 62
     3
 10
404.14211847710021
 20
-135.99242063430029
 30
0.0
 11
403.67241097580018
 21
-136.10018635360029
 31
0.0
  0
LINE
  8
OUTLINE
  6
CONTINUOUS
 62
     3
 10
403.67241097580018
 20
-136.10018635360029
 30
0.0
 11
403.1998534532849
 21
-136.20063314005549
 31
0.0
  0
LINE
  8
OUTLINE
  6
CONTINUOUS
 62
     3
 10
340.24027077630012
 20
-329.12420687000031
 30
0.0
 11
341.86697995699973
 21
-326.37486635830021
 31
0.0
  0
LINE
  8
OUTLINE
  6
CONTINUOUS
 62
     3
 10
95.400000000000077
 20
-390.89987745110022
 30
0.0
 11
211.0
 21
-390.89987745110011
 31
0.0
  0
LINE
  8
OUTLINE
  6
CONTINUOUS
 62
     3
 10
35.0
 20
-418.69999999999999
 30
0.0
 11
45.400000000000098
 21
-418.69999999999999
 31
0.0
  0
LINE
  8
OUTLINE
  6
CONTINUOUS
 62
     3
 10
94.19999999999979
 20
-469.0
 30
0.0
 11
95.400000000000077
 21
-469.0
 31
0.0
  0
LINE
  8
OUTLINE
  6
CONTINUOUS
 62
     3
 10
35.0
 20
-475.0
 30
0.0
 11
2.4000000000000909
 21
-475.0
 31
0.0
  0
ARC
  8
OUTLINE
  6
CONTINUOUS
 62
     3
 10
45.400000000000098
 20
-467.5
 30
0.0
 40
48.799999999999997
 50
0.0
 51
90.0
  0
ARC
  8
OUTLINE
  6
CONTINUOUS
 62
     3
 10
45.400000000000098
 20
467.5
 30
0.0
 40
48.799999999999997
 50
270.0
 51
0.0
  0
ARC
  8
OUTLINE
  6
CONTINUOUS
 62
     3
 10
445.20000000000022
 20
36.0
 30
0.0
 40
5.0
 50
0.0
 51
90.0
  0
ARC
  8
OUTLINE
  6
CONTINUOUS
 62
     3
 10
442.94482283360003
 20
-46.0
 30
0.0
 40
5.0
 50
122.0461963102872
 51
176.9999999999944
  0
ARC
  8
OUTLINE
  6
CONTINUOUS
 62
     3
 10
442.94482283360003
 20
46.0
 30
0.0
 40
5.0
 50
209.99998819818771
 51
270.0
  0
ARC
  8
OUTLINE
  6
CONTINUOUS
 62
     3
 10
430.31071040939997
 20
96.0
 30
0.0
 40
5.0
 50
3.0000000000055942
 51
90.0
  0
ARC
  8
OUTLINE
  6
CONTINUOUS
 62
     3
 10
430.31071040939997
 20
-96.0
 30
0.0
 40
5.0
 50
303.7529332073143
 51
356.99999999999437
  0
ARC
  8
OUTLINE
  6
CONTINUOUS
 62
     3
 10
438.70000000000022
 20
-39.219035532400078
 30
0.0
 40
3.0
 50
302.04619631040288
 51
343.27773525818941
  0
ARC
  8
OUTLINE
  6
CONTINUOUS
 62
     3
 10
2.4000000000000909
 20
472.59999999999991
 30
0.0
 40
2.3999999999999999
 50
90.0
 51
180.0
  0
ARC
  8
OUTLINE
  6
CONTINUOUS
 62
     3
 10
2.4000000000000909
 20
-472.60000000000008
 30
0.0
 40
2.3999999999999999
 50
180.0
 51
270.0
  0
ARC
  8
OUTLINE
  6
CONTINUOUS
 62
     3
 10
434.20000000000022
 20
-101.8200881849998
 30
0.0
 40
2.0
 50
123.7529332073143
 51
175.31274443391499
  0
ARC
  8
OUTLINE
  6
CONTINUOUS
 62
     3
 10
441.19999999860011
 20
48.99998127229992
 30
0.0
 40
1.0000000013999999
 50
270.18289644511611
 51
0.0
  0
ARC
  8
OUTLINE
  6
CONTINUOUS
 62
     3
 10
441.20000000000022
 20
61.0
 30
0.0
 40
1.0
 50
0.0
 51
90.0
  0
ARC
  8
OUTLINE
  6
CONTINUOUS
 62
     3
 10
443.40000000000009
 20
59.0
 30
0.0
 40
0.5
 50
0.0
 51
90.0
  0
ARC
  8
OUTLINE
  6
CONTINUOUS
 62
     3
 10
443.40000000000009
 20
51.0
 30
0.0
 40
0.5
 50
270.0
 51
0.0
  0
LINE
  8
OUTLINE
  6
CONTINUOUS
 62
     3
 10
35.0
 20
418.69999999999987
 30
0.0
 11
35.000000000000448
 21
475.0
 31
0.0
  0
LINE
  8
OUTLINE
  6
CONTINUOUS
 62
     3
 10
403.20000000000022
 20
100.9999999999999
 30
0.0
 11
403.20000000000022
 21
144.5
 31
0.0
  0
LINE
  8
OUTLINE
  6
CONTINUOUS
 62
     3
 10
442.20000000000022
 20
50.500000000000107
 30
0.0
 11
442.20000000000022
 21
48.999914748500032
 31
0.0
  0
LINE
  8
BASIS
  6
DASHDOT
 62
     6
 10
489.42836594758052
 20
0.0
 30
0.0
 11
-57.221486251954047
 21
0.0
 31
0.0
  0
CIRCLE
  8
FIX
  6
CONTINUOUS
 62
    11
 10
0.0
 20
-450.0
 30
0.0
 40
7.0
  0
CIRCLE
  8
FIX
  6
CONTINUOUS
 62
    11
 10
0.0
 20
-200.0
 30
0.0
 40
7.0
  0
CIRCLE
  8
FIX
  6
CONTINUOUS
 62
    11
 10
0.0
 20
200.0
 30
0.0
 40
7.0
  0
CIRCLE
  8
FIX
  6
CONTINUOUS
 62
    11
 10
0.0000000000004547
 20
450.0
 30
0.0
 40
7.0
  0
LINE
  8
SIZE
  6
CONTINUOUS
 62
    30
 10
-42.666512094396253
 20
200.00000000000011
 30
0.0
 11
-224.15661761970591
 21
200.00000000000011
 31
0.0
  0
LINE
  8
SIZE
  6
CONTINUOUS
 62
    30
 10
-42.666512094396253
 20
-200.00000000000011
 30
0.0
 11
-224.1566176197058
 21
-200.0000000000002
 31
0.0
  0
LINE
  8
SIZE
  6
CONTINUOUS
 62
    30
 10
-204.15661761970591
 20
188.0
 30
0.0
 11
-204.1566176197058
 21
-188.00000000000011
 31
0.0
  0
CIRCLE
  8
SIZE
  6
CONTINUOUS
 62
    30
 10
-204.15661761970591
 20
200.00000000000011
 30
0.0
 40
6.0
  0
LINE
  8
SIZE
  6
CONTINUOUS
 62
    30
 10
-204.15661761970591
 20
200.00000000000011
 30
0.0
 11
-204.15661761970591
 21
188.00000000000011
 31
0.0
  0
CIRCLE
  8
SIZE
  6
CONTINUOUS
 62
    30
 10
-204.1566176197058
 20
-200.0000000000002
 30
0.0
 40
6.0
  0
LINE
  8
SIZE
  6
CONTINUOUS
 62
    30
 10
-204.1566176197058
 20
-200.0000000000002
 30
0.0
 11
-204.1566176197058
 21
-188.0000000000002
 31
0.0
  0
TEXT
  8
SIZE
  6
CONTINUOUS
 62
    30
 10
-229.1566176197058
 20
-74.05714285714285
 30
0.0
 40
64.0
  1
400
 50
90.0
 41
0.9
 72
     1
 11
-229.1566176197058
 21
0.0
 31
0.0
  0
LINE
  8
SIZE
  6
CONTINUOUS
 62
    30
 10
-42.666512094395777
 20
450.00000000000023
 30
0.0
 11
-408.26541464384132
 21
450.0
 31
0.0
  0
LINE
  8
SIZE
  6
CONTINUOUS
 62
    30
 10
-42.666512094396253
 20
-450.00000000000023
 30
0.0
 11
-408.26541464384093
 21
-450.00000000000023
 31
0.0
  0
LINE
  8
SIZE
  6
CONTINUOUS
 62
    30
 10
-388.26541464384132
 20
438.0
 30
0.0
 11
-388.26541464384093
 21
-438.00000000000023
 31
0.0
  0
CIRCLE
  8
SIZE
  6
CONTINUOUS
 62
    30
 10
-388.26541464384132
 20
450.0
 30
0.0
 40
6.0
  0
LINE
  8
SIZE
  6
CONTINUOUS
 62
    30
 10
-388.26541464384132
 20
450.0
 30
0.0
 11
-388.26541464384132
 21
438.0
 31
0.0
  0
CIRCLE
  8
SIZE
  6
CONTINUOUS
 62
    30
 10
-388.26541464384093
 20
-450.00000000000023
 30
0.0
 40
6.0
  0
LINE
  8
SIZE
  6
CONTINUOUS
 62
    30
 10
-388.26541464384093
 20
-450.00000000000023
 30
0.0
 11
-388.26541464384093
 21
-438.00000000000023
 31
0.0
  0
TEXT
  8
SIZE
  6
CONTINUOUS
 62
    30
 10
-413.26541464384093
 20
-74.05714285714275
 30
0.0
 40
64.0
  1
900
 50
90.0
 41
0.9
 72
     1
 11
-413.26541464384093
 21
0.0000000000001137
 31
0.0
  0
LINE
  8
SIZE
  6
CONTINUOUS
 62
    30
 10
-17.599999999999909
 20
475.00000000000023
 30
0.0
 11
-594.76714012765888
 21
475.00000000000023
 31
0.0
  0
LINE
  8
SIZE
  6
CONTINUOUS
 62
    30
 10
-17.599999999999909
 20
-475.00000000000023
 30
0.0
 11
-594.76714012765865
 21
-475.00000000000023
 31
0.0
  0
LINE
  8
SIZE
  6
CONTINUOUS
 62
    30
 10
-574.76714012765888
 20
463.00000000000023
 30
0.0
 11
-574.76714012765865
 21
-463.00000000000023
 31
0.0
  0
CIRCLE
  8
SIZE
  6
CONTINUOUS
 62
    30
 10
-574.76714012765888
 20
475.00000000000023
 30
0.0
 40
6.0
  0
LINE
  8
SIZE
  6
CONTINUOUS
 62
    30
 10
-574.76714012765888
 20
475.00000000000023
 30
0.0
 11
-574.76714012765888
 21
463.00000000000023
 31
0.0
  0
CIRCLE
  8
SIZE
  6
CONTINUOUS
 62
    30
 10
-574.76714012765865
 20
-475.00000000000023
 30
0.0
 40
6.0
  0
LINE
  8
SIZE
  6
CONTINUOUS
 62
    30
 10
-574.76714012765865
 20
-475.00000000000023
 30
0.0
 11
-574.76714012765865
 21
-463.00000000000023
 31
0.0
  0
TEXT
  8
SIZE
  6
CONTINUOUS
 62
    30
 10
-599.76714012765865
 20
-74.05714285714275
 30
0.0
 40
64.0
  1
950
 50
90.0
 41
0.9
 72
     1
 11
-599.76714012765865
 21
0.0000000000001137
 31
0.0
  0
LINE
  8
SIZE
  6
CONTINUOUS
 62
    30
 10
0.0000000000004547
 20
492.59999999999991
 30
0.0
 11
0.0000000000004547
 21
588.60153226243074
 31
0.0
  0
LINE
  8
SIZE
  6
CONTINUOUS
 62
    30
 10
35.000000000000448
 20
495.0
 30
0.0
 11
35.000000000000448
 21
588.60153226243074
 31
0.0
  0
LINE
  8
SIZE
  6
CONTINUOUS
 62
    30
 10
47.000000000000448
 20
568.60153226243074
 30
0.0
 11
59.000000000000448
 21
568.60153226243074
 31
0.0
  0
LINE
  8
SIZE
  6
CONTINUOUS
 62
    30
 10
-11.999999999999551
 20
568.60153226243074
 30
0.0
 11
-167.25714285714241
 21
568.60153226243074
 31
0.0
  0
LINE
  8
SIZE
  6
CONTINUOUS
 62
    30
 10
35.000000000000448
 20
568.60153226243074
 30
0.0
 11
0.0000000000004547
 21
568.60153226243074
 31
0.0
  0
CIRCLE
  8
SIZE
  6
CONTINUOUS
 62
    30
 10
35.000000000000448
 20
568.60153226243074
 30
0.0
 40
6.0
  0
LINE
  8
SIZE
  6
CONTINUOUS
 62
    30
 10
35.000000000000448
 20
568.60153226243074
 30
0.0
 11
47.000000000000448
 21
568.60153226243074
 31
0.0
  0
CIRCLE
  8
SIZE
  6
CONTINUOUS
 62
    30
 10
0.0000000000004547
 20
568.60153226243074
 30
0.0
 40
6.0
  0
LINE
  8
SIZE
  6
CONTINUOUS
 62
    30
 10
0.0000000000004547
 20
568.60153226243074
 30
0.0
 11
-11.999999999999551
 21
568.60153226243074
 31
0.0
  0
TEXT
  8
SIZE
  6
CONTINUOUS
 62
    30
 10
-142.25714285714241
 20
593.60153226243074
 30
0.0
 40
64.0
  1
35
 41
0.9
 72
     1
 11
-95.628571428570922
 21
593.60153226243074
 31
0.0
  0
LINE
  8
SIZE
  6
CONTINUOUS
 62
    30
 10
0.0000000000004547
 20
492.59999999999991
 30
0.0
 11
0.0000000000004547
 21
724.90756826240511
 31
0.0
  0
LINE
  8
SIZE
  6
CONTINUOUS
 62
    30
 10
95.400000000000077
 20
489.0
 30
0.0
 11
95.400000000000077
 21
724.90756826240511
 31
0.0
  0
LINE
  8
SIZE
  6
CONTINUOUS
 62
    30
 10
83.400000000000091
 20
704.90756826240522
 30
0.0
 11
12.000000000000449
 21
704.90756826240522
 31
0.0
  0
LINE
  8
SIZE
  6
CONTINUOUS
 62
    30
 10
0.0000000000004547
 20
704.90756826240522
 30
0.0
 11
-153.88571428571379
 21
704.90756826240522
 31
0.0
  0
CIRCLE
  8
SIZE
  6
CONTINUOUS
 62
    30
 10
95.400000000000077
 20
704.90756826240522
 30
0.0
 40
6.0
  0
LINE
  8
SIZE
  6
CONTINUOUS
 62
    30
 10
95.400000000000077
 20
704.90756826240522
 30
0.0
 11
83.400000000000091
 21
704.90756826240522
 31
0.0
  0
CIRCLE
  8
SIZE
  6
CONTINUOUS
 62
    30
 10
0.0000000000004547
 20
704.90756826240522
 30
0.0
 40
6.0
  0
LINE
  8
SIZE
  6
CONTINUOUS
 62
    30
 10
0.0000000000004547
 20
704.90756826240522
 30
0.0
 11
12.000000000000449
 21
704.90756826240522
 31
0.0
  0
TEXT
  8
SIZE
  6
CONTINUOUS
 62
    30
 10
-128.88571428571379
 20
729.90756826240511
 30
0.0
 40
64.0
  1
96
 41
0.9
 72
     1
 11
-83.628571428570908
 21
729.90756826240511
 31
0.0
  0
LINE
  8
SIZE
  6
CONTINUOUS
 62
    30
 10
0.0000000000004547
 20
492.59999999999991
 30
0.0
 11
0.0000000000004547
 21
850.58713731502303
 31
0.0
  0
LINE
  8
SIZE
  6
CONTINUOUS
 62
    30
 10
353.46630704479998
 20
305.90473527550012
 30
0.0
 11
353.46630704479998
 21
850.58713731502303
 31
0.0
  0
LINE
  8
SIZE
  6
CONTINUOUS
 62
    30
 10
12.000000000000449
 20
830.58713731502303
 30
0.0
 11
341.46630704479998
 21
830.58713731502303
 31
0.0
  0
CIRCLE
  8
SIZE
  6
CONTINUOUS
 62
    30
 10
0.0000000000004547
 20
830.58713731502303
 30
0.0
 40
6.0
  0
LINE
  8
SIZE
  6
CONTINUOUS
 62
    30
 10
0.0000000000004547
 20
830.58713731502303
 30
0.0
 11
12.000000000000449
 21
830.58713731502303
 31
0.0
  0
CIRCLE
  8
SIZE
  6
CONTINUOUS
 62
    30
 10
353.46630704479998
 20
830.58713731502303
 30
0.0
 40
6.0
  0
LINE
  8
SIZE
  6
CONTINUOUS
 62
    30
 10
353.46630704479998
 20
830.58713731502303
 30
0.0
 11
341.46630704479998
 21
830.58713731502303
 31
0.0
  0
TEXT
  8
SIZE
  6
CONTINUOUS
 62
    30
 10
102.67601066525761
 20
855.58713731502303
 30
0.0
 40
64.0
  1
353
 41
0.9
 72
     1
 11
176.73315352240041
 21
855.58713731502303
 31
0.0
  0
LINE
  8
SIZE
  6
CONTINUOUS
 62
    30
 10
0.0000000000004547
 20
492.59999999999991
 30
0.0
 11
0.0000000000004547
 21
992.99576116720448
 31
0.0
  0
LINE
  8
SIZE
  6
CONTINUOUS
 62
    30
 10
450.20000000000022
 20
20.0
 30
0.0
 11
450.20000000000022
 21
992.99576116720448
 31
0.0
  0
LINE
  8
SIZE
  6
CONTINUOUS
 62
    30
 10
12.000000000000449
 20
972.99576116720448
 30
0.0
 11
438.20000000000022
 21
972.99576116720448
 31
0.0
  0
CIRCLE
  8
SIZE
  6
CONTINUOUS
 62
    30
 10
0.0000000000004547
 20
972.99576116720448
 30
0.0
 40
6.0
  0
LINE
  8
SIZE
  6
CONTINUOUS
 62
    30
 10
0.0000000000004547
 20
972.99576116720448
 30
0.0
 11
12.000000000000449
 21
972.99576116720448
 31
0.0
  0
CIRCLE
  8
SIZE
  6
CONTINUOUS
 62
    30
 10
450.20000000000022
 20
972.99576116720448
 30
0.0
 40
6.0
  0
LINE
  8
SIZE
  6
CONTINUOUS
 62
    30
 10
450.20000000000022
 20
972.99576116720448
 30
0.0
 11
438.20000000000022
 21
972.99576116720448
 31
0.0
  0
TEXT
  8
SIZE
  6
CONTINUOUS
 62
    30
 10
151.0428571428576
 20
997.99576116720402
 30
0.0
 40
64.0
  1
450
 41
0.9
 72
     1
 11
225.10000000000039
 21
997.99576116720402
 31
0.0
  0
LINE
  8
SIZE
  6
CONTINUOUS
 62
    30
 10
423.20000000000061
 20
144.50000000000011
 30
0.0
 11
669.63982615060127
 21
144.50000000000011
 31
0.0
  0
LINE
  8
SIZE
  6
CONTINUOUS
 62
    30
 10
423.20000000000061
 20
-144.50000000000011
 30
0.0
 11
669.63982615060127
 21
-144.5
 31
0.0
  0
LINE
  8
SIZE
  6
CONTINUOUS
 62
    30
 10
649.63982615060127
 20
132.50000000000011
 30
0.0
 11
649.63982615060127
 21
-132.5
 31
0.0
  0
CIRCLE
  8
SIZE
  6
CONTINUOUS
 62
    30
 10
649.63982615060127
 20
144.50000000000011
 30
0.0
 40
6.0
  0
LINE
  8
SIZE
  6
CONTINUOUS
 62
    30
 10
649.63982615060127
 20
144.50000000000011
 30
0.0
 11
649.63982615060127
 21
132.50000000000011
 31
0.0
  0
CIRCLE
  8
SIZE
  6
CONTINUOUS
 62
    30
 10
649.63982615060127
 20
-144.5
 30
0.0
 40
6.0
  0
LINE
  8
SIZE
  6
CONTINUOUS
 62
    30
 10
649.63982615060127
 20
-144.5
 30
0.0
 11
649.63982615060127
 21
-132.5
 31
0.0
  0
TEXT
  8
SIZE
  6
CONTINUOUS
 62
    30
 10
624.63982615060127
 20
-113.0057142857144
 30
0.0
 40
64.0
  1
φ289
 50
90.0
 41
0.9
 72
     1
 11
624.63982615060127
 21
-0.0000000000001137
 31
0.0
  0
TEXT
  8
NOTE
  6
CONTINUOUS
 62
     4
 10
-432.67179886730622
 20
-593.92421016530477
 30
0.0
 40
64.0
  1
12-φ15
 41
0.9
 72
     2
 11
-111.2089417244492
 21
-593.92421016530477
 31
0.0
  0
LINE
  8
NOTE
  6
CONTINUOUS
 62
     4
 10
-4.635217625430414
 20
-454.13514895196067
 30
0.0
 11
0.0
 21
-450.0
 31
0.0
  0
LINE
  8
NOTE
  6
CONTINUOUS
 62
     4
 10
0.0
 20
-450.0
 30
0.0
 11
-1.946632850620972
 21
-455.89875578701867
 31
0.0
  0
LINE
  8
NOTE
  6
CONTINUOUS
 62
     4
 10
0.0
 20
-450.0
 30
0.0
 11
-6.5818504760509313
 21
-460.03390473897912
 31
0.0
  0
LINE
  8
NOTE
  6
CONTINUOUS
 62
     4
 10
-6.5818504760509313
 20
-460.03390473897912
 30
0.0
 11
-103.8777347687133
 21
-608.35961314569022
 31
0.0
  0
LINE
  8
NOTE
  6
CONTINUOUS
 62
     4
 10
-103.8777347687133
 20
-608.35961314569022
 30
0.0
 11
-451.1946514088595
 21
-608.04947275809582
 31
0.0
  0
TEXT
  8
NOTE
  6
CONTINUOUS
 62
     4
 10
219.47109098295641
 20
-550.23307012733426
 30
0.0
 40
64.0
  1
EL
 41
0.9
  0
LINE
  8
NOTE
  6
CONTINUOUS
 62
     4
 10
67.852336104911501
 20
-434.25852722924759
 30
0.0
 11
65.10984039181858
 21
-428.68507080135078
 31
0.0
  0
LINE
  8
NOTE
  6
CONTINUOUS
 62
     4
 10
65.10984039181858
 20
-428.68507080135078
 30
0.0
 11
70.271644770324201
 21
-432.14057001970377
 31
0.0
  0
LINE
  8
NOTE
  6
CONTINUOUS
 62
     4
 10
65.10984039181858
 20
-428.68507080135078
 30
0.0
 11
73.014140483417563
 21
-437.71402644760042
 31
0.0
  0
LINE
  8
NOTE
  6
CONTINUOUS
 62
     4
 10
73.014140483417563
 20
-437.71402644760042
 30
0.0
 11
194.47109098295729
 21
-576.45235954234113
 31
0.0
  0
LINE
  8
NOTE
  6
CONTINUOUS
 62
     4
 10
194.47109098295729
 20
-576.45235954234113
 30
0.0
 11
313.68799992990017
 21
-575.92198800463052
 31
0.0
  0
ARC
  8
DETAIL
  6
CONTINUOUS
 62
     5
 10
-56.749429677518492
 20
-101.3353905530512
 30
0.0
 40
357.52467923285059
 50
316.83911854320172
 51
337.83281016413417
  0
ARC
  8
DETAIL
  6
CONTINUOUS
 62
     5
 10
268.58059288458747
 20
-233.55454955896951
 30
0.0
 40
6.36042850505895
 50
335.09305988369749
 51
104.02205159691449
  0
ARC
  8
DETAIL
  6
CONTINUOUS
 62
     5
 10
448.18959920361522
 20
65.073285873824716
 30
0.0
 40
344.01514290670991
 50
206.07935459592881
 51
238.22560235155811
  0
ARC
  8
DETAIL
  6
CONTINUOUS
 62
     5
 10
-106.3985906639064
 20
345.11474062373878
 30
0.0
 40
341.3518491922564
 50
306.24041569511161
 51
309.41722833888019
  0
ARC
  8
DETAIL
  6
CONTINUOUS
 62
     5
 10
-106.3985906639064
 20
345.11474062373878
 30
0.0
 40
341.3518491922564
 50
314.69849776695509
 51
359.79965063860851
  0
ARC
  8
DETAIL
  6
CONTINUOUS
 62
     5
 10
162.02710006306009
 20
-479.89542359816011
 30
0.0
 40
104.2480158491374
 50
149.3781158693466
 51
173.26936027733271
  0
ARC
  8
DETAIL
  6
CONTINUOUS
 62
     5
 10
428.44293278125411
 20
-536.92109148291001
 30
0.0
 40
376.36987167913583
 50
169.3984543173251
 51
182.16810606120799
  0
ARC
  8
DETAIL
  6
CONTINUOUS
 62
     5
 10
152.82710008348661
 20
-479.89542359162522
 30
0.0
 40
104.2480158491374
 50
146.93283314971649
 51
173.26936027733271
  0
ARC
  8
DETAIL
  6
CONTINUOUS
 62
     5
 10
419.24293280168052
 20
-536.9210914763762
 30
0.0
 40
376.36987167913583
 50
169.3984543173251
 51
182.16810606120799
  0
LINE
  8
DETAIL
  6
CONTINUOUS
 62
     5
 10
52.342492879008198
 20
-551.15975058786807
 30
0.0
 11
43.142492878418118
 21
-551.15975002616233
 31
0.0
  0
ARC
  8
DETAIL
  6
CONTINUOUS
 62
     5
 10
96.252901171523263
 20
-560.34489007990487
 30
0.0
 40
44.860792951035243
 50
168.18527604626681
 51
206.8229529312587
  0
ARC
  8
DETAIL
  6
CONTINUOUS
 62
     5
 10
99.275753337096845
 20
-559.44935639203504
 30
0.0
 40
50.970542747180531
 50
170.64011229900319
 51
206.1161503141407
  0
ARC
  8
DETAIL
  6
CONTINUOUS
 62
     5
 10
139.8569089540288
 20
-568.0630584642322
 30
0.0
 40
92.431814345759435
 50
169.46283544547649
 51
188.0687418254046
  0
ARC
  8
DETAIL
  6
CONTINUOUS
 62
     5
 10
139.48475179224261
 20
-569.02261562738386
 30
0.0
 40
94.937878675788085
 50
169.15497352127369
 51
187.51367497667829
  0
ARC
  8
DETAIL
  6
CONTINUOUS
 62
     5
 10
-1562.3514107855631
 20
-252.7947140586011
 30
0.0
 40
1636.03057481104
 50
348.40832161975641
 51
349.49208763190552
  0
ARC
  8
DETAIL
  6
CONTINUOUS
 62
     5
 10
-1107.2416710032519
 20
-340.29416931364989
 30
0.0
 40
1169.6306040417239
 50
348.12676288027092
 51
349.62792506498579
  0
LINE
  8
DETAIL
  6
CONTINUOUS
 62
     5
 10
56.21889970282426
 20
-580.58765349303121
 30
0.0
 11
53.509122990504693
 21
-581.8861960683488
 31
0.0
  0
LINE
  8
DETAIL
  6
CONTINUOUS
 62
     5
 10
48.34013442918878
 20
-581.03688919455726
 30
0.0
 11
45.362040122006867
 21
-581.43696036644724
 31
0.0
  0
LINE
  8
DETAIL
  6
CONTINUOUS
 62
     5
 10
40.311410422687921
 20
-581.53157422686206
 30
0.0
 11
37.364915985515843
 21
-580.94227533764297
 31
0.0
  0
ARC
  8
DETAIL
  6
CONTINUOUS
 62
     5
 10
174.95524439066151
 20
-166.08353815685371
 30
0.0
 40
237.13679431056411
 50
257.33179438520108
 51
305.60628860690463
  0
ARC
  8
DETAIL
  6
CONTINUOUS
 62
     5
 10
257.89231905346969
 20
-281.00860683587518
 30
0.0
 40
95.412916993187309
 50
304.61658311693679
 51
2.6153661390081679
  0
ARC
  8
DETAIL
  6
CONTINUOUS
 62
     5
 10
257.70024447031028
 20
-281.23542745610303
 30
0.0
 40
50.515838827511203
 50
301.18957215509317
 51
3.2081411280782719
  0
ARC
  8
DETAIL
  6
CONTINUOUS
 62
     5
 10
212.94929735844929
 20
-218.05109109224671
 30
0.0
 40
127.86364586395671
 50
269.12648479865629
 51
303.68234615097282
  0
ARC
  8
DETAIL
  6
CONTINUOUS
 62
     5
 10
2836.6009332342401
 20
-2415.2324948290229
 30
0.0
 40
3825.3339436681649
 50
133.79657054631929
 51
135.77376227197161
  0
ARC
  8
DETAIL
  6
CONTINUOUS
 62
     5
 10
214.3562622634054
 20
222.34291661288719
 30
0.0
 40
168.59037203647071
 50
56.640672095863323
 51
91.140707886325345
  0
ARC
  8
DETAIL
  6
CONTINUOUS
 62
     5
 10
260.97554449237208
 20
283.10869123854258
 30
0.0
 40
92.366400885940649
 50
352.54093654421217
 51
60.069213915136302
  0
ARC
  8
DETAIL
  6
CONTINUOUS
 62
     5
 10
213.8899145075884
 20
246.75578906549251
 30
0.0
 40
99.186197969648575
 50
18.281785816824421
 51
91.66962081586162
  0
ARC
  8
DETAIL
  6
CONTINUOUS
 62
     5
 10
196.15043001741651
 20
-164.4577131545102
 30
0.0
 40
226.92854271772731
 50
273.75195669349472
 51
300.72569240217882
  0
LINE
  8
DETAIL
  6
CONTINUOUS
 62
     5
 10
336.70000000000078
 20
93.052496856999824
 30
0.0
 11
291.70000000000078
 21
93.052496856999824
 31
0.0
  0
LINE
  8
DETAIL
  6
CONTINUOUS
 62
     5
 10
336.70000000000078
 20
-93.052496857099882
 30
0.0
 11
291.70000000000078
 21
-93.052496857099882
 31
0.0
  0
ARC
  8
DETAIL
  6
CONTINUOUS
 62
     5
 10
-738.42428864743101
 20
-523.11337607208122
 30
0.0
 40
1073.29526801613
 50
19.332817183228759
 51
39.023982260485717
  0
ARC
  8
DETAIL
  6
CONTINUOUS
 62
     5
 10
270.93704735429861
 20
-169.84610120302841
 30
0.0
 40
3.9820712580191882
 50
217.4125498549769
 51
31.024898088692691
  0
ARC
  8
DETAIL
  6
CONTINUOUS
 62
     5
 10
-2290.083113135463
 20
-1583.9728981324411
 30
0.0
 40
2921.5666817076572
 50
28.894753392036119
 51
35.243667782445371
  0
ARC
  8
DETAIL
  6
CONTINUOUS
 62
     5
 10
47.440726824741432
 20
-44.691050445612753
 30
0.0
 40
100.6952384704319
 50
298.81321195326723
 51
335.67968624871418
  0
ARC
  8
DETAIL
  6
CONTINUOUS
 62
     5
 10
25.681499015732701
 20
10.41407232257734
 30
0.0
 40
113.5973769096221
 50
2.1352603948529989
 51
19.82947857999941
  0
LINE
  8
DETAIL
  6
CONTINUOUS
 62
     5
 10
252.25235867121461
 20
-144.5
 30
0.0
 11
225.2000000000003
 21
-144.5
 31
0.0
  0
LINE
  8
DETAIL
  6
CONTINUOUS
 62
     5
 10
225.2000000000003
 20
-144.5
 30
0.0
 11
225.2000000000003
 21
-97.735118892570654
 31
0.0
  0
LINE
  8
DETAIL
  6
CONTINUOUS
 62
     5
 10
225.2000000000003
 20
-50.470844474946489
 30
0.0
 11
225.2000000000003
 21
144.5
 31
0.0
  0
LINE
  8
DETAIL
  6
CONTINUOUS
 62
     5
 10
225.2000000000003
 20
144.5
 30
0.0
 11
291.70000000000027
 21
144.5
 31
0.0
  0
LINE
  8
DETAIL
  6
CONTINUOUS
 62
     5
 10
403.20000000000022
 20
144.5
 30
0.0
 11
403.20000000000022
 21
-144.5
 31
0.0
  0
LINE
  8
DETAIL
  6
CONTINUOUS
 62
     5
 10
403.20000000000022
 20
-144.5
 30
0.0
 11
336.70000000000027
 21
-144.5
 31
0.0
  0
ARC
  8
OUTLINE
  6
CONTINUOUS
 62
     3
 10
257.89231905346969
 20
-281.00860683587518
 30
0.0
 40
95.412916993187309
 50
304.61658311693679
 51
2.6153661390081679
  0
ARC
  8
OUTLINE
  6
CONTINUOUS
 62
     3
 10
214.3562622634054
 20
222.34291661288719
 30
0.0
 40
168.59037203647071
 50
56.640672095863323
 51
91.140707886325345
  0
ARC
  8
OUTLINE
  6
CONTINUOUS
 62
     3
 10
260.97554449237208
 20
283.10869123854258
 30
0.0
 40
92.366400885940649
 50
352.54093654421217
 51
60.069213915136302
  0
ARC
  8
OUTLINE
  6
CONTINUOUS
 62
     3
 10
196.15043001741651
 20
-164.4577131545102
 30
0.0
 40
226.92854271772731
 50
273.75195669349472
 51
300.72569240217882
  0
LINE
  8
BASIS
  6
DASHDOT
 62
     6
 10
0.0000000000004547
 20
470.0
 30
0.0
 11
0.0000000000004547
 21
430.0
 31
0.0
  0
LINE
  8
BASIS
  6
DASHDOT
 62
     6
 10
-19.999999999999549
 20
450.0
 30
0.0
 11
20.000000000000451
 21
450.0
 31
0.0
  0
LINE
  8
BASIS
  6
DASHDOT
 62
     6
 10
0.0
 20
220.0
 30
0.0
 11
0.0
 21
180.0
 31
0.0
  0
LINE
  8
BASIS
  6
DASHDOT
 62
     6
 10
-20.0
 20
200.0
 30
0.0
 11
20.0
 21
200.0
 31
0.0
  0
LINE
  8
BASIS
  6
DASHDOT
 62
     6
 10
0.0
 20
-180.0
 30
0.0
 11
0.0
 21
-220.0
 31
0.0
  0
LINE
  8
BASIS
  6
DASHDOT
 62
     6
 10
-20.0
 20
-200.0
 30
0.0
 11
20.0
 21
-200.0
 31
0.0
  0
LINE
  8
BASIS
  6
DASHDOT
 62
     6
 10
0.0
 20
-430.0
 30
0.0
 11
0.0
 21
-470.0
 31
0.0
  0
LINE
  8
BASIS
  6
DASHDOT
 62
     6
 10
-20.0
 20
-450.0
 30
0.0
 11
20.0
 21
-450.0
 31
0.0
  0
TEXT
  8
ETC
  6
CONTINUOUS
 62
    61
 10
557.5962852714332
 20
1006.004298309206
 30
0.0
 40
64.0
  1
EWG-80LTA2-PR-50_5
 41
0.9
  0
TEXT
  8
ETC
  6
CONTINUOUS
 62
    61
 10
553.41029127143292
 20
888.04898829437502
 30
0.0
 40
64.0
  1
有圧換気扇
 41
0.9
  0
TEXT
  8
ETC
  6
CONTINUOUS
 62
    61
 10
604.11168951998889
 20
779.90021540814973
 30
0.0
 40
40.0
  1
EWG-80LTA2-PR-50
 41
0.9
  0
TEXT
  8
ETC
  6
CONTINUOUS
 62
    61
 10
604.11168951998889
 20
713.90021540814962
 30
0.0
 40
40.0
  1
EWG-80LTA2-PR-60
 41
0.9
  0
LINE
  8
DETAIL
  6
CONTINUOUS
 62
     5
 10
155.0
 20
-27.5
 30
0.0
 11
155.0
 21
15.126987904725871
 31
0.0
  0
LINE
  8
DETAIL
  6
CONTINUOUS
 62
     5
 10
155.5
 20
-26.99994463360008
 30
0.0
 11
155.5
 21
14.362208286405579
 31
0.0
  0
LINE
  8
DETAIL
  6
CONTINUOUS
 62
     5
 10
178.5508736817001
 20
-36.946041126200278
 30
0.0
 11
178.4368089882
 21
-36.646580628099848
 31
0.0
  0
LINE
  8
DETAIL
  6
CONTINUOUS
 62
     5
 10
179.66315831210019
 20
-38.528599175000167
 30
0.0
 11
179.43062504630009
 21
-38.296582477000356
 31
0.0
  0
LINE
  8
DETAIL
  6
CONTINUOUS
 62
     5
 10
179.43062504630009
 20
-38.296582477000356
 30
0.0
 11
179.2157560597002
 21
-38.050244355500134
 31
0.0
  0
LINE
  8
DETAIL
  6
CONTINUOUS
 62
     5
 10
179.2157560597002
 20
-38.050244355500134
 30
0.0
 11
179.0195894015001
 21
-37.790851402899989
 31
0.0
  0
LINE
  8
DETAIL
  6
CONTINUOUS
 62
     5
 10
179.0195894015001
 20
-37.790851402899989
 30
0.0
 11
178.84289588990029
 21
-37.519516261199897
 31
0.0
  0
LINE
  8
DETAIL
  6
CONTINUOUS
 62
     5
 10
178.84289588990029
 20
-37.519516261199897
 30
0.0
 11
178.6864753328
 21
-37.237559191700257
 31
0.0
  0
LINE
  8
DETAIL
  6
CONTINUOUS
 62
     5
 10
178.6864753328
 20
-37.237559191700257
 30
0.0
 11
178.55093614980021
 21
-36.946188859500133
 31
0.0
  0
LINE
  8
DETAIL
  6
CONTINUOUS
 62
     5
 10
187.03715623040031
 20
-40.207009116400059
 30
0.0
 11
187.0398531596002
 21
-40.209695039100097
 31
0.0
  0
LINE
  8
DETAIL
  6
CONTINUOUS
 62
     5
 10
187.0398531596002
 20
-40.209695039100097
 30
0.0
 11
187.03369227590019
 21
-40.204315833900168
 31
0.0
  0
LINE
  8
DETAIL
  6
CONTINUOUS
 62
     5
 10
187.03369227590019
 20
-40.204315833900168
 30
0.0
 11
187.01840000719989
 21
-40.192114316200318
 31
0.0
  0
LINE
  8
DETAIL
  6
CONTINUOUS
 62
     5
 10
187.01840000719989
 20
-40.192114316200318
 30
0.0
 11
186.99407826559991
 21
-40.174540072699983
 31
0.0
  0
LINE
  8
DETAIL
  6
CONTINUOUS
 62
     5
 10
186.99407826559991
 20
-40.174540072699983
 30
0.0
 11
186.95909940169989
 21
-40.151708622100159
 31
0.0
  0
LINE
  8
DETAIL
  6
CONTINUOUS
 62
     5
 10
186.95909940169989
 20
-40.151708622100159
 30
0.0
 11
186.91121383110021
 21
-40.123639663900121
 31
0.0
  0
LINE
  8
DETAIL
  6
CONTINUOUS
 62
     5
 10
179.91240522330011
 20
-38.745293606500127
 30
0.0
 11
179.66315396129991
 21
-38.528595150899953
 31
0.0
  0
LINE
  8
DETAIL
  6
CONTINUOUS
 62
     5
 10
186.9117120745
 20
-40.123916302700323
 30
0.0
 11
186.91121383110021
 21
-40.123639663900121
 31
0.0
  0
LINE
  8
DETAIL
  6
CONTINUOUS
 62
     5
 10
186.9117120745
 20
-40.123916302700323
 30
0.0
 11
186.87136876000019
 21
-40.102556573400307
 31
0.0
  0
LINE
  8
DETAIL
  6
CONTINUOUS
 62
     5
 10
186.87136876000019
 20
-40.102556573400307
 30
0.0
 11
186.78922179450001
 21
-40.064629932400287
 31
0.0
  0
LINE
  8
DETAIL
  6
CONTINUOUS
 62
     5
 10
186.78922179450001
 20
-40.064629932400287
 30
0.0
 11
186.6887574717002
 21
-40.026430491900094
 31
0.0
  0
LINE
  8
DETAIL
  6
CONTINUOUS
 62
     5
 10
186.68985497630001
 20
-40.026847794900277
 30
0.0
 11
186.57175195199989
 21
-39.991211666399977
 31
0.0
  0
LINE
  8
DETAIL
  6
CONTINUOUS
 62
     5
 10
186.5726589639003
 20
-39.991484678299898
 30
0.0
 11
186.4402586354004
 21
-39.961826417400061
 31
0.0
  0
LINE
  8
DETAIL
  6
CONTINUOUS
 62
     5
 10
186.12012400020009
 20
-39.920169860999977
 30
0.0
 11
185.8552112018001
 21
-39.898969823700092
 31
0.0
  0
LINE
  8
DETAIL
  6
CONTINUOUS
 62
     5
 10
185.85521318369999
 20
-39.898969982300052
 30
0.0
 11
185.59398873410009
 21
-39.888430748000253
 31
0.0
  0
LINE
  8
DETAIL
  6
CONTINUOUS
 62
     5
 10
183.20000006340021
 20
-39.88698796000017
 30
0.0
 11
183.0055365243002
 21
-39.883489631200057
 31
0.0
  0
LINE
  8
DETAIL
  6
CONTINUOUS
 62
     5
 10
183.0055365243002
 20
-39.883489631200057
 30
0.0
 11
182.67129185839991
 21
-39.861132429900408
 31
0.0
  0
LINE
  8
DETAIL
  6
CONTINUOUS
 62
     5
 10
182.67129185839991
 20
-39.861132429900408
 30
0.0
 11
182.33786005030021
 21
-39.817902219299867
 31
0.0
  0
LINE
  8
DETAIL
  6
CONTINUOUS
 62
     5
 10
182.33786005030021
 20
-39.817902219299867
 30
0.0
 11
182.00725407060011
 21
-39.753799388400239
 31
0.0
  0
LINE
  8
DETAIL
  6
CONTINUOUS
 62
     5
 10
182.00725407060011
 20
-39.753799388400239
 30
0.0
 11
181.68113724680009
 21
-39.668898112500308
 31
0.0
  0
LINE
  8
DETAIL
  6
CONTINUOUS
 62
     5
 10
181.68113724680009
 20
-39.668898112500308
 30
0.0
 11
181.3612350378003
 21
-39.563449545500127
 31
0.0
  0
LINE
  8
DETAIL
  6
CONTINUOUS
 62
     5
 10
181.3612350378003
 20
-39.563449545500127
 30
0.0
 11
181.0492546003002
 21
-39.437811716500157
 31
0.0
  0
LINE
  8
DETAIL
  6
CONTINUOUS
 62
     5
 10
181.0492546003002
 20
-39.437811716500157
 30
0.0
 11
180.74683569070021
 21
-39.292486460999953
 31
0.0
  0
LINE
  8
DETAIL
  6
CONTINUOUS
 62
     5
 10
180.74683569070021
 20
-39.292486460999953
 30
0.0
 11
180.45561213890011
 21
-39.128137869699913
 31
0.0
  0
LINE
  8
DETAIL
  6
CONTINUOUS
 62
     5
 10
180.45561213890011
 20
-39.128137869699913
 30
0.0
 11
180.17700013350029
 21
-38.945456957100298
 31
0.0
  0
LINE
  8
DETAIL
  6
CONTINUOUS
 62
     5
 10
180.17700013350029
 20
-38.945456957100298
 30
0.0
 11
179.91239992999999
 21
-38.745289341200078
 31
0.0
  0
LINE
  8
DETAIL
  6
CONTINUOUS
 62
     5
 10
185.59398873410009
 20
-39.888430748000253
 30
0.0
 11
185.45517716640009
 21
-39.88698796000017
 31
0.0
  0
LINE
  8
DETAIL
  6
CONTINUOUS
 62
     5
 10
185.45517716640009
 20
-39.88698796000017
 30
0.0
 11
183.20000006340021
 21
-39.88698796000017
 31
0.0
  0
LINE
  8
DETAIL
  6
CONTINUOUS
 62
     5
 10
173.7000000000003
 20
-35.0
 30
0.0
 11
174.5
 21
-35.0
 31
0.0
  0
LINE
  8
DETAIL
  6
CONTINUOUS
 62
     5
 10
161.5
 20
-27.800000000000171
 30
0.0
 11
168.7000000000003
 21
-27.800000000000171
 31
0.0
  0
LINE
  8
DETAIL
  6
CONTINUOUS
 62
     5
 10
139.20000553182521
 20
-27.5
 30
0.0
 11
155.0
 21
-27.5
 31
0.0
  0
LINE
  8
DETAIL
  6
CONTINUOUS
 62
     5
 10
175.24020202530031
 20
-18.300000000000171
 30
0.0
 11
174.5
 21
-18.300000000000171
 31
0.0
  0
LINE
  8
DETAIL
  6
CONTINUOUS
 62
     5
 10
173.7000000000003
 20
-35.0
 30
0.0
 11
173.7000000000007
 21
-13.8376660289091
 31
0.0
  0
LINE
  8
DETAIL
  6
CONTINUOUS
 62
     5
 10
174.5
 20
-35.0
 30
0.0
 11
174.5
 21
-15.093694971217021
 31
0.0
  0
LINE
  8
DETAIL
  6
CONTINUOUS
 62
     5
 10
178.4368687923002
 20
-36.646756583000297
 30
0.0
 11
178.34475359109999
 21
-36.340647007199998
 31
0.0
  0
LINE
  8
DETAIL
  6
CONTINUOUS
 62
     5
 10
178.34475359109999
 20
-36.340647007199998
 30
0.0
 11
178.27499748670019
 21
-36.029274870800243
 31
0.0
  0
LINE
  8
DETAIL
  6
CONTINUOUS
 62
     5
 10
178.27499748670019
 20
-36.029274870800243
 30
0.0
 11
178.22788519520009
 21
-35.7141350582001
 31
0.0
  0
LINE
  8
DETAIL
  6
CONTINUOUS
 62
     5
 10
178.22788519520009
 20
-35.7141350582001
 30
0.0
 11
178.20360406250029
 21
-35.396861350800009
 31
0.0
  0
LINE
  8
DETAIL
  6
CONTINUOUS
 62
     5
 10
178.20360406250029
 20
-35.396861350800009
 30
0.0
 11
178.20000002730009
 21
-35.218653274900127
 31
0.0
  0
LINE
  8
DETAIL
  6
CONTINUOUS
 62
     5
 10
186.4406804990999
 20
-39.961920692599961
 30
0.0
 11
186.34574375010021
 21
-39.94669383029985
 31
0.0
  0
LINE
  8
DETAIL
  6
CONTINUOUS
 62
     5
 10
186.34504562810031
 20
-39.946593705300067
 30
0.0
 11
186.34595021780021
 21
-39.946715855400271
 31
0.0
  0
LINE
  8
DETAIL
  6
CONTINUOUS
 62
     5
 10
186.34460546370011
 20
-39.946534419700129
 30
0.0
 11
186.12012400020009
 21
-39.920169860999977
 31
0.0
  0
LINE
  8
DETAIL
  6
CONTINUOUS
 62
     5
 10
137.98659736905159
 20
27.5
 30
0.0
 11
146.86312637186711
 21
27.5
 31
0.0
  0
LINE
  8
DETAIL
  6
CONTINUOUS
 62
     5
 10
155.5
 20
-27.0
 30
0.0
 11
155.0
 21
-27.5
 31
0.0
  0
ARC
  8
DETAIL
  6
CONTINUOUS
 62
     5
 10
161.5
 20
-21.800000000000171
 30
0.0
 40
6.0
 50
180.0
 51
270.0
  0
ARC
  8
DETAIL
  6
CONTINUOUS
 62
     5
 10
168.7000000000003
 20
-32.800000000000189
 30
0.0
 40
5.0
 50
0.0
 51
90.0
  0
ARC
  8
DETAIL
  6
CONTINUOUS
 62
     5
 10
185.45517716640009
 20
-46.0
 30
0.0
 40
5.0
 50
3.0000000000057652
 51
57.953803689589023
  0
ARC
  8
DETAIL
  6
CONTINUOUS
 62
     5
 10
189.7000000000003
 20
-39.21903553230004
 30
0.0
 40
3.0
 50
196.72226474181161
 51
237.95380368958911
  0
ARC
  8
DETAIL
  6
CONTINUOUS
 62
     5
 10
175.24020202530031
 20
-16.5
 30
0.0
 40
1.8
 50
270.0
 51
306.58322142881559
  0
LINE
  8
DETAIL
  6
CONTINUOUS
 62
     5
 10
178.2000000000007
 20
-20.921283797651309
 30
0.0
 11
178.2000000000003
 21
-35.218366790800253
 31
0.0
  0
LINE
  8
DETAIL
  6
CONTINUOUS
 62
     5
 10
291.70000000000027
 20
-144.5
 30
0.0
 11
265.87379648721537
 21
-144.5
 31
0.0
  0
LINE
  8
DETAIL
  6
CONTINUOUS
 62
     5
 10
336.70000000000027
 20
144.5
 30
0.0
 11
403.20000000000022
 21
144.5
 31
0.0
  0
ENDSEC
  0
EOF
