  0
SECTION
  2
HEADER
  9
$ACADVER
  1
AC1009
  9
$DWGCODEPAGE
  3
dos932
  9
$INSBASE
 10
0.0
 20
0.0
 30
0.0
  9
$EXTMIN
 10
-1096.257003031506
 20
-778.0151254008706
 30
-0.0015258207003583
  9
$EXTMAX
 10
1551.255810518345
 20
648.23914383100237
 30
0.0000000349246037
  9
$LIMMIN
 10
-2970.0
 20
-2100.0
  9
$LIMMAX
 10
2970.0
 20
2100.0
  9
$ORTHOMODE
 70
     1
  9
$REGENMODE
 70
     1
  9
$FILLMODE
 70
     1
  9
$QTEXTMODE
 70
     0
  9
$MIRRTEXT
 70
     0
  9
$LTSCALE
 40
20.0
  9
$ATTMODE
 70
     1
  9
$TEXTSIZE
 40
64.0
  9
$TRACEWID
 40
0.05
  9
$TEXTSTYLE
  7
STANDARD
  9
$CLAYER
  8
SIZE
  9
$CELTYPE
  6
CONTINUOUS
  9
$CECOLOR
 62
     7
  9
$DIMSCALE
 40
1.0
  9
$DIMASZ
 40
12.0
  9
$DIMEXO
 40
20.0
  9
$DIMDLI
 40
200.0
  9
$DIMRND
 40
0.0
  9
$DIMDLE
 40
0.0
  9
$DIMEXE
 40
20.0
  9
$DIMTP
 40
0.0
  9
$DIMTM
 40
0.0
  9
$DIMTXT
 40
64.0
  9
$DIMCEN
 40
0.09
  9
$DIMTSZ
 40
0.0
  9
$DIMTOL
 70
     0
  9
$DIMLIM
 70
     0
  9
$DIMTIH
 70
     0
  9
$DIMTOH
 70
     0
  9
$DIMSE1
 70
     0
  9
$DIMSE2
 70
     0
  9
$DIMTAD
 70
     1
  9
$DIMZIN
 70
     8
  9
$DIMBLK
  1

  9
$DIMASO
 70
     1
  9
$DIMSHO
 70
     0
  9
$DIMPOST
  1

  9
$DIMAPOST
  1

  9
$DIMALT
 70
     0
  9
$DIMALTD
 70
     2
  9
$DIMALTF
 40
25.399999999999999
  9
$DIMLFAC
 40
1.0
  9
$DIMTOFL
 70
     1
  9
$DIMTVP
 40
0.0
  9
$DIMTIX
 70
     1
  9
$DIMSOXD
 70
     0
  9
$DIMSAH
 70
     0
  9
$DIMBLK1
  1

  9
$DIMBLK2
  1

  9
$DIMSTYLE
  2
STANDARD
  9
$DIMCLRD
 70
     7
  9
$DIMCLRE
 70
     7
  9
$DIMCLRT
 70
     7
  9
$DIMTFAC
 40
1.0
  9
$DIMGAP
 40
25.0
  9
$LUNITS
 70
     2
  9
$LUPREC
 70
     4
  9
$SKETCHINC
 40
0.1
  9
$FILLETRAD
 40
3.0
  9
$AUNITS
 70
     1
  9
$AUPREC
 70
     3
  9
$MENU
  1
ACAD
  9
$ELEVATION
 40
0.0
  9
$PELEVATION
 40
0.0
  9
$THICKNESS
 40
0.0
  9
$LIMCHECK
 70
     0
  9
$CHAMFERA
 40
0.0
  9
$CHAMFERB
 40
0.0
  9
$SKPOLY
 70
     0
  9
$TDCREATE
 40
2453019.62301037
  9
$TDUPDATE
 40
2458949.461201678
  9
$TDINDWG
 40
1.7126780208
  9
$TDUSRTIMER
 40
1.7126780208
  9
$USRTIMER
 70
     1
  9
$ANGBASE
 50
0.0
  9
$ANGDIR
 70
     0
  9
$PDMODE
 70
     3
  9
$PDSIZE
 40
-2.0
  9
$PLINEWID
 40
0.0
  9
$SPLFRAME
 70
     0
  9
$SPLINETYPE
 70
     6
  9
$SPLINESEGS
 70
     8
  9
$SURFTAB1
 70
     6
  9
$SURFTAB2
 70
     6
  9
$SURFTYPE
 70
     6
  9
$SURFU
 70
     6
  9
$SURFV
 70
     6
  9
$UCSNAME
  2

  9
$UCSORG
 10
0.0
 20
0.0
 30
0.0
  9
$UCSXDIR
 10
1.0
 20
0.0
 30
0.0
  9
$UCSYDIR
 10
0.0
 20
1.0
 30
0.0
  9
$PUCSNAME
  2

  9
$PUCSORG
 10
0.0
 20
0.0
 30
0.0
  9
$PUCSXDIR
 10
1.0
 20
0.0
 30
0.0
  9
$PUCSYDIR
 10
0.0
 20
1.0
 30
0.0
  9
$USERI1
 70
     0
  9
$USERI2
 70
     0
  9
$USERI3
 70
     0
  9
$USERI4
 70
     0
  9
$USERI5
 70
     0
  9
$USERR1
 40
20.0
  9
$USERR2
 40
0.0
  9
$USERR3
 40
0.0
  9
$USERR4
 40
0.0
  9
$USERR5
 40
0.0
  9
$WORLDVIEW
 70
     1
  9
$SHADEDGE
 70
     3
  9
$SHADEDIF
 70
    70
  9
$TILEMODE
 70
     1
  9
$MAXACTVP
 70
    48
  9
$PINSBASE
 10
0.0
 20
0.0
 30
0.0
  9
$PLIMCHECK
 70
     0
  9
$PEXTMIN
 10
-100000000000000000000.0
 20
-100000000000000000000.0
 30
-100000000000000000000.0
  9
$PEXTMAX
 10
100000000000000000000.0
 20
100000000000000000000.0
 30
100000000000000000000.0
  9
$PLIMMIN
 10
0.0
 20
0.0
  9
$PLIMMAX
 10
12.0
 20
9.0
  9
$UNITMODE
 70
     0
  9
$VISRETAIN
 70
     0
  9
$PLINEGEN
 70
     0
  9
$PSLTSCALE
 70
     0
  9
$TREEDEPTH
 70
  3020
  9
$ATTDIA
 70
     0
  9
$ATTREQ
 70
     1
  9
$BLIPMODE
 70
     1
  9
$COORDS
 70
     1
  9
$DRAGMODE
 70
     2
  9
$OSMODE
 70
     0
  9
$HANDLING
 70
     0
  9
$HANDSEED
  5
F34F
  0
ENDSEC
  0
SECTION
  2
TABLES
  0
TABLE
  2
LTYPE
 70
     2
  0
LTYPE
  2
CONTINUOUS
 70
     0
  3
実線
 72
    65
 73
     0
 40
0.0
  0
LTYPE
  2
DASHDOT
 70
     0
  3
____ _ ____ _ ____ _ ____ _ ____ _ ____ _ ____
 72
    65
 73
     4
 40
5.5
 49
4.0
 49
-0.6
 49
0.3
 49
-0.6
  0
ENDTAB
  0
TABLE
  2
LAYER
 70
    12
  0
LAYER
  2
0
 70
     0
 62
     7
  6
CONTINUOUS
  0
LAYER
  2
BASIS
 70
     0
 62
     6
  6
DASHDOT
  0
LAYER
  2
OUTLINE
 70
     0
 62
     3
  6
CONTINUOUS
  0
LAYER
  2
DETAIL
 70
     0
 62
     5
  6
CONTINUOUS
  0
LAYER
  2
SIZE
 70
     0
 62
    30
  6
CONTINUOUS
  0
LAYER
  2
ARRANGE
 70
     0
 62
     1
  6
CONTINUOUS
  0
LAYER
  2
DEFPOINTS
 70
     0
 62
     7
  6
CONTINUOUS
  0
LAYER
  2
ETC
 70
     0
 62
    61
  6
CONTINUOUS
  0
LAYER
  2
FIX
 70
     0
 62
    11
  6
CONTINUOUS
  0
LAYER
  2
NOTE
 70
     0
 62
     4
  6
CONTINUOUS
  0
LAYER
  2
SERVICESPACE
 70
    64
 62
     2
  6
DASHDOT
  0
LAYER
  2
SYMBOLLINE
 70
    64
 62
    15
  6
CONTINUOUS
  0
ENDTAB
  0
TABLE
  2
STYLE
 70
     1
  0
STYLE
  2
STANDARD
 70
     0
 40
64.0
 41
0.9
 50
0.0
 71
     0
 42
64.0
  3
SIMPLEX.shx
  4
BIGFONT.shx
  0
ENDTAB
  0
TABLE
  2
APPID
 70
    19
  0
APPID
  2
ACAD
 70
     0
  0
APPID
  2
AUTOCAD_POSTSCRIPT_FIGURE
 70
     0
  0
APPID
  2
ACAD_EXEMPT_FROM_CAD_STANDARDS
 70
     0
  0
APPID
  2
ACAD_PSEXT
 70
     0
  0
APPID
  2
ACAUTHENVIRON
 70
     0
  0
APPID
  2
GENIUS_GENOENT_13
 70
     0
  0
APPID
  2
GENIUS_GENCFG_13
 70
     0
  0
APPID
  2
GENIUS_GENCFG0_13
 70
     0
  0
APPID
  2
GENIUS_GENCFG1_13
 70
     0
  0
APPID
  2
GENIUS_GENCFG2_13
 70
     0
  0
APPID
  2
GENIUS_GENCFG3_13
 70
     0
  0
APPID
  2
GENIUS_GENCFG4_13
 70
     0
  0
APPID
  2
GENIUS_GEVCFG0_13
 70
     0
  0
APPID
  2
CONTENTBLOCKICON
 70
     0
  0
APPID
  2
CONTENTBLOCKDESCRIPTION
 70
     0
  0
APPID
  2
ACAD_NAV_VCDISPLAY
 70
     0
  0
APPID
  2
ACAD_MLEADERVER
 70
     0
  0
APPID
  2
ACDBDYNAMICBLOCKTRUENAME
 70
     0
  0
APPID
  2
ACDBDYNAMICBLOCKGUID
 70
     0
  0
ENDTAB
  0
TABLE
  2
DIMSTYLE
 70
     1
  0
DIMSTYLE
  2
STANDARD
 70
     0
  3

  4

  5
_ORIGIN
  6

  7

 40
1.0
 41
12.0
 42
20.0
 43
200.0
 44
20.0
 45
0.0
 46
0.0
 47
0.0
 48
0.0
140
64.0
141
0.09
142
0.0
143
25.399999999999999
144
1.0
145
0.0
146
1.0
147
25.0
 71
     0
 72
     0
 73
     0
 74
     0
 75
     0
 76
     0
 77
     1
 78
     8
170
     0
171
     2
172
     1
173
     0
174
     1
175
     0
176
     7
177
     7
178
     7
  0
ENDTAB
  0
TABLE
  2
VIEW
 70
     1
  0
VIEW
  2
ALL
 70
     0
 40
4282.6198079999986
 10
0.0
 20
41.309904000000003
 41
5940.0
 11
0.0
 21
0.0
 31
1.0
 12
0.0
 22
0.0
 32
0.0
 42
50.0
 43
0.0
 44
0.0
 50
0.0
 71
     0
  0
ENDTAB
  0
TABLE
  2
UCS
 70
     0
  0
ENDTAB
  0
TABLE
  2
VPORT
 70
     1
  0
VPORT
  2
*ACTIVE
 70
     0
 10
0.0
 20
0.0
 11
1.0
 21
1.0
 12
227.49940374341989
 22
-64.887990784934118
 13
0.0
 23
0.0
 14
1.0
 24
1.0
 15
0.0
 25
0.0
 16
0.0
 26
0.0
 36
1.0
 17
0.0
 27
0.0
 37
0.0
 40
1520.525454184389
 41
1.747787610619469
 42
50.0
 43
0.0
 44
0.0
 50
0.0
 51
0.0
 71
     0
 72
  1000
 73
     1
 74
     3
 75
     0
 76
     0
 77
     0
 78
     0
  0
ENDTAB
  0
ENDSEC
  0
SECTION
  2
BLOCKS
  0
BLOCK
  8
0
  2
_ORIGIN
 70
     0
 10
0.0
 20
0.0
 30
0.0
  3
_ORIGIN
  1
_ORIGIN
  0
CIRCLE
  8
0
  6
CONTINUOUS
 62
     7
 10
0.0
 20
0.0
 30
0.0
 40
0.5
  0
LINE
  8
0
  6
CONTINUOUS
 62
     7
 10
0.0
 20
0.0
 30
0.0
 11
-1.0
 21
0.0
 31
0.0
  0
ENDBLK
  8
0
  0
ENDSEC
  0
SECTION
  2
ENTITIES
  0
POINT
  8
ARRANGE
  6
CONTINUOUS
 62
     1
 10
0.0
 20
0.0
 30
0.0
  0
CIRCLE
  8
ARRANGE
  6
CONTINUOUS
 62
     1
 10
0.0
 20
0.0
 30
0.0
 40
40.0
  0
LINE
  8
DETAIL
  6
CONTINUOUS
 62
     5
 10
633.93120772820021
 20
-3.200000000000045
 30
0.0
 11
633.92264876890022
 21
-3.0332626586999818
 31
0.0
  0
LINE
  8
DETAIL
  6
CONTINUOUS
 62
     5
 10
633.92264876890022
 20
-3.0332626586999818
 30
0.0
 11
633.91647595630002
 21
-2.866925729099989
 31
0.0
  0
LINE
  8
DETAIL
  6
CONTINUOUS
 62
     5
 10
633.91647595630002
 20
-2.866925729099989
 30
0.0
 11
633.91269144489979
 21
-2.701398962499979
 31
0.0
  0
LINE
  8
DETAIL
  6
CONTINUOUS
 62
     5
 10
633.91269144489979
 20
-2.701398962499979
 30
0.0
 11
633.91127890200005
 21
-2.522652461300027
 31
0.0
  0
LINE
  8
DETAIL
  6
CONTINUOUS
 62
     5
 10
640.0
 20
-3.200000000000045
 30
0.0
 11
640.0
 21
-50.0
 31
0.0
  0
LINE
  8
DETAIL
  6
CONTINUOUS
 62
     5
 10
638.40000000000009
 20
-3.200000000000045
 30
0.0
 11
638.40000000000009
 21
-8.5178233312000202
 31
0.0
  0
LINE
  8
DETAIL
  6
CONTINUOUS
 62
     5
 10
638.40000000000009
 20
-8.5178233312000202
 30
0.0
 11
638.40000000000009
 21
-50.0
 31
0.0
  0
LINE
  8
DETAIL
  6
CONTINUOUS
 62
     5
 10
636.80000000000018
 20
-1.600000000000023
 30
0.0
 11
636.80000000000018
 21
0.0
 31
0.0
  0
LINE
  8
DETAIL
  6
CONTINUOUS
 62
     5
 10
634.78096770189995
 20
-1.600000000000023
 30
0.0
 11
634.78096770189995
 21
0.0
 31
0.0
  0
LINE
  8
DETAIL
  6
CONTINUOUS
 62
     5
 10
630.0
 20
-198.40000000000009
 30
0.0
 11
630.0
 21
-200.0
 31
0.0
  0
LINE
  8
DETAIL
  6
CONTINUOUS
 62
     5
 10
633.91127890200005
 20
-2.522652461300027
 30
0.0
 11
633.91225797120023
 21
-2.375154107400022
 31
0.0
  0
LINE
  8
DETAIL
  6
CONTINUOUS
 62
     5
 10
633.91225797120023
 20
-2.375154107400022
 30
0.0
 11
633.91561170200021
 21
-2.2152714722999458
 31
0.0
  0
LINE
  8
DETAIL
  6
CONTINUOUS
 62
     5
 10
633.91561170200021
 20
-2.2152714722999458
 30
0.0
 11
633.92135814440007
 21
-2.0577981259000349
 31
0.0
  0
LINE
  8
DETAIL
  6
CONTINUOUS
 62
     5
 10
633.92135814440007
 20
-2.0577981259000349
 30
0.0
 11
633.92950076489979
 21
-1.903425258200059
 31
0.0
  0
LINE
  8
DETAIL
  6
CONTINUOUS
 62
     5
 10
633.92950076489979
 20
-1.903425258200059
 30
0.0
 11
633.94003431269994
 21
-1.7528328390999379
 31
0.0
  0
LINE
  8
DETAIL
  6
CONTINUOUS
 62
     5
 10
633.94003431269994
 20
-1.7528328390999379
 30
0.0
 11
633.95299312089992
 21
-1.6061272836000171
 31
0.0
  0
LINE
  8
DETAIL
  6
CONTINUOUS
 62
     5
 10
633.95299312089992
 20
-1.6061272836000171
 30
0.0
 11
633.96840968430024
 21
-1.463431232999937
 31
0.0
  0
LINE
  8
DETAIL
  6
CONTINUOUS
 62
     5
 10
633.96840968430024
 20
-1.463431232999937
 30
0.0
 11
633.98628426640016
 21
-1.325413369699959
 31
0.0
  0
LINE
  8
DETAIL
  6
CONTINUOUS
 62
     5
 10
633.98628426640016
 20
-1.325413369699959
 30
0.0
 11
634.00660288810013
 21
-1.192680868699995
 31
0.0
  0
LINE
  8
DETAIL
  6
CONTINUOUS
 62
     5
 10
634.00660288810013
 20
-1.192680868699995
 30
0.0
 11
634.02944077119992
 21
-1.0653697593999141
 31
0.0
  0
LINE
  8
DETAIL
  6
CONTINUOUS
 62
     5
 10
634.02944077119992
 20
-1.0653697593999141
 30
0.0
 11
634.05486426190009
 21
-0.9436553332999438
 31
0.0
  0
LINE
  8
DETAIL
  6
CONTINUOUS
 62
     5
 10
634.05486426190009
 20
-0.9436553332999438
 30
0.0
 11
634.08288600759988
 21
-0.8280474755999876
 31
0.0
  0
LINE
  8
DETAIL
  6
CONTINUOUS
 62
     5
 10
634.08288600759988
 20
-0.8280474755999876
 30
0.0
 11
634.11351775240018
 21
-0.7189928031999671
 31
0.0
  0
LINE
  8
DETAIL
  6
CONTINUOUS
 62
     5
 10
634.11351775240018
 20
-0.7189928031999671
 30
0.0
 11
634.14682855289993
 21
-0.6166755722999824
 31
0.0
  0
LINE
  8
DETAIL
  6
CONTINUOUS
 62
     5
 10
634.14682855289993
 20
-0.6166755722999824
 30
0.0
 11
634.18287313459996
 21
-0.5213097400999232
 31
0.0
  0
LINE
  8
DETAIL
  6
CONTINUOUS
 62
     5
 10
634.18287313459996
 20
-0.5213097400999232
 30
0.0
 11
634.22170623439979
 21
-0.4332277912999416
 31
0.0
  0
LINE
  8
DETAIL
  6
CONTINUOUS
 62
     5
 10
634.22170623439979
 20
-0.4332277912999416
 30
0.0
 11
634.26336762180017
 21
-0.3527089712999896
 31
0.0
  0
LINE
  8
DETAIL
  6
CONTINUOUS
 62
     5
 10
634.26336762180017
 20
-0.3527089712999896
 30
0.0
 11
634.30795692519996
 21
-0.2799840142999983
 31
0.0
  0
LINE
  8
DETAIL
  6
CONTINUOUS
 62
     5
 10
634.30795692519996
 20
-0.2799840142999983
 30
0.0
 11
634.3555543251
 21
-0.2152746228000524
 31
0.0
  0
LINE
  8
DETAIL
  6
CONTINUOUS
 62
     5
 10
634.3555543251
 20
-0.2152746228000524
 30
0.0
 11
634.40625793530035
 21
-0.1587600650999548
 31
0.0
  0
LINE
  8
DETAIL
  6
CONTINUOUS
 62
     5
 10
634.40625793530035
 20
-0.1587600650999548
 30
0.0
 11
634.46016690030001
 21
-0.110603024300076
 31
0.0
  0
LINE
  8
DETAIL
  6
CONTINUOUS
 62
     5
 10
634.46016690030001
 20
-0.110603024300076
 30
0.0
 11
634.51735830750022
 21
-0.0709740623999551
 31
0.0
  0
LINE
  8
DETAIL
  6
CONTINUOUS
 62
     5
 10
634.51735830750022
 20
-0.0709740623999551
 30
0.0
 11
634.57789180130021
 21
-0.0400078068000767
 31
0.0
  0
LINE
  8
DETAIL
  6
CONTINUOUS
 62
     5
 10
634.57789180130021
 20
-0.0400078068000767
 30
0.0
 11
634.64191885450009
 21
-0.0178095325999266
 31
0.0
  0
LINE
  8
DETAIL
  6
CONTINUOUS
 62
     5
 10
634.64191885450009
 20
-0.0178095325999266
 30
0.0
 11
634.70963224060006
 21
-0.0044575571999985
 31
0.0
  0
LINE
  8
DETAIL
  6
CONTINUOUS
 62
     5
 10
634.70963224060006
 20
-0.0044575571999985
 30
0.0
 11
634.78096770189995
 21
0.0
 31
0.0
  0
LINE
  8
DETAIL
  6
CONTINUOUS
 62
     5
 10
553.64987745110011
 20
-50.0
 30
0.0
 11
553.64987745110011
 21
-294.60000000000002
 31
0.0
  0
LINE
  8
DETAIL
  6
CONTINUOUS
 62
     5
 10
633.95981977349993
 20
-2.3697812703999261
 30
0.0
 11
633.94509776799987
 21
-2.4458194631999959
 31
0.0
  0
LINE
  8
DETAIL
  6
CONTINUOUS
 62
     5
 10
633.94509776799987
 20
-2.4458194631999959
 30
0.0
 11
633.93307482709997
 21
-2.5239657957999948
 31
0.0
  0
LINE
  8
DETAIL
  6
CONTINUOUS
 62
     5
 10
633.93307482709997
 20
-2.5239657957999948
 30
0.0
 11
633.9236879414002
 21
-2.604162876100077
 31
0.0
  0
LINE
  8
DETAIL
  6
CONTINUOUS
 62
     5
 10
493.14987745110011
 20
-50.0
 30
0.0
 11
493.14987745110011
 21
-294.60000000000002
 31
0.0
  0
LINE
  8
DETAIL
  6
CONTINUOUS
 62
     5
 10
288.93523848410001
 20
-3.200000000000045
 30
0.0
 11
288.89335084489989
 21
-3.0426793184999501
 31
0.0
  0
LINE
  8
DETAIL
  6
CONTINUOUS
 62
     5
 10
288.89335084489989
 20
-3.0426793184999501
 30
0.0
 11
288.85444300720019
 21
-2.8857774983998752
 31
0.0
  0
LINE
  8
DETAIL
  6
CONTINUOUS
 62
     5
 10
288.85444300720019
 20
-2.8857774983998752
 30
0.0
 11
288.81855148629978
 21
-2.729678775099956
 31
0.0
  0
LINE
  8
DETAIL
  6
CONTINUOUS
 62
     5
 10
288.81855148629978
 20
-2.729678775099956
 30
0.0
 11
288.78556673670028
 21
-2.574743458400008
 31
0.0
  0
LINE
  8
DETAIL
  6
CONTINUOUS
 62
     5
 10
288.78556673670028
 20
-2.574743458400008
 30
0.0
 11
288.75539915570022
 21
-2.4213076589999218
 31
0.0
  0
LINE
  8
DETAIL
  6
CONTINUOUS
 62
     5
 10
288.75539915570022
 20
-2.4213076589999218
 30
0.0
 11
288.72802543019998
 21
-2.2698112543000661
 31
0.0
  0
LINE
  8
DETAIL
  6
CONTINUOUS
 62
     5
 10
288.72802543019998
 20
-2.2698112543000661
 30
0.0
 11
288.70340530329992
 21
-2.1206927065999248
 31
0.0
  0
LINE
  8
DETAIL
  6
CONTINUOUS
 62
     5
 10
288.70340530329992
 20
-2.1206927065999248
 30
0.0
 11
288.68150000470001
 21
-1.974247312899934
 31
0.0
  0
LINE
  8
DETAIL
  6
CONTINUOUS
 62
     5
 10
288.68150000470001
 20
-1.974247312899934
 30
0.0
 11
288.66227003360018
 21
-1.8308071856999959
 31
0.0
  0
LINE
  8
DETAIL
  6
CONTINUOUS
 62
     5
 10
288.66227003360018
 20
-1.8308071856999959
 30
0.0
 11
288.64567732400019
 21
-1.6906669370999909
 31
0.0
  0
LINE
  8
DETAIL
  6
CONTINUOUS
 62
     5
 10
288.64567732400019
 20
-1.6906669370999909
 30
0.0
 11
288.63167406209999
 21
-1.554082224899958
 31
0.0
  0
LINE
  8
DETAIL
  6
CONTINUOUS
 62
     5
 10
288.63167406209999
 20
-1.554082224899958
 30
0.0
 11
288.62024999099998
 21
-1.4214760861999589
 31
0.0
  0
LINE
  8
DETAIL
  6
CONTINUOUS
 62
     5
 10
288.62024999099998
 20
-1.4214760861999589
 30
0.0
 11
288.61138250739992
 21
-1.2932505490999799
 31
0.0
  0
LINE
  8
DETAIL
  6
CONTINUOUS
 62
     5
 10
288.61138250739992
 20
-1.2932505490999799
 30
0.0
 11
288.60506083600012
 21
-1.1696319579999681
 31
0.0
  0
LINE
  8
DETAIL
  6
CONTINUOUS
 62
     5
 10
288.60506083600012
 20
-1.1696319579999681
 30
0.0
 11
288.60126437809998
 21
-1.0508667039998729
 31
0.0
  0
LINE
  8
DETAIL
  6
CONTINUOUS
 62
     5
 10
288.60126437809998
 20
-1.0508667039998729
 30
0.0
 11
288.59999999999991
 21
-0.9372583002000283
 31
0.0
  0
LINE
  8
DETAIL
  6
CONTINUOUS
 62
     5
 10
298.26476151590032
 20
-1.5999999999999091
 30
0.0
 11
298.26476151590032
 21
0.0
 31
0.0
  0
LINE
  8
DETAIL
  6
CONTINUOUS
 62
     5
 10
288.93523848410001
 20
-1.5999999999999091
 30
0.0
 11
288.93523848410001
 21
0.0
 31
0.0
  0
LINE
  8
DETAIL
  6
CONTINUOUS
 62
     5
 10
298.59999999999991
 20
-0.9372583002000283
 30
0.0
 11
298.59873562190018
 21
-1.0508667039998729
 31
0.0
  0
LINE
  8
DETAIL
  6
CONTINUOUS
 62
     5
 10
298.59873562190018
 20
-1.0508667039998729
 30
0.0
 11
298.59493916400021
 21
-1.1696319579999681
 31
0.0
  0
LINE
  8
DETAIL
  6
CONTINUOUS
 62
     5
 10
298.59493916400021
 20
-1.1696319579999681
 30
0.0
 11
298.58861749260001
 21
-1.2932505490999799
 31
0.0
  0
LINE
  8
DETAIL
  6
CONTINUOUS
 62
     5
 10
298.58861749260001
 20
-1.2932505490999799
 30
0.0
 11
298.57975000900018
 21
-1.4214760861999589
 31
0.0
  0
LINE
  8
DETAIL
  6
CONTINUOUS
 62
     5
 10
298.57975000900018
 20
-1.4214760861999589
 30
0.0
 11
298.56832593780018
 21
-1.554082224899958
 31
0.0
  0
LINE
  8
DETAIL
  6
CONTINUOUS
 62
     5
 10
298.56832593780018
 20
-1.554082224899958
 30
0.0
 11
298.55432267600008
 21
-1.6906669370999909
 31
0.0
  0
LINE
  8
DETAIL
  6
CONTINUOUS
 62
     5
 10
298.55432267600008
 20
-1.6906669370999909
 30
0.0
 11
298.53772996640009
 21
-1.8308071856999959
 31
0.0
  0
LINE
  8
DETAIL
  6
CONTINUOUS
 62
     5
 10
298.53772996640009
 20
-1.8308071856999959
 30
0.0
 11
298.51849999529992
 21
-1.974247312899934
 31
0.0
  0
LINE
  8
DETAIL
  6
CONTINUOUS
 62
     5
 10
298.51849999529992
 20
-1.974247312899934
 30
0.0
 11
298.49659469670001
 21
-2.1206927065999248
 31
0.0
  0
LINE
  8
DETAIL
  6
CONTINUOUS
 62
     5
 10
298.49659469670001
 20
-2.1206927065999248
 30
0.0
 11
298.47197456970031
 21
-2.2698112543000661
 31
0.0
  0
LINE
  8
DETAIL
  6
CONTINUOUS
 62
     5
 10
298.47197456970031
 20
-2.2698112543000661
 30
0.0
 11
298.44460084430011
 21
-2.4213076589999218
 31
0.0
  0
LINE
  8
DETAIL
  6
CONTINUOUS
 62
     5
 10
298.44460084430011
 20
-2.4213076589999218
 30
0.0
 11
298.41443326320001
 21
-2.574743458400008
 31
0.0
  0
LINE
  8
DETAIL
  6
CONTINUOUS
 62
     5
 10
298.41443326320001
 20
-2.574743458400008
 30
0.0
 11
298.38144851369998
 21
-2.729678775099956
 31
0.0
  0
LINE
  8
DETAIL
  6
CONTINUOUS
 62
     5
 10
298.38144851369998
 20
-2.729678775099956
 30
0.0
 11
298.34555699280008
 21
-2.8857774983998752
 31
0.0
  0
LINE
  8
DETAIL
  6
CONTINUOUS
 62
     5
 10
298.34555699280008
 20
-2.8857774983998752
 30
0.0
 11
298.30664915509988
 21
-3.0426793184999501
 31
0.0
  0
LINE
  8
DETAIL
  6
CONTINUOUS
 62
     5
 10
298.30664915509988
 20
-3.0426793184999501
 30
0.0
 11
298.26476151590032
 21
-3.200000000000045
 31
0.0
  0
LINE
  8
DETAIL
  6
CONTINUOUS
 62
     5
 10
288.59999999999991
 20
-0.9372583002000283
 30
0.0
 11
288.60126437809998
 21
-0.8290875012999095
 31
0.0
  0
LINE
  8
DETAIL
  6
CONTINUOUS
 62
     5
 10
288.60126437809998
 20
-0.8290875012999095
 30
0.0
 11
288.60506083600012
 21
-0.726620608400026
 31
0.0
  0
LINE
  8
DETAIL
  6
CONTINUOUS
 62
     5
 10
288.60506083600012
 20
-0.726620608400026
 30
0.0
 11
288.61138250739992
 21
-0.6301154633999886
 31
0.0
  0
LINE
  8
DETAIL
  6
CONTINUOUS
 62
     5
 10
288.61138250739992
 20
-0.6301154633999886
 30
0.0
 11
288.62024999099998
 21
-0.5397645426999134
 31
0.0
  0
LINE
  8
DETAIL
  6
CONTINUOUS
 62
     5
 10
288.62024999099998
 20
-0.5397645426999134
 30
0.0
 11
288.63167406209999
 21
-0.4557415066999511
 31
0.0
  0
LINE
  8
DETAIL
  6
CONTINUOUS
 62
     5
 10
288.63167406209999
 20
-0.4557415066999511
 30
0.0
 11
288.64567732400019
 21
-0.3783136769999373
 31
0.0
  0
LINE
  8
DETAIL
  6
CONTINUOUS
 62
     5
 10
288.64567732400019
 20
-0.3783136769999373
 30
0.0
 11
288.66227003360018
 21
-0.3077152564999324
 31
0.0
  0
LINE
  8
DETAIL
  6
CONTINUOUS
 62
     5
 10
288.66227003360018
 20
-0.3077152564999324
 30
0.0
 11
288.68150000470001
 21
-0.2440686153998968
 31
0.0
  0
LINE
  8
DETAIL
  6
CONTINUOUS
 62
     5
 10
288.68150000470001
 20
-0.2440686153998968
 30
0.0
 11
288.70340530329992
 21
-0.1875100386998838
 31
0.0
  0
LINE
  8
DETAIL
  6
CONTINUOUS
 62
     5
 10
288.70340530329992
 20
-0.1875100386998838
 30
0.0
 11
288.72802543019998
 21
-0.1381788265998694
 31
0.0
  0
LINE
  8
DETAIL
  6
CONTINUOUS
 62
     5
 10
288.72802543019998
 20
-0.1381788265998694
 30
0.0
 11
288.75539915570022
 21
-0.0961897224999575
 31
0.0
  0
LINE
  8
DETAIL
  6
CONTINUOUS
 62
     5
 10
288.75539915570022
 20
-0.0961897224999575
 30
0.0
 11
288.78556673670028
 21
-0.0616797075999784
 31
0.0
  0
LINE
  8
DETAIL
  6
CONTINUOUS
 62
     5
 10
288.78556673670028
 20
-0.0616797075999784
 30
0.0
 11
288.81855148629978
 21
-0.0347515190999275
 31
0.0
  0
LINE
  8
DETAIL
  6
CONTINUOUS
 62
     5
 10
288.81855148629978
 20
-0.0347515190999275
 30
0.0
 11
288.85444300720019
 21
-0.0154648345999249
 31
0.0
  0
LINE
  8
DETAIL
  6
CONTINUOUS
 62
     5
 10
288.85444300720019
 20
-0.0154648345999249
 30
0.0
 11
288.89335084489989
 21
-0.0038694951999787
 31
0.0
  0
LINE
  8
DETAIL
  6
CONTINUOUS
 62
     5
 10
288.89335084489989
 20
-0.0038694951999787
 30
0.0
 11
288.93523848410001
 21
0.0
 31
0.0
  0
LINE
  8
DETAIL
  6
CONTINUOUS
 62
     5
 10
108.04003992129989
 20
-514.54854861639978
 30
0.0
 11
102.0
 21
-517.99999999999989
 31
0.0
  0
LINE
  8
DETAIL
  6
CONTINUOUS
 62
     5
 10
91.585046789400167
 20
-512.24081062139987
 30
0.0
 11
90.844256254300035
 21
-512.47147829889991
 31
0.0
  0
LINE
  8
DETAIL
  6
CONTINUOUS
 62
     5
 10
90.844256254300035
 20
-512.47147829889991
 30
0.0
 11
90.120053463800105
 21
-512.66051998239982
 31
0.0
  0
LINE
  8
DETAIL
  6
CONTINUOUS
 62
     5
 10
90.120053463800105
 20
-512.66051998239982
 30
0.0
 11
89.415817978000177
 21
-512.80796234550007
 31
0.0
  0
LINE
  8
DETAIL
  6
CONTINUOUS
 62
     5
 10
89.415817978000177
 20
-512.80796234550007
 30
0.0
 11
88.721411117000116
 21
-512.91372536749998
 31
0.0
  0
LINE
  8
DETAIL
  6
CONTINUOUS
 62
     5
 10
88.721411117000116
 20
-512.91372536749998
 30
0.0
 11
88.026694201100327
 21
-512.97772902779991
 31
0.0
  0
LINE
  8
DETAIL
  6
CONTINUOUS
 62
     5
 10
88.026694201100327
 20
-512.97772902779991
 30
0.0
 11
87.335046790300112
 21
-512.99999999999989
 31
0.0
  0
LINE
  8
DETAIL
  6
CONTINUOUS
 62
     5
 10
83.085046789400167
 20
-512.24081062139987
 30
0.0
 11
82.344256254300035
 21
-512.47147829889991
 31
0.0
  0
LINE
  8
DETAIL
  6
CONTINUOUS
 62
     5
 10
82.344256254300035
 20
-512.47147829889991
 30
0.0
 11
81.620053463900149
 21
-512.66051998239982
 31
0.0
  0
LINE
  8
DETAIL
  6
CONTINUOUS
 62
     5
 10
81.620053463900149
 20
-512.66051998239982
 30
0.0
 11
80.915817978099767
 21
-512.80796234550007
 31
0.0
  0
LINE
  8
DETAIL
  6
CONTINUOUS
 62
     5
 10
80.915817978099767
 20
-512.80796234550007
 30
0.0
 11
80.22141111710016
 21
-512.91372536749998
 31
0.0
  0
LINE
  8
DETAIL
  6
CONTINUOUS
 62
     5
 10
80.22141111710016
 20
-512.91372536749998
 30
0.0
 11
79.526694201199916
 21
-512.97772902779991
 31
0.0
  0
LINE
  8
DETAIL
  6
CONTINUOUS
 62
     5
 10
79.526694201199916
 20
-512.97772902779991
 30
0.0
 11
78.835046790300112
 21
-512.99999999999989
 31
0.0
  0
LINE
  8
DETAIL
  6
CONTINUOUS
 62
     5
 10
197.78861406040011
 20
-411.71624593469988
 30
0.0
 11
197.66594334159981
 21
-413.69916105959999
 31
0.0
  0
LINE
  8
DETAIL
  6
CONTINUOUS
 62
     5
 10
194.60616823999999
 20
-411.52729313129998
 30
0.0
 11
194.68041675999979
 21
-410.32710033109993
 31
0.0
  0
LINE
  8
DETAIL
  6
CONTINUOUS
 62
     5
 10
194.7299275833002
 20
-409.52678089639988
 30
0.0
 11
194.80421330639999
 21
-408.32598672679978
 31
0.0
  0
LINE
  8
DETAIL
  6
CONTINUOUS
 62
     5
 10
194.0997972800001
 20
-408.23883098399972
 30
0.0
 11
193.79165519639989
 21
-413.21980447450011
 31
0.0
  0
LINE
  8
DETAIL
  6
CONTINUOUS
 62
     5
 10
186.47749274629999
 20
-408.53474620190002
 30
0.0
 11
186.76854216380019
 21
-407.38004597759988
 31
0.0
  0
LINE
  8
DETAIL
  6
CONTINUOUS
 62
     5
 10
204.04427023260001
 20
-409.59665023940011
 30
0.0
 11
204.00184614640011
 21
-409.62065923109992
 31
0.0
  0
LINE
  8
DETAIL
  6
CONTINUOUS
 62
     5
 10
204.00184614640011
 20
-409.62065923109992
 30
0.0
 11
202.6420069659998
 21
-410.27559294050002
 31
0.0
  0
LINE
  8
DETAIL
  6
CONTINUOUS
 62
     5
 10
202.6420069659998
 20
-410.27559294050002
 30
0.0
 11
201.2647440073001
 21
-410.82557489479967
 31
0.0
  0
LINE
  8
DETAIL
  6
CONTINUOUS
 62
     5
 10
201.2647440073001
 20
-410.82557489479967
 30
0.0
 11
199.87439707490009
 21
-411.26938878700003
 31
0.0
  0
LINE
  8
DETAIL
  6
CONTINUOUS
 62
     5
 10
199.87439707490009
 20
-411.26938878700003
 30
0.0
 11
198.47740606000019
 21
-411.60471930929998
 31
0.0
  0
LINE
  8
DETAIL
  6
CONTINUOUS
 62
     5
 10
198.47740606000019
 20
-411.60471930929998
 30
0.0
 11
197.07162433240001
 21
-411.83233823089989
 31
0.0
  0
LINE
  8
DETAIL
  6
CONTINUOUS
 62
     5
 10
201.68554147680021
 20
-409.23120511780007
 30
0.0
 11
201.53639005400009
 21
-409.31561413149967
 31
0.0
  0
LINE
  8
DETAIL
  6
CONTINUOUS
 62
     5
 10
201.53639005400009
 20
-409.31561413149967
 30
0.0
 11
200.17655087359981
 21
-409.97054784089988
 31
0.0
  0
LINE
  8
DETAIL
  6
CONTINUOUS
 62
     5
 10
200.17655087359981
 20
-409.97054784089988
 30
0.0
 11
198.79928791490011
 21
-410.52052979519999
 31
0.0
  0
LINE
  8
DETAIL
  6
CONTINUOUS
 62
     5
 10
198.79928791490011
 20
-410.52052979519999
 30
0.0
 11
197.4089409825001
 21
-410.9643436872999
 31
0.0
  0
LINE
  8
DETAIL
  6
CONTINUOUS
 62
     5
 10
197.4089409825001
 20
-410.9643436872999
 30
0.0
 11
196.0119499676002
 21
-411.29967420969979
 31
0.0
  0
LINE
  8
DETAIL
  6
CONTINUOUS
 62
     5
 10
196.0119499676002
 20
-411.29967420969979
 30
0.0
 11
194.60616823999999
 21
-411.52729313129998
 31
0.0
  0
LINE
  8
DETAIL
  6
CONTINUOUS
 62
     5
 10
69.243485111200243
 20
-506.09746058959968
 30
0.0
 11
68.980062333300339
 21
-506.18528633599999
 31
0.0
  0
LINE
  8
DETAIL
  6
CONTINUOUS
 62
     5
 10
68.980062333300339
 20
-506.18528633599999
 30
0.0
 11
68.703315188399756
 21
-506.29911793000008
 31
0.0
  0
LINE
  8
DETAIL
  6
CONTINUOUS
 62
     5
 10
68.703315188399756
 20
-506.29911793000008
 30
0.0
 11
68.414108487800149
 21
-506.44523712530003
 31
0.0
  0
LINE
  8
DETAIL
  6
CONTINUOUS
 62
     5
 10
68.414108487800149
 20
-506.44523712530003
 30
0.0
 11
68.109519864200138
 21
-506.60479866109989
 31
0.0
  0
LINE
  8
DETAIL
  6
CONTINUOUS
 62
     5
 10
68.109519864200138
 20
-506.60479866109989
 30
0.0
 11
67.786578227000064
 21
-506.75895727649993
 31
0.0
  0
LINE
  8
DETAIL
  6
CONTINUOUS
 62
     5
 10
67.786578227000064
 20
-506.75895727649993
 30
0.0
 11
67.446090809400175
 21
-506.9139947251
 31
0.0
  0
LINE
  8
DETAIL
  6
CONTINUOUS
 62
     5
 10
-74.585046789399712
 20
-512.24081062139987
 30
0.0
 11
-75.325837324599888
 21
-512.47147829889991
 31
0.0
  0
LINE
  8
DETAIL
  6
CONTINUOUS
 62
     5
 10
-75.325837324599888
 20
-512.47147829889991
 30
0.0
 11
-76.050040114999774
 21
-512.66051998239982
 31
0.0
  0
LINE
  8
DETAIL
  6
CONTINUOUS
 62
     5
 10
-76.050040114999774
 20
-512.66051998239982
 30
0.0
 11
-76.754275600899746
 21
-512.80796234550007
 31
0.0
  0
LINE
  8
DETAIL
  6
CONTINUOUS
 62
     5
 10
-76.754275600899746
 20
-512.80796234550007
 30
0.0
 11
-77.448682461799763
 21
-512.91372536749998
 31
0.0
  0
LINE
  8
DETAIL
  6
CONTINUOUS
 62
     5
 10
-77.448682461799763
 20
-512.91372536749998
 30
0.0
 11
-78.143399377700007
 21
-512.97772902779991
 31
0.0
  0
LINE
  8
DETAIL
  6
CONTINUOUS
 62
     5
 10
-78.143399377700007
 20
-512.97772902779991
 30
0.0
 11
-78.835046788500222
 21
-512.99999999999989
 31
0.0
  0
LINE
  8
DETAIL
  6
CONTINUOUS
 62
     5
 10
-83.085046789399712
 20
-512.24081062139987
 30
0.0
 11
-83.825837324499844
 21
-512.47147829889991
 31
0.0
  0
LINE
  8
DETAIL
  6
CONTINUOUS
 62
     5
 10
-83.825837324499844
 20
-512.47147829889991
 30
0.0
 11
-84.550040115000229
 21
-512.66051998239982
 31
0.0
  0
LINE
  8
DETAIL
  6
CONTINUOUS
 62
     5
 10
-84.550040115000229
 20
-512.66051998239982
 30
0.0
 11
-85.254275600799701
 21
-512.80796234550007
 31
0.0
  0
LINE
  8
DETAIL
  6
CONTINUOUS
 62
     5
 10
-85.254275600799701
 20
-512.80796234550007
 30
0.0
 11
-85.948682461699718
 21
-512.91372536749998
 31
0.0
  0
LINE
  8
DETAIL
  6
CONTINUOUS
 62
     5
 10
-85.948682461699718
 20
-512.91372536749998
 30
0.0
 11
-86.643399377599962
 21
-512.97772902779991
 31
0.0
  0
LINE
  8
DETAIL
  6
CONTINUOUS
 62
     5
 10
-86.643399377599962
 20
-512.97772902779991
 30
0.0
 11
-87.335046788500222
 21
-512.99999999999989
 31
0.0
  0
LINE
  8
DETAIL
  6
CONTINUOUS
 62
     5
 10
298.26476151590032
 20
-1.5999999999999091
 30
0.0
 11
298.31349263700031
 21
-1.6026566217999521
 31
0.0
  0
LINE
  8
DETAIL
  6
CONTINUOUS
 62
     5
 10
298.31349263700031
 20
-1.6026566217999521
 30
0.0
 11
298.35802062889979
 21
-1.6105640348999939
 31
0.0
  0
LINE
  8
DETAIL
  6
CONTINUOUS
 62
     5
 10
298.35802062889979
 20
-1.6105640348999939
 30
0.0
 11
298.39826624609992
 21
-1.6236158728999039
 31
0.0
  0
LINE
  8
DETAIL
  6
CONTINUOUS
 62
     5
 10
298.39826624609992
 20
-1.6236158728999039
 30
0.0
 11
298.43446722530012
 21
-1.641692030299964
 31
0.0
  0
LINE
  8
DETAIL
  6
CONTINUOUS
 62
     5
 10
298.43446722530012
 20
-1.641692030299964
 30
0.0
 11
298.46680033360008
 21
-1.664653269200016
 31
0.0
  0
LINE
  8
DETAIL
  6
CONTINUOUS
 62
     5
 10
298.46680033360008
 20
-1.664653269200016
 30
0.0
 11
298.49536923430009
 21
-1.6923701425998841
 31
0.0
  0
LINE
  8
DETAIL
  6
CONTINUOUS
 62
     5
 10
298.49536923430009
 20
-1.6923701425998841
 30
0.0
 11
298.52030784499988
 21
-1.7247045764999029
 31
0.0
  0
LINE
  8
DETAIL
  6
CONTINUOUS
 62
     5
 10
298.52030784499988
 20
-1.7247045764999029
 30
0.0
 11
298.54170216969987
 21
-1.76152347649986
 31
0.0
  0
LINE
  8
DETAIL
  6
CONTINUOUS
 62
     5
 10
298.54170216969987
 20
-1.76152347649986
 30
0.0
 11
298.5450300002999
 21
-1.769151881199946
 31
0.0
  0
LINE
  8
DETAIL
  6
CONTINUOUS
 62
     5
 10
298.26476151590032
 20
0.0
 30
0.0
 11
298.30664915509988
 21
-0.0038694951999787
 31
0.0
  0
LINE
  8
DETAIL
  6
CONTINUOUS
 62
     5
 10
298.30664915509988
 20
-0.0038694951999787
 30
0.0
 11
298.34555699280008
 21
-0.0154648345999249
 31
0.0
  0
LINE
  8
DETAIL
  6
CONTINUOUS
 62
     5
 10
298.34555699280008
 20
-0.0154648345999249
 30
0.0
 11
298.38144851369998
 21
-0.0347515190999275
 31
0.0
  0
LINE
  8
DETAIL
  6
CONTINUOUS
 62
     5
 10
298.38144851369998
 20
-0.0347515190999275
 30
0.0
 11
298.41443326320001
 21
-0.0616797075999784
 31
0.0
  0
LINE
  8
DETAIL
  6
CONTINUOUS
 62
     5
 10
298.41443326320001
 20
-0.0616797075999784
 30
0.0
 11
298.44460084430011
 21
-0.0961897224999575
 31
0.0
  0
LINE
  8
DETAIL
  6
CONTINUOUS
 62
     5
 10
298.44460084430011
 20
-0.0961897224999575
 30
0.0
 11
298.47197456970031
 21
-0.1381788265998694
 31
0.0
  0
LINE
  8
DETAIL
  6
CONTINUOUS
 62
     5
 10
298.47197456970031
 20
-0.1381788265998694
 30
0.0
 11
298.49659469670001
 21
-0.1875100386998838
 31
0.0
  0
LINE
  8
DETAIL
  6
CONTINUOUS
 62
     5
 10
298.49659469670001
 20
-0.1875100386998838
 30
0.0
 11
298.51849999529992
 21
-0.2440686153998968
 31
0.0
  0
LINE
  8
DETAIL
  6
CONTINUOUS
 62
     5
 10
298.51849999529992
 20
-0.2440686153998968
 30
0.0
 11
298.53772996640009
 21
-0.3077152564999324
 31
0.0
  0
LINE
  8
DETAIL
  6
CONTINUOUS
 62
     5
 10
298.53772996640009
 20
-0.3077152564999324
 30
0.0
 11
298.55432267600008
 21
-0.3783136769999373
 31
0.0
  0
LINE
  8
DETAIL
  6
CONTINUOUS
 62
     5
 10
298.55432267600008
 20
-0.3783136769999373
 30
0.0
 11
298.56832593780018
 21
-0.4557415066999511
 31
0.0
  0
LINE
  8
DETAIL
  6
CONTINUOUS
 62
     5
 10
298.56832593780018
 20
-0.4557415066999511
 30
0.0
 11
298.57975000900018
 21
-0.5397645426999134
 31
0.0
  0
LINE
  8
DETAIL
  6
CONTINUOUS
 62
     5
 10
298.57975000900018
 20
-0.5397645426999134
 30
0.0
 11
298.58861749260001
 21
-0.6301154633999886
 31
0.0
  0
LINE
  8
DETAIL
  6
CONTINUOUS
 62
     5
 10
298.58861749260001
 20
-0.6301154633999886
 30
0.0
 11
298.59493916400021
 21
-0.726620608400026
 31
0.0
  0
LINE
  8
DETAIL
  6
CONTINUOUS
 62
     5
 10
298.59493916400021
 20
-0.726620608400026
 30
0.0
 11
298.59873562190018
 21
-0.8290875012999095
 31
0.0
  0
LINE
  8
DETAIL
  6
CONTINUOUS
 62
     5
 10
298.59873562190018
 20
-0.8290875012999095
 30
0.0
 11
298.59999999999991
 21
-0.9372583002000283
 31
0.0
  0
LINE
  8
DETAIL
  6
CONTINUOUS
 62
     5
 10
189.40759315300011
 20
-413.21980447450011
 30
0.0
 11
189.7157352366003
 21
-408.23883098399972
 31
0.0
  0
LINE
  8
DETAIL
  6
CONTINUOUS
 62
     5
 10
288.65496999969992
 20
-1.769151881199946
 30
0.0
 11
288.6582978301999
 21
-1.76152347649986
 31
0.0
  0
LINE
  8
DETAIL
  6
CONTINUOUS
 62
     5
 10
288.6582978301999
 20
-1.76152347649986
 30
0.0
 11
288.67969215499988
 21
-1.7247045764999029
 31
0.0
  0
LINE
  8
DETAIL
  6
CONTINUOUS
 62
     5
 10
288.67969215499988
 20
-1.7247045764999029
 30
0.0
 11
288.70463076570007
 21
-1.6923701425998841
 31
0.0
  0
LINE
  8
DETAIL
  6
CONTINUOUS
 62
     5
 10
288.70463076570007
 20
-1.6923701425998841
 30
0.0
 11
288.7331996664002
 21
-1.664653269200016
 31
0.0
  0
LINE
  8
DETAIL
  6
CONTINUOUS
 62
     5
 10
288.7331996664002
 20
-1.664653269200016
 30
0.0
 11
288.7655327747002
 21
-1.641692030299964
 31
0.0
  0
LINE
  8
DETAIL
  6
CONTINUOUS
 62
     5
 10
288.7655327747002
 20
-1.641692030299964
 30
0.0
 11
288.80173375390001
 21
-1.6236158728999039
 31
0.0
  0
LINE
  8
DETAIL
  6
CONTINUOUS
 62
     5
 10
288.80173375390001
 20
-1.6236158728999039
 30
0.0
 11
288.84197937110002
 21
-1.6105640348999939
 31
0.0
  0
LINE
  8
DETAIL
  6
CONTINUOUS
 62
     5
 10
288.84197937110002
 20
-1.6105640348999939
 30
0.0
 11
288.88650736300002
 21
-1.6026566217999521
 31
0.0
  0
LINE
  8
DETAIL
  6
CONTINUOUS
 62
     5
 10
288.88650736300002
 20
-1.6026566217999521
 30
0.0
 11
288.93523848410001
 21
-1.5999999999999091
 31
0.0
  0
LINE
  8
DETAIL
  6
CONTINUOUS
 62
     5
 10
-67.446089199899689
 20
-506.91404022219979
 30
0.0
 11
-67.51628674199992
 21
-506.9583694575
 31
0.0
  0
LINE
  8
DETAIL
  6
CONTINUOUS
 62
     5
 10
187.12474886810011
 20
-345.75343373929991
 30
0.0
 11
187.35317998380009
 21
-345.61265063149972
 31
0.0
  0
LINE
  8
DETAIL
  6
CONTINUOUS
 62
     5
 10
187.35317998380009
 20
-345.61265063149972
 30
0.0
 11
188.73244776550021
 21
-344.89082128839982
 31
0.0
  0
LINE
  8
DETAIL
  6
CONTINUOUS
 62
     5
 10
188.73244776550021
 20
-344.89082128839982
 30
0.0
 11
190.13316751440021
 21
-344.28422177689993
 31
0.0
  0
LINE
  8
DETAIL
  6
CONTINUOUS
 62
     5
 10
190.13316751440021
 20
-344.28422177689993
 30
0.0
 11
191.55011953850001
 21
-343.79443224020002
 31
0.0
  0
LINE
  8
DETAIL
  6
CONTINUOUS
 62
     5
 10
191.55011953850001
 20
-343.79443224020002
 30
0.0
 11
192.97820239250001
 21
-343.42388540889988
 31
0.0
  0
LINE
  8
DETAIL
  6
CONTINUOUS
 62
     5
 10
192.97820239250001
 20
-343.42388540889988
 30
0.0
 11
194.4121531812998
 21
-343.17327971629982
 31
0.0
  0
LINE
  8
DETAIL
  6
CONTINUOUS
 62
     5
 10
194.4121531812998
 20
-343.17327971629982
 30
0.0
 11
195.8467516270002
 21
-343.04418897989967
 31
0.0
  0
LINE
  8
DETAIL
  6
CONTINUOUS
 62
     5
 10
195.8467516270002
 20
-343.04418897989967
 30
0.0
 11
197.27676843280011
 21
-343.03641977910002
 31
0.0
  0
LINE
  8
DETAIL
  6
CONTINUOUS
 62
     5
 10
197.27676843280011
 20
-343.03641977910002
 30
0.0
 11
198.6978452664998
 21
-343.15077600000012
 31
0.0
  0
LINE
  8
DETAIL
  6
CONTINUOUS
 62
     5
 10
198.22474523839989
 20
-408.69501328170003
 30
0.0
 11
197.59226672270009
 21
-408.91215157569991
 31
0.0
  0
LINE
  8
DETAIL
  6
CONTINUOUS
 62
     5
 10
197.59226672270009
 20
-408.91215157569991
 30
0.0
 11
196.16657736470009
 21
-409.27888900509993
 31
0.0
  0
LINE
  8
DETAIL
  6
CONTINUOUS
 62
     5
 10
196.16657736470009
 20
-409.27888900509993
 30
0.0
 11
194.7299275833002
 21
-409.52678089639988
 31
0.0
  0
LINE
  8
DETAIL
  6
CONTINUOUS
 62
     5
 10
634.78096770189995
 20
-1.600000000000023
 30
0.0
 11
634.70048029989994
 21
-1.602861899199979
 31
0.0
  0
LINE
  8
DETAIL
  6
CONTINUOUS
 62
     5
 10
634.70048029989994
 20
-1.602861899199979
 30
0.0
 11
634.6249648723001
 21
-1.611361442699945
 31
0.0
  0
LINE
  8
DETAIL
  6
CONTINUOUS
 62
     5
 10
634.6249648723001
 20
-1.611361442699945
 30
0.0
 11
634.55455398210006
 21
-1.625353832699943
 31
0.0
  0
LINE
  8
DETAIL
  6
CONTINUOUS
 62
     5
 10
634.55455398210006
 20
-1.625353832699943
 30
0.0
 11
634.48884994000036
 21
-1.6446843740000081
 31
0.0
  0
LINE
  8
DETAIL
  6
CONTINUOUS
 62
     5
 10
634.48884994000036
 20
-1.6446843740000081
 30
0.0
 11
634.42753911579985
 21
-1.66919231899999
 31
0.0
  0
LINE
  8
DETAIL
  6
CONTINUOUS
 62
     5
 10
634.42753911579985
 20
-1.66919231899999
 30
0.0
 11
634.37050189460024
 21
-1.698684179900056
 31
0.0
  0
LINE
  8
DETAIL
  6
CONTINUOUS
 62
     5
 10
634.37050189460024
 20
-1.698684179900056
 30
0.0
 11
634.31759857700035
 21
-1.7329296505999989
 31
0.0
  0
LINE
  8
DETAIL
  6
CONTINUOUS
 62
     5
 10
634.31759857700035
 20
-1.7329296505999989
 30
0.0
 11
634.26857578660019
 21
-1.771775028600018
 31
0.0
  0
LINE
  8
DETAIL
  6
CONTINUOUS
 62
     5
 10
634.26857578660019
 20
-1.771775028600018
 30
0.0
 11
634.22315527360024
 21
-1.815093595999997
 31
0.0
  0
LINE
  8
DETAIL
  6
CONTINUOUS
 62
     5
 10
634.22315527360024
 20
-1.815093595999997
 30
0.0
 11
634.18127195899979
 21
-1.8626292438000289
 31
0.0
  0
LINE
  8
DETAIL
  6
CONTINUOUS
 62
     5
 10
634.18127195899979
 20
-1.8626292438000289
 30
0.0
 11
634.14281950460008
 21
-1.9140881696999941
 31
0.0
  0
LINE
  8
DETAIL
  6
CONTINUOUS
 62
     5
 10
634.14281950460008
 20
-1.9140881696999941
 30
0.0
 11
634.10764343810024
 21
-1.9693525180999809
 31
0.0
  0
LINE
  8
DETAIL
  6
CONTINUOUS
 62
     5
 10
634.10764343810024
 20
-1.9693525180999809
 30
0.0
 11
634.0755578991002
 21
-2.028338945799987
 31
0.0
  0
LINE
  8
DETAIL
  6
CONTINUOUS
 62
     5
 10
634.0755578991002
 20
-2.028338945799987
 30
0.0
 11
634.04655071449997
 21
-2.090731390999963
 31
0.0
  0
LINE
  8
DETAIL
  6
CONTINUOUS
 62
     5
 10
634.04655071449997
 20
-2.090731390999963
 30
0.0
 11
634.02058965500009
 21
-2.156184097500045
 31
0.0
  0
LINE
  8
DETAIL
  6
CONTINUOUS
 62
     5
 10
634.02058965500009
 20
-2.156184097500045
 30
0.0
 11
633.99754902899986
 21
-2.2246034359000082
 31
0.0
  0
LINE
  8
DETAIL
  6
CONTINUOUS
 62
     5
 10
633.99754902899986
 20
-2.2246034359000082
 30
0.0
 11
633.97729335500026
 21
-2.2959183537999479
 31
0.0
  0
LINE
  8
DETAIL
  6
CONTINUOUS
 62
     5
 10
633.97729335500026
 20
-2.2959183537999479
 30
0.0
 11
633.95981977349993
 21
-2.3697812703999261
 31
0.0
  0
LINE
  8
DETAIL
  6
CONTINUOUS
 62
     5
 10
288.93523848410001
 20
0.0
 30
0.0
 11
-288.93523848410001
 21
0.0000000000001137
 31
0.0
  0
LINE
  8
DETAIL
  6
CONTINUOUS
 62
     5
 10
-298.26476151589992
 20
0.0000000000001137
 30
0.0
 11
-288.93523848410001
 21
0.0000000000001137
 31
0.0
  0
LINE
  8
DETAIL
  6
CONTINUOUS
 62
     5
 10
-298.26476151589992
 20
0.0000000000001137
 30
0.0
 11
-636.80000000000018
 21
0.0000000000001137
 31
0.0
  0
LINE
  8
DETAIL
  6
CONTINUOUS
 62
     5
 10
288.93523848410001
 20
0.0
 30
0.0
 11
298.26476151590032
 21
0.0
 31
0.0
  0
LINE
  8
DETAIL
  6
CONTINUOUS
 62
     5
 10
298.26476151590032
 20
0.0
 30
0.0
 11
636.80000000000018
 21
0.0
 31
0.0
  0
LINE
  8
DETAIL
  6
CONTINUOUS
 62
     5
 10
-636.80000000000018
 20
-1.5999999999999091
 30
0.0
 11
-634.78096770189995
 21
-1.5999999999999091
 31
0.0
  0
LINE
  8
DETAIL
  6
CONTINUOUS
 62
     5
 10
-298.26476151589992
 20
-1.5999999999999091
 30
0.0
 11
-288.93523848410001
 21
-1.5999999999999091
 31
0.0
  0
LINE
  8
DETAIL
  6
CONTINUOUS
 62
     5
 10
288.93523848410001
 20
-1.5999999999999091
 30
0.0
 11
298.26476151590032
 21
-1.5999999999999091
 31
0.0
  0
LINE
  8
DETAIL
  6
CONTINUOUS
 62
     5
 10
634.78096770189995
 20
-1.600000000000023
 30
0.0
 11
636.80000000000018
 21
-1.600000000000023
 31
0.0
  0
LINE
  8
DETAIL
  6
CONTINUOUS
 62
     5
 10
-638.40000000000009
 20
-3.1999999999998181
 30
0.0
 11
-640.0
 21
-3.1999999999998181
 31
0.0
  0
LINE
  8
DETAIL
  6
CONTINUOUS
 62
     5
 10
638.40000000000009
 20
-3.200000000000045
 30
0.0
 11
640.0
 21
-3.200000000000045
 31
0.0
  0
LINE
  8
DETAIL
  6
CONTINUOUS
 62
     5
 10
640.0
 20
-8.5178233312000202
 30
0.0
 11
638.40000000000009
 21
-8.5178233312000202
 31
0.0
  0
LINE
  8
DETAIL
  6
CONTINUOUS
 62
     5
 10
-640.0
 20
-8.5178233311999065
 30
0.0
 11
-638.40000000000009
 21
-8.5178233311999065
 31
0.0
  0
LINE
  8
DETAIL
  6
CONTINUOUS
 62
     5
 10
-288.93523848410001
 20
-1.5999999999999091
 30
0.0
 11
-288.88650736300002
 21
-1.6026566217999521
 31
0.0
  0
LINE
  8
DETAIL
  6
CONTINUOUS
 62
     5
 10
-288.88650736300002
 20
-1.6026566217999521
 30
0.0
 11
-288.84197937110002
 21
-1.61056403489988
 31
0.0
  0
LINE
  8
DETAIL
  6
CONTINUOUS
 62
     5
 10
-288.84197937110002
 20
-1.61056403489988
 30
0.0
 11
-288.80173375390001
 21
-1.6236158728997909
 31
0.0
  0
LINE
  8
DETAIL
  6
CONTINUOUS
 62
     5
 10
-288.80173375390001
 20
-1.6236158728997909
 30
0.0
 11
-288.76553277469981
 21
-1.641692030299851
 31
0.0
  0
LINE
  8
DETAIL
  6
CONTINUOUS
 62
     5
 10
-288.76553277469981
 20
-1.641692030299851
 30
0.0
 11
-288.73319966639968
 21
-1.664653269199903
 31
0.0
  0
LINE
  8
DETAIL
  6
CONTINUOUS
 62
     5
 10
-288.73319966639968
 20
-1.664653269199903
 30
0.0
 11
-288.70463076570007
 21
-1.6923701425998841
 31
0.0
  0
LINE
  8
DETAIL
  6
CONTINUOUS
 62
     5
 10
-288.70463076570007
 20
-1.6923701425998841
 30
0.0
 11
-288.67969215499988
 21
-1.724704576499789
 31
0.0
  0
LINE
  8
DETAIL
  6
CONTINUOUS
 62
     5
 10
-288.67969215499988
 20
-1.724704576499789
 30
0.0
 11
-288.65829783029989
 21
-1.76152347649986
 31
0.0
  0
LINE
  8
DETAIL
  6
CONTINUOUS
 62
     5
 10
-288.65829783029989
 20
-1.76152347649986
 30
0.0
 11
-288.65496999969992
 21
-1.7691518811998319
 31
0.0
  0
LINE
  8
DETAIL
  6
CONTINUOUS
 62
     5
 10
-634.78096770189995
 20
0.0000000000001137
 30
0.0
 11
-634.7096322407001
 21
-0.0044575571998848
 31
0.0
  0
LINE
  8
DETAIL
  6
CONTINUOUS
 62
     5
 10
-634.7096322407001
 20
-0.0044575571998848
 30
0.0
 11
-634.64191885459968
 21
-0.0178095324998822
 31
0.0
  0
LINE
  8
DETAIL
  6
CONTINUOUS
 62
     5
 10
-634.64191885459968
 20
-0.0178095324998822
 30
0.0
 11
-634.57789180159989
 21
-0.0400078065997604
 31
0.0
  0
LINE
  8
DETAIL
  6
CONTINUOUS
 62
     5
 10
-634.57789180159989
 20
-0.0400078065997604
 30
0.0
 11
-634.51735830799998
 21
-0.0709740620998218
 31
0.0
  0
LINE
  8
DETAIL
  6
CONTINUOUS
 62
     5
 10
-634.51735830799998
 20
-0.0709740620998218
 30
0.0
 11
-634.46016690079978
 21
-0.1106030238998983
 31
0.0
  0
LINE
  8
DETAIL
  6
CONTINUOUS
 62
     5
 10
-634.46016690079978
 20
-0.1106030238998983
 30
0.0
 11
-634.40625793580011
 21
-0.158760064499802
 31
0.0
  0
LINE
  8
DETAIL
  6
CONTINUOUS
 62
     5
 10
-634.40625793580011
 20
-0.158760064499802
 30
0.0
 11
-634.35555432599995
 21
-0.2152746216997912
 31
0.0
  0
LINE
  8
DETAIL
  6
CONTINUOUS
 62
     5
 10
-634.35555432599995
 20
-0.2152746216997912
 30
0.0
 11
-634.30795692629999
 21
-0.2799840124998809
 31
0.0
  0
LINE
  8
DETAIL
  6
CONTINUOUS
 62
     5
 10
-634.30795692629999
 20
-0.2799840124998809
 30
0.0
 11
-634.26336762279971
 21
-0.3527089694998722
 31
0.0
  0
LINE
  8
DETAIL
  6
CONTINUOUS
 62
     5
 10
-634.26336762279971
 20
-0.3527089694998722
 30
0.0
 11
-634.22170623540023
 21
-0.4332277892999628
 31
0.0
  0
LINE
  8
DETAIL
  6
CONTINUOUS
 62
     5
 10
-634.22170623540023
 20
-0.4332277892999628
 30
0.0
 11
-634.18287313600013
 21
-0.5213097364998021
 31
0.0
  0
LINE
  8
DETAIL
  6
CONTINUOUS
 62
     5
 10
-634.18287313600013
 20
-0.5213097364998021
 30
0.0
 11
-634.14682855459978
 21
-0.6166755674998967
 31
0.0
  0
LINE
  8
DETAIL
  6
CONTINUOUS
 62
     5
 10
-634.14682855459978
 20
-0.6166755674998967
 30
0.0
 11
-634.11351775349976
 21
-0.7189927994998016
 31
0.0
  0
LINE
  8
DETAIL
  6
CONTINUOUS
 62
     5
 10
-634.11351775349976
 20
-0.7189927994998016
 30
0.0
 11
-634.08288600790002
 21
-0.8280474743999093
 31
0.0
  0
LINE
  8
DETAIL
  6
CONTINUOUS
 62
     5
 10
-634.08288600790002
 20
-0.8280474743999093
 30
0.0
 11
-634.05486426149992
 21
-0.9436553350998338
 31
0.0
  0
LINE
  8
DETAIL
  6
CONTINUOUS
 62
     5
 10
-634.05486426149992
 20
-0.9436553350998338
 30
0.0
 11
-634.02944077029997
 21
-1.065369763899866
 31
0.0
  0
LINE
  8
DETAIL
  6
CONTINUOUS
 62
     5
 10
-634.02944077029997
 20
-1.065369763899866
 30
0.0
 11
-634.00660288729978
 21
-1.1926808734998531
 31
0.0
  0
LINE
  8
DETAIL
  6
CONTINUOUS
 62
     5
 10
-634.00660288729978
 20
-1.1926808734998531
 30
0.0
 11
-633.9862842657999
 21
-1.3254133736998031
 31
0.0
  0
LINE
  8
DETAIL
  6
CONTINUOUS
 62
     5
 10
-633.9862842657999
 20
-1.3254133736998031
 30
0.0
 11
-633.96840968390006
 21
-1.4634312364999
 31
0.0
  0
LINE
  8
DETAIL
  6
CONTINUOUS
 62
     5
 10
-633.96840968390006
 20
-1.4634312364999
 30
0.0
 11
-633.95299312059979
 21
-1.6061272864998271
 31
0.0
  0
LINE
  8
DETAIL
  6
CONTINUOUS
 62
     5
 10
-633.95299312059979
 20
-1.6061272864998271
 30
0.0
 11
-633.94003431249985
 21
-1.752832841799886
 31
0.0
  0
LINE
  8
DETAIL
  6
CONTINUOUS
 62
     5
 10
-633.94003431249985
 20
-1.752832841799886
 30
0.0
 11
-633.92950076479974
 21
-1.903425260699805
 31
0.0
  0
LINE
  8
DETAIL
  6
CONTINUOUS
 62
     5
 10
-633.92950076479974
 20
-1.903425260699805
 30
0.0
 11
-633.92135814430003
 21
-2.0577981278997872
 31
0.0
  0
LINE
  8
DETAIL
  6
CONTINUOUS
 62
     5
 10
-633.92135814430003
 20
-2.0577981278997872
 30
0.0
 11
-633.91561170190016
 21
-2.2152714738998611
 31
0.0
  0
LINE
  8
DETAIL
  6
CONTINUOUS
 62
     5
 10
-633.91561170190016
 20
-2.2152714738998611
 30
0.0
 11
-633.91225797119978
 21
-2.3751541090998671
 31
0.0
  0
LINE
  8
DETAIL
  6
CONTINUOUS
 62
     5
 10
-633.91225797119978
 20
-2.3751541090998671
 30
0.0
 11
-633.91127890210009
 21
-2.5226524612999128
 31
0.0
  0
LINE
  8
DETAIL
  6
CONTINUOUS
 62
     5
 10
-288.93523848410001
 20
0.0000000000001137
 30
0.0
 11
-288.89335084489989
 21
-0.003869495199865
 31
0.0
  0
LINE
  8
DETAIL
  6
CONTINUOUS
 62
     5
 10
-288.89335084489989
 20
-0.003869495199865
 30
0.0
 11
-288.85444300719968
 21
-0.0154648345999249
 31
0.0
  0
LINE
  8
DETAIL
  6
CONTINUOUS
 62
     5
 10
-288.85444300719968
 20
-0.0154648345999249
 30
0.0
 11
-288.81855148629978
 21
-0.0347515190998138
 31
0.0
  0
LINE
  8
DETAIL
  6
CONTINUOUS
 62
     5
 10
-288.81855148629978
 20
-0.0347515190998138
 30
0.0
 11
-288.78556673679992
 21
-0.0616797075998647
 31
0.0
  0
LINE
  8
DETAIL
  6
CONTINUOUS
 62
     5
 10
-288.78556673679992
 20
-0.0616797075998647
 30
0.0
 11
-288.75539915569971
 21
-0.0961897224999575
 31
0.0
  0
LINE
  8
DETAIL
  6
CONTINUOUS
 62
     5
 10
-288.75539915569971
 20
-0.0961897224999575
 30
0.0
 11
-288.72802543030002
 21
-0.1381788265998694
 31
0.0
  0
LINE
  8
DETAIL
  6
CONTINUOUS
 62
     5
 10
-288.72802543030002
 20
-0.1381788265998694
 30
0.0
 11
-288.70340530329992
 21
-0.1875100386998838
 31
0.0
  0
LINE
  8
DETAIL
  6
CONTINUOUS
 62
     5
 10
-288.70340530329992
 20
-0.1875100386998838
 30
0.0
 11
-288.68150000470001
 21
-0.2440686153997831
 31
0.0
  0
LINE
  8
DETAIL
  6
CONTINUOUS
 62
     5
 10
-288.68150000470001
 20
-0.2440686153997831
 30
0.0
 11
-288.66227003360018
 21
-0.3077152564998187
 31
0.0
  0
LINE
  8
DETAIL
  6
CONTINUOUS
 62
     5
 10
-288.66227003360018
 20
-0.3077152564998187
 30
0.0
 11
-288.64567732399968
 21
-0.3783136769998237
 31
0.0
  0
LINE
  8
DETAIL
  6
CONTINUOUS
 62
     5
 10
-288.64567732399968
 20
-0.3783136769998237
 30
0.0
 11
-288.63167406220009
 21
-0.4557415066998374
 31
0.0
  0
LINE
  8
DETAIL
  6
CONTINUOUS
 62
     5
 10
-288.63167406220009
 20
-0.4557415066998374
 30
0.0
 11
-288.62024999099998
 21
-0.5397645426999134
 31
0.0
  0
LINE
  8
DETAIL
  6
CONTINUOUS
 62
     5
 10
-288.62024999099998
 20
-0.5397645426999134
 30
0.0
 11
-288.61138250739992
 21
-0.6301154633998749
 31
0.0
  0
LINE
  8
DETAIL
  6
CONTINUOUS
 62
     5
 10
-288.61138250739992
 20
-0.6301154633998749
 30
0.0
 11
-288.60506083600012
 21
-0.7266206083999123
 31
0.0
  0
LINE
  8
DETAIL
  6
CONTINUOUS
 62
     5
 10
-288.60506083600012
 20
-0.7266206083999123
 30
0.0
 11
-288.60126437809998
 21
-0.8290875012999095
 31
0.0
  0
LINE
  8
DETAIL
  6
CONTINUOUS
 62
     5
 10
-288.60126437809998
 20
-0.8290875012999095
 30
0.0
 11
-288.59999999999991
 21
-0.9372583001999146
 31
0.0
  0
LINE
  8
DETAIL
  6
CONTINUOUS
 62
     5
 10
102.0
 20
-517.99999999999989
 30
0.0
 11
102.0
 21
-528.07140539550005
 31
0.0
  0
LINE
  8
DETAIL
  6
CONTINUOUS
 62
     5
 10
110.0
 20
-490.0
 30
0.0
 11
109.0460281907999
 21
-512.89532342149982
 31
0.0
  0
LINE
  8
DETAIL
  6
CONTINUOUS
 62
     5
 10
96.40848333060012
 20
-504.0
 30
0.0
 11
96.400870025199765
 21
-504.17434236239973
 31
0.0
  0
LINE
  8
DETAIL
  6
CONTINUOUS
 62
     5
 10
96.400870025199765
 20
-504.17434236239973
 30
0.0
 11
96.378090634900218
 21
-504.34734286649967
 31
0.0
  0
LINE
  8
DETAIL
  6
CONTINUOUS
 62
     5
 10
96.378090634900218
 20
-504.34734286649967
 30
0.0
 11
96.340320085700114
 21
-504.5176936851999
 31
0.0
  0
LINE
  8
DETAIL
  6
CONTINUOUS
 62
     5
 10
96.340320085700114
 20
-504.5176936851999
 30
0.0
 11
96.287847743500151
 21
-504.68409751019999
 31
0.0
  0
LINE
  8
DETAIL
  6
CONTINUOUS
 62
     5
 10
96.287847743500151
 20
-504.68409751019999
 30
0.0
 11
96.221074706700165
 21
-504.8452884141999
 31
0.0
  0
LINE
  8
DETAIL
  6
CONTINUOUS
 62
     5
 10
96.221074706700165
 20
-504.8452884141999
 30
0.0
 11
96.140509552500134
 21
-505.00004258249999
 31
0.0
  0
LINE
  8
DETAIL
  6
CONTINUOUS
 62
     5
 10
96.140509552500134
 20
-505.00004258249999
 30
0.0
 11
96.046766377599852
 21
-505.1471829226
 31
0.0
  0
LINE
  8
DETAIL
  6
CONTINUOUS
 62
     5
 10
96.046766377599852
 20
-505.1471829226
 30
0.0
 11
95.940557672699924
 21
-505.2855925522
 31
0.0
  0
LINE
  8
DETAIL
  6
CONTINUOUS
 62
     5
 10
95.940557672699924
 20
-505.2855925522
 30
0.0
 11
95.822691903600116
 21
-505.41421855179999
 31
0.0
  0
LINE
  8
DETAIL
  6
CONTINUOUS
 62
     5
 10
95.822691903600116
 20
-505.41421855179999
 30
0.0
 11
95.694064193399754
 21
-505.53208415080007
 31
0.0
  0
LINE
  8
DETAIL
  6
CONTINUOUS
 62
     5
 10
95.694064193399754
 20
-505.53208415080007
 30
0.0
 11
95.555653178899775
 21
-505.638292202
 31
0.0
  0
LINE
  8
DETAIL
  6
CONTINUOUS
 62
     5
 10
95.555653178899775
 20
-505.638292202
 30
0.0
 11
95.408509977600261
 21
-505.73203542260001
 31
0.0
  0
LINE
  8
DETAIL
  6
CONTINUOUS
 62
     5
 10
95.408509977600261
 20
-505.73203542260001
 30
0.0
 11
95.253754023399779
 21
-505.81259964029988
 31
0.0
  0
LINE
  8
DETAIL
  6
CONTINUOUS
 62
     5
 10
95.253754023399779
 20
-505.81259964029988
 30
0.0
 11
95.09256114560003
 21
-505.87937158189987
 31
0.0
  0
LINE
  8
DETAIL
  6
CONTINUOUS
 62
     5
 10
95.09256114560003
 20
-505.87937158189987
 30
0.0
 11
94.926157942099962
 21
-505.93184186629981
 31
0.0
  0
LINE
  8
DETAIL
  6
CONTINUOUS
 62
     5
 10
94.926157942099962
 20
-505.93184186629981
 30
0.0
 11
94.755809590199988
 21
-505.96961023279988
 31
0.0
  0
LINE
  8
DETAIL
  6
CONTINUOUS
 62
     5
 10
94.755809590199988
 20
-505.96961023279988
 30
0.0
 11
94.58281102050023
 21
-505.99238797810011
 31
0.0
  0
LINE
  8
DETAIL
  6
CONTINUOUS
 62
     5
 10
94.58281102050023
 20
-505.99238797810011
 30
0.0
 11
94.40848333060012
 21
-506.0
 31
0.0
  0
LINE
  8
DETAIL
  6
CONTINUOUS
 62
     5
 10
-640.0
 20
-49.999999999999893
 30
0.0
 11
640.0
 21
-50.0
 31
0.0
  0
LINE
  8
DETAIL
  6
CONTINUOUS
 62
     5
 10
493.14987745110011
 20
-65.0
 30
0.0
 11
-493.14987745110011
 21
-64.999999999999886
 31
0.0
  0
LINE
  8
DETAIL
  6
CONTINUOUS
 62
     5
 10
96.40848333060012
 20
-504.0
 30
0.0
 11
96.40848333060012
 21
-490.0
 31
0.0
  0
LINE
  8
DETAIL
  6
CONTINUOUS
 62
     5
 10
91.585046789400167
 20
-506.0
 30
0.0
 11
91.585046789400167
 21
-512.99999999999989
 31
0.0
  0
LINE
  8
DETAIL
  6
CONTINUOUS
 62
     5
 10
83.085046789400167
 20
-506.0
 30
0.0
 11
83.085046789400167
 21
-512.24081062139987
 31
0.0
  0
LINE
  8
DETAIL
  6
CONTINUOUS
 62
     5
 10
74.699999999999818
 20
-532.10909090910002
 30
0.0
 11
74.699999999999818
 21
-532.60909090910002
 31
0.0
  0
LINE
  8
DETAIL
  6
CONTINUOUS
 62
     5
 10
74.585046789400167
 20
-506.0
 30
0.0
 11
74.585046789400167
 21
-512.99999999999989
 31
0.0
  0
LINE
  8
DETAIL
  6
CONTINUOUS
 62
     5
 10
74.0
 20
-531.30909090910006
 30
0.0
 11
74.0
 21
-532.10909090910002
 31
0.0
  0
LINE
  8
DETAIL
  6
CONTINUOUS
 62
     5
 10
72.0
 20
-531.30909090910006
 30
0.0
 11
72.0
 21
-531.09090909089991
 31
0.0
  0
LINE
  8
DETAIL
  6
CONTINUOUS
 62
     5
 10
71.5
 20
-531.30909090910006
 30
0.0
 11
71.5
 21
-531.10864672730008
 31
0.0
  0
LINE
  8
DETAIL
  6
CONTINUOUS
 62
     5
 10
68.5
 20
-531.30909090910006
 30
0.0
 11
68.5
 21
-531.21771763679988
 31
0.0
  0
LINE
  8
DETAIL
  6
CONTINUOUS
 62
     5
 10
68.0
 20
-531.30909090910006
 30
0.0
 11
68.0
 21
-531.23636363629998
 31
0.0
  0
LINE
  8
DETAIL
  6
CONTINUOUS
 62
     5
 10
66.0
 20
-531.30909090910006
 30
0.0
 11
66.0
 21
-532.10909090910002
 31
0.0
  0
LINE
  8
DETAIL
  6
CONTINUOUS
 62
     5
 10
65.300000000000182
 20
-532.10909090910002
 30
0.0
 11
65.300000000000182
 21
-532.60909090910002
 31
0.0
  0
LINE
  8
DETAIL
  6
CONTINUOUS
 62
     5
 10
67.543224124100107
 20
-504.1680893875
 30
0.0
 11
68.044261176300097
 21
-490.0
 31
0.0
  0
LINE
  8
DETAIL
  6
CONTINUOUS
 62
     5
 10
47.0
 20
-543.99999999999989
 30
0.0
 11
47.0
 21
-532.96429730220007
 31
0.0
  0
LINE
  8
DETAIL
  6
CONTINUOUS
 62
     5
 10
18.300000000000178
 20
-199.99999999999989
 30
0.0
 11
18.300000000000178
 21
-200.04020202529989
 31
0.0
  0
LINE
  8
DETAIL
  6
CONTINUOUS
 62
     5
 10
208.2662164203002
 20
-349.02894651809981
 30
0.0
 11
207.43554440160011
 21
-348.29034420759967
 31
0.0
  0
LINE
  8
DETAIL
  6
CONTINUOUS
 62
     5
 10
207.43554440160011
 20
-348.29034420759967
 30
0.0
 11
206.26850990240021
 21
-347.39699813919992
 31
0.0
  0
LINE
  8
DETAIL
  6
CONTINUOUS
 62
     5
 10
206.26850990240021
 20
-347.39699813919992
 30
0.0
 11
205.0590085913
 21
-346.60892030400009
 31
0.0
  0
LINE
  8
DETAIL
  6
CONTINUOUS
 62
     5
 10
205.0590085913
 20
-346.60892030400009
 30
0.0
 11
203.81122965329999
 21
-345.92956847619968
 31
0.0
  0
LINE
  8
DETAIL
  6
CONTINUOUS
 62
     5
 10
203.81122965329999
 20
-345.92956847619968
 30
0.0
 11
202.52991815050021
 21
-345.36082231419982
 31
0.0
  0
LINE
  8
DETAIL
  6
CONTINUOUS
 62
     5
 10
202.52991815050021
 20
-345.36082231419982
 30
0.0
 11
201.21957474690001
 21
-344.90536711290002
 31
0.0
  0
LINE
  8
DETAIL
  6
CONTINUOUS
 62
     5
 10
201.21957474690001
 20
-344.90536711290002
 30
0.0
 11
199.88512182229991
 21
-344.56424373619973
 31
0.0
  0
LINE
  8
DETAIL
  6
CONTINUOUS
 62
     5
 10
199.88512182229991
 20
-344.56424373619973
 30
0.0
 11
198.5504964662
 21
-344.34168842280002
 31
0.0
  0
LINE
  8
DETAIL
  6
CONTINUOUS
 62
     5
 10
-18.300000000000178
 20
-199.99999999999989
 30
0.0
 11
-18.300000000000178
 21
-200.04020202529989
 31
0.0
  0
LINE
  8
DETAIL
  6
CONTINUOUS
 62
     5
 10
-47.0
 20
-543.99999999999989
 30
0.0
 11
-47.0
 21
-532.96429730220007
 31
0.0
  0
LINE
  8
DETAIL
  6
CONTINUOUS
 62
     5
 10
-47.0
 20
-203.99999999999989
 30
0.0
 11
-47.0
 21
-215.03570269769989
 31
0.0
  0
LINE
  8
DETAIL
  6
CONTINUOUS
 62
     5
 10
16.792893218800149
 20
-202.2928932187998
 30
0.0
 11
17.77279220609989
 21
-201.3129942314998
 31
0.0
  0
LINE
  8
DETAIL
  6
CONTINUOUS
 62
     5
 10
-69.243485111199789
 20
-241.90253941029991
 30
0.0
 11
-68.980062333299884
 21
-241.8147136639999
 31
0.0
  0
LINE
  8
DETAIL
  6
CONTINUOUS
 62
     5
 10
-68.980062333299884
 20
-241.8147136639999
 30
0.0
 11
-68.703315188499801
 21
-241.7008820698999
 31
0.0
  0
LINE
  8
DETAIL
  6
CONTINUOUS
 62
     5
 10
-68.703315188499801
 20
-241.7008820698999
 30
0.0
 11
-68.414108487800149
 21
-241.5547628745999
 31
0.0
  0
LINE
  8
DETAIL
  6
CONTINUOUS
 62
     5
 10
-68.414108487800149
 20
-241.5547628745999
 30
0.0
 11
-68.109519864199683
 21
-241.39520133879989
 31
0.0
  0
LINE
  8
DETAIL
  6
CONTINUOUS
 62
     5
 10
-68.109519864199683
 20
-241.39520133879989
 30
0.0
 11
-67.786578227100108
 21
-241.24104272339989
 31
0.0
  0
LINE
  8
DETAIL
  6
CONTINUOUS
 62
     5
 10
-67.786578227100108
 20
-241.24104272339989
 30
0.0
 11
-67.44609080939972
 21
-241.0860052747997
 31
0.0
  0
LINE
  8
DETAIL
  6
CONTINUOUS
 62
     5
 10
-69.243485111199789
 20
-241.90253941029991
 30
0.0
 11
-69.092887382500066
 21
-241.86781946059989
 31
0.0
  0
LINE
  8
DETAIL
  6
CONTINUOUS
 62
     5
 10
-69.092887382500066
 20
-241.86781946059989
 30
0.0
 11
-68.950696101599988
 21
-241.8490002505998
 31
0.0
  0
LINE
  8
DETAIL
  6
CONTINUOUS
 62
     5
 10
-68.950696101599988
 20
-241.8490002505998
 30
0.0
 11
-68.817341473899887
 21
-241.8465224142999
 31
0.0
  0
LINE
  8
DETAIL
  6
CONTINUOUS
 62
     5
 10
-68.817341473899887
 20
-241.8465224142999
 30
0.0
 11
-68.691655501899731
 21
-241.85906404999989
 31
0.0
  0
LINE
  8
DETAIL
  6
CONTINUOUS
 62
     5
 10
-68.691655501899731
 20
-241.85906404999989
 30
0.0
 11
-68.573152320399913
 21
-241.8852908337999
 31
0.0
  0
LINE
  8
DETAIL
  6
CONTINUOUS
 62
     5
 10
-68.573152320399913
 20
-241.8852908337999
 30
0.0
 11
-68.460185039099997
 21
-241.9256806661999
 31
0.0
  0
LINE
  8
DETAIL
  6
CONTINUOUS
 62
     5
 10
-68.460185039099997
 20
-241.9256806661999
 30
0.0
 11
-68.350667486400198
 21
-241.98021142379989
 31
0.0
  0
LINE
  8
DETAIL
  6
CONTINUOUS
 62
     5
 10
-68.350667486400198
 20
-241.98021142379989
 30
0.0
 11
-68.245390273599696
 21
-242.04904885399981
 31
0.0
  0
LINE
  8
DETAIL
  6
CONTINUOUS
 62
     5
 10
-68.245390273599696
 20
-242.04904885399981
 30
0.0
 11
-68.144105577900064
 21
-242.13254262820001
 31
0.0
  0
LINE
  8
DETAIL
  6
CONTINUOUS
 62
     5
 10
-68.144105577900064
 20
-242.13254262820001
 30
0.0
 11
-68.047841703099948
 21
-242.23011885079981
 31
0.0
  0
LINE
  8
DETAIL
  6
CONTINUOUS
 62
     5
 10
-68.047841703099948
 20
-242.23011885079981
 30
0.0
 11
-67.957352491399888
 21
-242.3413208388998
 31
0.0
  0
LINE
  8
DETAIL
  6
CONTINUOUS
 62
     5
 10
-67.957352491399888
 20
-242.3413208388998
 30
0.0
 11
-67.873227216100076
 21
-242.4661466266999
 31
0.0
  0
LINE
  8
DETAIL
  6
CONTINUOUS
 62
     5
 10
-67.873227216100076
 20
-242.4661466266999
 30
0.0
 11
-67.795778496099956
 21
-242.60507918479991
 31
0.0
  0
LINE
  8
DETAIL
  6
CONTINUOUS
 62
     5
 10
-67.795778496099956
 20
-242.60507918479991
 30
0.0
 11
-67.726597999800106
 21
-242.7562070214999
 31
0.0
  0
LINE
  8
DETAIL
  6
CONTINUOUS
 62
     5
 10
-67.726597999800106
 20
-242.7562070214999
 30
0.0
 11
-67.66712428089977
 21
-242.9183611762999
 31
0.0
  0
LINE
  8
DETAIL
  6
CONTINUOUS
 62
     5
 10
-67.66712428089977
 20
-242.9183611762999
 30
0.0
 11
-67.618144133699843
 21
-243.0897970268999
 31
0.0
  0
LINE
  8
DETAIL
  6
CONTINUOUS
 62
     5
 10
-67.618144133699843
 20
-243.0897970268999
 30
0.0
 11
-67.580788540699814
 21
-243.26919081789981
 31
0.0
  0
LINE
  8
DETAIL
  6
CONTINUOUS
 62
     5
 10
-67.580788540699814
 20
-243.26919081789981
 30
0.0
 11
-67.555461887799993
 21
-243.4541109896999
 31
0.0
  0
LINE
  8
DETAIL
  6
CONTINUOUS
 62
     5
 10
-67.555461887799993
 20
-243.4541109896999
 30
0.0
 11
-67.543032496900196
 21
-243.64132562989991
 31
0.0
  0
LINE
  8
DETAIL
  6
CONTINUOUS
 62
     5
 10
-67.543032496900196
 20
-243.64132562989991
 30
0.0
 11
-67.543223705899891
 21
-243.83191204249999
 31
0.0
  0
LINE
  8
DETAIL
  6
CONTINUOUS
 62
     5
 10
-47.963660381899899
 20
-216.0350421956999
 30
0.0
 11
-100.0726792362002
 21
-217.9299156084999
 31
0.0
  0
LINE
  8
DETAIL
  6
CONTINUOUS
 62
     5
 10
630.0
 20
-198.40000000000009
 30
0.0
 11
553.64987745110011
 21
-198.40000000000001
 31
0.0
  0
LINE
  8
DETAIL
  6
CONTINUOUS
 62
     5
 10
493.14987745110011
 20
-198.40000000000001
 30
0.0
 11
-493.14987745110011
 21
-198.39999999999989
 31
0.0
  0
LINE
  8
DETAIL
  6
CONTINUOUS
 62
     5
 10
-553.64987745110011
 20
-198.39999999999989
 30
0.0
 11
-630.0
 21
-198.39999999999989
 31
0.0
  0
LINE
  8
DETAIL
  6
CONTINUOUS
 62
     5
 10
630.0
 20
-200.0
 30
0.0
 11
553.64987745110011
 21
-199.99999999999989
 31
0.0
  0
LINE
  8
DETAIL
  6
CONTINUOUS
 62
     5
 10
493.14987745110011
 20
-199.99999999999989
 30
0.0
 11
-493.14987745110011
 21
-199.9999999999998
 31
0.0
  0
LINE
  8
DETAIL
  6
CONTINUOUS
 62
     5
 10
-553.64987745110011
 20
-199.9999999999998
 30
0.0
 11
-630.0
 21
-199.9999999999998
 31
0.0
  0
LINE
  8
DETAIL
  6
CONTINUOUS
 62
     5
 10
-46.0
 20
-202.99999999999989
 30
0.0
 11
46.0
 21
-202.99999999999989
 31
0.0
  0
LINE
  8
DETAIL
  6
CONTINUOUS
 62
     5
 10
-102.0
 20
-229.99999999999989
 30
0.0
 11
71.678776505451424
 21
-229.99999999999989
 31
0.0
  0
LINE
  8
DETAIL
  6
CONTINUOUS
 62
     5
 10
-91.585046789599801
 20
-234.99999999999989
 30
0.0
 11
-74.585046789200078
 21
-234.99999999999989
 31
0.0
  0
LINE
  8
DETAIL
  6
CONTINUOUS
 62
     5
 10
-94.408483330599665
 20
-241.99999999999989
 30
0.0
 11
-91.585046789399712
 21
-241.99999999999989
 31
0.0
  0
LINE
  8
DETAIL
  6
CONTINUOUS
 62
     5
 10
-91.585046789399712
 20
-241.99999999999989
 30
0.0
 11
-86.48707380299993
 21
-241.99999999999989
 31
0.0
  0
LINE
  8
DETAIL
  6
CONTINUOUS
 62
     5
 10
-86.48707380299993
 20
-241.99999999999989
 30
0.0
 11
-69.522632055100075
 21
-241.99999999999989
 31
0.0
  0
LINE
  8
DETAIL
  6
CONTINUOUS
 62
     5
 10
-78.835046790300112
 20
-234.99999999999989
 30
0.0
 11
-78.142790698499994
 21
-235.0223366569999
 31
0.0
  0
LINE
  8
DETAIL
  6
CONTINUOUS
 62
     5
 10
-78.142790698499994
 20
-235.0223366569999
 30
0.0
 11
-77.447758984800203
 21
-235.08638861369991
 31
0.0
  0
LINE
  8
DETAIL
  6
CONTINUOUS
 62
     5
 10
-77.447758984800203
 20
-235.08638861369991
 30
0.0
 11
-76.75337846930006
 21
-235.1921908736
 31
0.0
  0
LINE
  8
DETAIL
  6
CONTINUOUS
 62
     5
 10
-76.75337846930006
 20
-235.1921908736
 30
0.0
 11
-76.049368691799828
 21
-235.33963842589989
 31
0.0
  0
LINE
  8
DETAIL
  6
CONTINUOUS
 62
     5
 10
-76.049368691799828
 20
-235.33963842589989
 30
0.0
 11
-75.325449191800089
 21
-235.52862625969991
 31
0.0
  0
LINE
  8
DETAIL
  6
CONTINUOUS
 62
     5
 10
-75.325449191800089
 20
-235.52862625969991
 30
0.0
 11
-74.585046789399712
 21
-235.7591893785
 31
0.0
  0
LINE
  8
DETAIL
  6
CONTINUOUS
 62
     5
 10
-87.335046790300112
 20
-234.99999999999989
 30
0.0
 11
-86.642790698499994
 21
-235.0223366569999
 31
0.0
  0
LINE
  8
DETAIL
  6
CONTINUOUS
 62
     5
 10
-86.642790698499994
 20
-235.0223366569999
 30
0.0
 11
-85.947758984800203
 21
-235.08638861369991
 31
0.0
  0
LINE
  8
DETAIL
  6
CONTINUOUS
 62
     5
 10
-85.947758984800203
 20
-235.08638861369991
 30
0.0
 11
-85.25337846930006
 21
-235.1921908736
 31
0.0
  0
LINE
  8
DETAIL
  6
CONTINUOUS
 62
     5
 10
-85.25337846930006
 20
-235.1921908736
 30
0.0
 11
-84.549368691799828
 21
-235.33963842589989
 31
0.0
  0
LINE
  8
DETAIL
  6
CONTINUOUS
 62
     5
 10
-84.549368691799828
 20
-235.33963842589989
 30
0.0
 11
-83.825449191800089
 21
-235.52862625969991
 31
0.0
  0
LINE
  8
DETAIL
  6
CONTINUOUS
 62
     5
 10
-83.825449191800089
 20
-235.52862625969991
 30
0.0
 11
-83.085046789399712
 21
-235.7591893785
 31
0.0
  0
LINE
  8
DETAIL
  6
CONTINUOUS
 62
     5
 10
183.35896544000019
 20
-406.39181216399987
 30
0.0
 11
183.60743022430009
 21
-406.60710617209998
 31
0.0
  0
LINE
  8
DETAIL
  6
CONTINUOUS
 62
     5
 10
183.60743022430009
 20
-406.60710617209998
 30
0.0
 11
184.8118270574
 21
-407.50931480939988
 31
0.0
  0
LINE
  8
DETAIL
  6
CONTINUOUS
 62
     5
 10
184.8118270574
 20
-407.50931480939988
 30
0.0
 11
186.05802080259991
 21
-408.30611995859999
 31
0.0
  0
LINE
  8
DETAIL
  6
CONTINUOUS
 62
     5
 10
180.78538749379999
 20
-405.99307979459968
 30
0.0
 11
181.14197413190001
 21
-406.30206107249978
 31
0.0
  0
LINE
  8
DETAIL
  6
CONTINUOUS
 62
     5
 10
181.14197413190001
 20
-406.30206107249978
 30
0.0
 11
182.34637096500001
 21
-407.20426970969987
 31
0.0
  0
LINE
  8
DETAIL
  6
CONTINUOUS
 62
     5
 10
182.34637096500001
 20
-407.20426970969987
 30
0.0
 11
183.59256471019989
 21
-408.00107485899991
 31
0.0
  0
LINE
  8
DETAIL
  6
CONTINUOUS
 62
     5
 10
183.59256471019989
 20
-408.00107485899991
 30
0.0
 11
184.8761226318002
 21
-408.69031080140007
 31
0.0
  0
LINE
  8
DETAIL
  6
CONTINUOUS
 62
     5
 10
184.8761226318002
 20
-408.69031080140007
 30
0.0
 11
186.19286294130009
 21
-409.2690882933
 31
0.0
  0
LINE
  8
DETAIL
  6
CONTINUOUS
 62
     5
 10
186.19286294130009
 20
-409.2690882933
 30
0.0
 11
187.5381587841002
 21
-409.73599839119993
 31
0.0
  0
LINE
  8
DETAIL
  6
CONTINUOUS
 62
     5
 10
187.5381587841002
 20
-409.73599839119993
 30
0.0
 11
188.9052367779
 21
-410.0883725673998
 31
0.0
  0
LINE
  8
DETAIL
  6
CONTINUOUS
 62
     5
 10
188.9052367779
 20
-410.0883725673998
 30
0.0
 11
189.59400331989991
 21
-410.20657081050001
 31
0.0
  0
LINE
  8
DETAIL
  6
CONTINUOUS
 62
     5
 10
-16.792893218799691
 20
-202.2928932187998
 30
0.0
 11
-17.77279220609989
 21
-201.3129942314998
 31
0.0
  0
LINE
  8
DETAIL
  6
CONTINUOUS
 62
     5
 10
-68.044261176400141
 20
-490.0
 30
0.0
 11
-67.54322392289987
 21
-504.16808784129972
 31
0.0
  0
LINE
  8
DETAIL
  6
CONTINUOUS
 62
     5
 10
-67.543223668099927
 20
-504.16808705599999
 30
0.0
 11
-67.542510653200225
 21
-504.34237739960003
 31
0.0
  0
LINE
  8
DETAIL
  6
CONTINUOUS
 62
     5
 10
-67.542510653200225
 20
-504.34237739960003
 30
0.0
 11
-67.552445521800109
 21
-504.51424252060002
 31
0.0
  0
LINE
  8
DETAIL
  6
CONTINUOUS
 62
     5
 10
-67.552445521800109
 20
-504.51424252060002
 30
0.0
 11
-67.57325112189983
 21
-504.68464625069998
 31
0.0
  0
LINE
  8
DETAIL
  6
CONTINUOUS
 62
     5
 10
-67.57325112189983
 20
-504.68464625069998
 30
0.0
 11
-67.60423110569991
 21
-504.85069709429979
 31
0.0
  0
LINE
  8
DETAIL
  6
CONTINUOUS
 62
     5
 10
-67.60423110569991
 20
-504.85069709429979
 30
0.0
 11
-67.645073956399756
 21
-505.01016304929999
 31
0.0
  0
LINE
  8
DETAIL
  6
CONTINUOUS
 62
     5
 10
-67.645073956399756
 20
-505.01016304929999
 30
0.0
 11
-67.694836537899846
 21
-505.16202946679982
 31
0.0
  0
LINE
  8
DETAIL
  6
CONTINUOUS
 62
     5
 10
-67.694836537899846
 20
-505.16202946679982
 30
0.0
 11
-67.752662790800059
 21
-505.30458070359998
 31
0.0
  0
LINE
  8
DETAIL
  6
CONTINUOUS
 62
     5
 10
-67.752662790800059
 20
-505.30458070359998
 30
0.0
 11
-67.817978544800098
 21
-505.43768774079967
 31
0.0
  0
LINE
  8
DETAIL
  6
CONTINUOUS
 62
     5
 10
-67.817978544800098
 20
-505.43768774079967
 30
0.0
 11
-67.890225865000048
 21
-505.56092168319992
 31
0.0
  0
LINE
  8
DETAIL
  6
CONTINUOUS
 62
     5
 10
-67.890225865000048
 20
-505.56092168319992
 30
0.0
 11
-67.968502317899947
 21
-505.67346651629998
 31
0.0
  0
LINE
  8
DETAIL
  6
CONTINUOUS
 62
     5
 10
-67.968502317899947
 20
-505.67346651629998
 30
0.0
 11
-68.051873395899747
 21
-505.77436978089997
 31
0.0
  0
LINE
  8
DETAIL
  6
CONTINUOUS
 62
     5
 10
-68.051873395899747
 20
-505.77436978089997
 30
0.0
 11
-68.139888002599946
 21
-505.86361191660012
 31
0.0
  0
LINE
  8
DETAIL
  6
CONTINUOUS
 62
     5
 10
-68.139888002599946
 20
-505.86361191660012
 30
0.0
 11
-68.232215846800045
 21
-505.94095869779972
 31
0.0
  0
LINE
  8
DETAIL
  6
CONTINUOUS
 62
     5
 10
-68.232215846800045
 20
-505.94095869779972
 30
0.0
 11
-68.327569075099746
 21
-506.00610165959961
 31
0.0
  0
LINE
  8
DETAIL
  6
CONTINUOUS
 62
     5
 10
-68.327569075099746
 20
-506.00610165959961
 30
0.0
 11
-68.423699269199915
 21
-506.05822472649987
 31
0.0
  0
LINE
  8
DETAIL
  6
CONTINUOUS
 62
     5
 10
-68.423699269199915
 20
-506.05822472649987
 30
0.0
 11
-68.52318009640021
 21
-506.09861650359989
 31
0.0
  0
LINE
  8
DETAIL
  6
CONTINUOUS
 62
     5
 10
-68.52318009640021
 20
-506.09861650359989
 30
0.0
 11
-68.62764898639989
 21
-506.1286244181
 31
0.0
  0
LINE
  8
DETAIL
  6
CONTINUOUS
 62
     5
 10
-68.62764898639989
 20
-506.1286244181
 30
0.0
 11
-68.737632194699927
 21
-506.14725592910008
 31
0.0
  0
LINE
  8
DETAIL
  6
CONTINUOUS
 62
     5
 10
-68.737632194699927
 20
-506.14725592910008
 30
0.0
 11
-68.854250585200134
 21
-506.15425407419991
 31
0.0
  0
LINE
  8
DETAIL
  6
CONTINUOUS
 62
     5
 10
-68.854250585200134
 20
-506.15425407419991
 30
0.0
 11
-68.977333784499933
 21
-506.14875954550013
 31
0.0
  0
LINE
  8
DETAIL
  6
CONTINUOUS
 62
     5
 10
-68.977333784499933
 20
-506.14875954550013
 30
0.0
 11
-69.107117777500207
 21
-506.12970926079993
 31
0.0
  0
LINE
  8
DETAIL
  6
CONTINUOUS
 62
     5
 10
-69.107117777500207
 20
-506.12970926079993
 30
0.0
 11
-69.24349476640009
 21
-506.09745758069982
 31
0.0
  0
LINE
  8
DETAIL
  6
CONTINUOUS
 62
     5
 10
-74.585046789399712
 20
-241.99999999999989
 30
0.0
 11
-74.585046789399712
 21
-234.9999999999001
 31
0.0
  0
LINE
  8
DETAIL
  6
CONTINUOUS
 62
     5
 10
-74.585046789399712
 20
-506.0
 30
0.0
 11
-74.585046789399712
 21
-512.99999999999989
 31
0.0
  0
LINE
  8
DETAIL
  6
CONTINUOUS
 62
     5
 10
-83.085046789399712
 20
-241.99999999999989
 30
0.0
 11
-83.085046789399712
 21
-235.7591893785
 31
0.0
  0
LINE
  8
DETAIL
  6
CONTINUOUS
 62
     5
 10
-83.085046789399712
 20
-506.0
 30
0.0
 11
-83.085046789399712
 21
-512.24081062139987
 31
0.0
  0
LINE
  8
DETAIL
  6
CONTINUOUS
 62
     5
 10
-88.0
 20
-535.99999999999989
 30
0.0
 11
-88.0
 21
-531.54611548399998
 31
0.0
  0
LINE
  8
DETAIL
  6
CONTINUOUS
 62
     5
 10
-89.5
 20
-536.99999999999989
 30
0.0
 11
-89.5
 21
-538.19999999999993
 31
0.0
  0
LINE
  8
DETAIL
  6
CONTINUOUS
 62
     5
 10
-91.585046789399712
 20
-234.9999999999001
 30
0.0
 11
-91.585046789399712
 21
-241.99999999999989
 31
0.0
  0
LINE
  8
DETAIL
  6
CONTINUOUS
 62
     5
 10
-91.585046789399712
 20
-506.0
 30
0.0
 11
-91.585046789399712
 21
-512.99999999999989
 31
0.0
  0
LINE
  8
DETAIL
  6
CONTINUOUS
 62
     5
 10
-96.408483330599665
 20
-504.0
 30
0.0
 11
-96.408483330599665
 21
-490.0
 31
0.0
  0
LINE
  8
DETAIL
  6
CONTINUOUS
 62
     5
 10
-96.408483330599665
 20
-243.99999999999989
 30
0.0
 11
-96.408483330599665
 21
-257.99999999999989
 31
0.0
  0
LINE
  8
DETAIL
  6
CONTINUOUS
 62
     5
 10
-67.543224124100107
 20
-243.83191061249991
 30
0.0
 11
-68.044261176400141
 21
-257.99999999999989
 31
0.0
  0
LINE
  8
DETAIL
  6
CONTINUOUS
 62
     5
 10
-96.408483330599665
 20
-243.99999999999989
 30
0.0
 11
-96.400870025199765
 21
-243.8256576375999
 31
0.0
  0
LINE
  8
DETAIL
  6
CONTINUOUS
 62
     5
 10
-96.400870025199765
 20
-243.8256576375999
 30
0.0
 11
-96.378090634900218
 21
-243.6526571334999
 31
0.0
  0
LINE
  8
DETAIL
  6
CONTINUOUS
 62
     5
 10
-96.378090634900218
 20
-243.6526571334999
 30
0.0
 11
-96.340320085700114
 21
-243.4823063146998
 31
0.0
  0
LINE
  8
DETAIL
  6
CONTINUOUS
 62
     5
 10
-96.340320085700114
 20
-243.4823063146998
 30
0.0
 11
-96.287847743599741
 21
-243.31590248969991
 31
0.0
  0
LINE
  8
DETAIL
  6
CONTINUOUS
 62
     5
 10
-96.287847743599741
 20
-243.31590248969991
 30
0.0
 11
-96.221074706700165
 21
-243.15471158569991
 31
0.0
  0
LINE
  8
DETAIL
  6
CONTINUOUS
 62
     5
 10
-96.221074706700165
 20
-243.15471158569991
 30
0.0
 11
-96.14050955249968
 21
-242.9999574174999
 31
0.0
  0
LINE
  8
DETAIL
  6
CONTINUOUS
 62
     5
 10
-96.14050955249968
 20
-242.9999574174999
 30
0.0
 11
-96.046766377599852
 21
-242.8528170772997
 31
0.0
  0
LINE
  8
DETAIL
  6
CONTINUOUS
 62
     5
 10
-96.046766377599852
 20
-242.8528170772997
 30
0.0
 11
-95.940557672699924
 21
-242.71440744770001
 31
0.0
  0
LINE
  8
DETAIL
  6
CONTINUOUS
 62
     5
 10
-95.940557672699924
 20
-242.71440744770001
 30
0.0
 11
-95.822691903599662
 21
-242.5857814481999
 31
0.0
  0
LINE
  8
DETAIL
  6
CONTINUOUS
 62
     5
 10
-95.822691903599662
 20
-242.5857814481999
 30
0.0
 11
-95.694064193399754
 21
-242.46791584909991
 31
0.0
  0
LINE
  8
DETAIL
  6
CONTINUOUS
 62
     5
 10
-95.694064193399754
 20
-242.46791584909991
 30
0.0
 11
-95.555653178899775
 21
-242.36170779789981
 31
0.0
  0
LINE
  8
DETAIL
  6
CONTINUOUS
 62
     5
 10
-95.555653178899775
 20
-242.36170779789981
 30
0.0
 11
-95.408509977599806
 21
-242.26796457729989
 31
0.0
  0
LINE
  8
DETAIL
  6
CONTINUOUS
 62
     5
 10
-95.408509977599806
 20
-242.26796457729989
 30
0.0
 11
-95.253754023399779
 21
-242.18740035969981
 31
0.0
  0
LINE
  8
DETAIL
  6
CONTINUOUS
 62
     5
 10
-95.253754023399779
 20
-242.18740035969981
 30
0.0
 11
-95.092561145700074
 21
-242.12062841799991
 31
0.0
  0
LINE
  8
DETAIL
  6
CONTINUOUS
 62
     5
 10
-95.092561145700074
 20
-242.12062841799991
 30
0.0
 11
-94.926157942200007
 21
-242.06815813359989
 31
0.0
  0
LINE
  8
DETAIL
  6
CONTINUOUS
 62
     5
 10
-94.926157942200007
 20
-242.06815813359989
 30
0.0
 11
-94.755809590199988
 21
-242.0303897670999
 31
0.0
  0
LINE
  8
DETAIL
  6
CONTINUOUS
 62
     5
 10
-94.755809590199988
 20
-242.0303897670999
 30
0.0
 11
-94.582811020499776
 21
-242.0076120217999
 31
0.0
  0
LINE
  8
DETAIL
  6
CONTINUOUS
 62
     5
 10
-94.582811020499776
 20
-242.0076120217999
 30
0.0
 11
-94.408483330599665
 21
-241.99999999999989
 31
0.0
  0
LINE
  8
DETAIL
  6
CONTINUOUS
 62
     5
 10
-108.04003992129989
 20
-233.45145138359999
 30
0.0
 11
-102.0
 21
-229.99999999999989
 31
0.0
  0
LINE
  8
DETAIL
  6
CONTINUOUS
 62
     5
 10
-83.085046789399712
 20
-235.7591893785
 30
0.0
 11
-82.344256254300035
 21
-235.5285217009999
 31
0.0
  0
LINE
  8
DETAIL
  6
CONTINUOUS
 62
     5
 10
-82.344256254300035
 20
-235.5285217009999
 30
0.0
 11
-81.620053463900149
 21
-235.33948001749991
 31
0.0
  0
LINE
  8
DETAIL
  6
CONTINUOUS
 62
     5
 10
-81.620053463900149
 20
-235.33948001749991
 30
0.0
 11
-80.915817978099767
 21
-235.19203765439991
 31
0.0
  0
LINE
  8
DETAIL
  6
CONTINUOUS
 62
     5
 10
-80.915817978099767
 20
-235.19203765439991
 30
0.0
 11
-80.221411117099706
 21
-235.08627463239989
 31
0.0
  0
LINE
  8
DETAIL
  6
CONTINUOUS
 62
     5
 10
-80.221411117099706
 20
-235.08627463239989
 30
0.0
 11
-79.526694201199916
 21
-235.0222709720999
 31
0.0
  0
LINE
  8
DETAIL
  6
CONTINUOUS
 62
     5
 10
-79.526694201199916
 20
-235.0222709720999
 30
0.0
 11
-78.835046790300112
 21
-234.99999999999989
 31
0.0
  0
LINE
  8
DETAIL
  6
CONTINUOUS
 62
     5
 10
-91.585046789399712
 20
-235.7591893785
 30
0.0
 11
-90.844256254300035
 21
-235.5285217009999
 31
0.0
  0
LINE
  8
DETAIL
  6
CONTINUOUS
 62
     5
 10
-90.844256254300035
 20
-235.5285217009999
 30
0.0
 11
-90.120053463800105
 21
-235.33948001749991
 31
0.0
  0
LINE
  8
DETAIL
  6
CONTINUOUS
 62
     5
 10
-90.120053463800105
 20
-235.33948001749991
 30
0.0
 11
-89.415817977999723
 21
-235.19203765439991
 31
0.0
  0
LINE
  8
DETAIL
  6
CONTINUOUS
 62
     5
 10
-89.415817977999723
 20
-235.19203765439991
 30
0.0
 11
-88.721411116999661
 21
-235.08627463239989
 31
0.0
  0
LINE
  8
DETAIL
  6
CONTINUOUS
 62
     5
 10
-88.721411116999661
 20
-235.08627463239989
 30
0.0
 11
-88.026694201099872
 21
-235.0222709720999
 31
0.0
  0
LINE
  8
DETAIL
  6
CONTINUOUS
 62
     5
 10
-88.026694201099872
 20
-235.0222709720999
 30
0.0
 11
-87.335046790300112
 21
-234.99999999999989
 31
0.0
  0
LINE
  8
DETAIL
  6
CONTINUOUS
 62
     5
 10
186.05802080259991
 20
-408.30611995859999
 30
0.0
 11
187.34157872420019
 21
-408.99535590099981
 31
0.0
  0
LINE
  8
DETAIL
  6
CONTINUOUS
 62
     5
 10
187.34157872420019
 20
-408.99535590099981
 30
0.0
 11
188.6583190338001
 21
-409.57413339290002
 31
0.0
  0
LINE
  8
DETAIL
  6
CONTINUOUS
 62
     5
 10
188.6583190338001
 20
-409.57413339290002
 30
0.0
 11
189.6126381346003
 21
-409.90534769589999
 31
0.0
  0
LINE
  8
DETAIL
  6
CONTINUOUS
 62
     5
 10
-67.481143271099882
 20
-241.06399307549989
 30
0.0
 11
-67.44609080939972
 21
-241.0860052747997
 31
0.0
  0
LINE
  8
DETAIL
  6
CONTINUOUS
 62
     5
 10
-67.516286733400193
 20
-241.04163054839989
 30
0.0
 11
-67.481143271099882
 21
-241.06399307549989
 31
0.0
  0
LINE
  8
DETAIL
  6
CONTINUOUS
 62
     5
 10
-96.408483330599665
 20
-504.0
 30
0.0
 11
-96.400870025199765
 21
-504.17434236239973
 31
0.0
  0
LINE
  8
DETAIL
  6
CONTINUOUS
 62
     5
 10
-96.400870025199765
 20
-504.17434236239973
 30
0.0
 11
-96.378090634900218
 21
-504.34734286649967
 31
0.0
  0
LINE
  8
DETAIL
  6
CONTINUOUS
 62
     5
 10
-96.378090634900218
 20
-504.34734286649967
 30
0.0
 11
-96.340320085700114
 21
-504.5176936851999
 31
0.0
  0
LINE
  8
DETAIL
  6
CONTINUOUS
 62
     5
 10
-96.340320085700114
 20
-504.5176936851999
 30
0.0
 11
-96.287847743599741
 21
-504.68409751019999
 31
0.0
  0
LINE
  8
DETAIL
  6
CONTINUOUS
 62
     5
 10
-96.287847743599741
 20
-504.68409751019999
 30
0.0
 11
-96.221074706700165
 21
-504.8452884141999
 31
0.0
  0
LINE
  8
DETAIL
  6
CONTINUOUS
 62
     5
 10
-96.221074706700165
 20
-504.8452884141999
 30
0.0
 11
-96.14050955249968
 21
-505.00004258249999
 31
0.0
  0
LINE
  8
DETAIL
  6
CONTINUOUS
 62
     5
 10
-96.14050955249968
 20
-505.00004258249999
 30
0.0
 11
-96.046766377599852
 21
-505.1471829226
 31
0.0
  0
LINE
  8
DETAIL
  6
CONTINUOUS
 62
     5
 10
-96.046766377599852
 20
-505.1471829226
 30
0.0
 11
-95.940557672699924
 21
-505.2855925522
 31
0.0
  0
LINE
  8
DETAIL
  6
CONTINUOUS
 62
     5
 10
-95.940557672699924
 20
-505.2855925522
 30
0.0
 11
-95.822691903599662
 21
-505.41421855179999
 31
0.0
  0
LINE
  8
DETAIL
  6
CONTINUOUS
 62
     5
 10
-95.822691903599662
 20
-505.41421855179999
 30
0.0
 11
-95.694064193399754
 21
-505.53208415080007
 31
0.0
  0
LINE
  8
DETAIL
  6
CONTINUOUS
 62
     5
 10
-95.694064193399754
 20
-505.53208415080007
 30
0.0
 11
-95.555653178899775
 21
-505.638292202
 31
0.0
  0
LINE
  8
DETAIL
  6
CONTINUOUS
 62
     5
 10
-95.555653178899775
 20
-505.638292202
 30
0.0
 11
-95.408509977599806
 21
-505.73203542260001
 31
0.0
  0
LINE
  8
DETAIL
  6
CONTINUOUS
 62
     5
 10
-95.408509977599806
 20
-505.73203542260001
 30
0.0
 11
-95.253754023399779
 21
-505.81259964029988
 31
0.0
  0
LINE
  8
DETAIL
  6
CONTINUOUS
 62
     5
 10
-95.253754023399779
 20
-505.81259964029988
 30
0.0
 11
-95.092561145700074
 21
-505.87937158189987
 31
0.0
  0
LINE
  8
DETAIL
  6
CONTINUOUS
 62
     5
 10
-95.092561145700074
 20
-505.87937158189987
 30
0.0
 11
-94.926157942200007
 21
-505.93184186629981
 31
0.0
  0
LINE
  8
DETAIL
  6
CONTINUOUS
 62
     5
 10
-94.926157942200007
 20
-505.93184186629981
 30
0.0
 11
-94.755809590199988
 21
-505.96961023279988
 31
0.0
  0
LINE
  8
DETAIL
  6
CONTINUOUS
 62
     5
 10
-94.755809590199988
 20
-505.96961023279988
 30
0.0
 11
-94.582811020499776
 21
-505.99238797810011
 31
0.0
  0
LINE
  8
DETAIL
  6
CONTINUOUS
 62
     5
 10
-94.582811020499776
 20
-505.99238797810011
 30
0.0
 11
-94.408483330599665
 21
-506.0
 31
0.0
  0
LINE
  8
DETAIL
  6
CONTINUOUS
 62
     5
 10
-110.0
 20
-490.0
 30
0.0
 11
-109.0460281907999
 21
-512.89532342149982
 31
0.0
  0
LINE
  8
DETAIL
  6
CONTINUOUS
 62
     5
 10
-98.5
 20
-536.99999999999989
 30
0.0
 11
-98.5
 21
-538.19999999999993
 31
0.0
  0
LINE
  8
DETAIL
  6
CONTINUOUS
 62
     5
 10
-100.0
 20
-535.99999999999989
 30
0.0
 11
-100.0
 21
-530.89983252019999
 31
0.0
  0
LINE
  8
DETAIL
  6
CONTINUOUS
 62
     5
 10
-102.0
 20
-229.99999999999989
 30
0.0
 11
-102.0
 21
-219.9285946043999
 31
0.0
  0
LINE
  8
DETAIL
  6
CONTINUOUS
 62
     5
 10
-102.0
 20
-517.99999999999989
 30
0.0
 11
-102.0
 21
-528.07140539550005
 31
0.0
  0
LINE
  8
DETAIL
  6
CONTINUOUS
 62
     5
 10
-110.0
 20
-257.99999999999989
 30
0.0
 11
-109.0460281907999
 21
-235.1046765783999
 31
0.0
  0
LINE
  8
DETAIL
  6
CONTINUOUS
 62
     5
 10
-433.93783522309968
 20
-383.9929465038
 30
0.0
 11
-181.1023561799002
 21
-344.82036586409998
 31
0.0
  0
LINE
  8
DETAIL
  6
CONTINUOUS
 62
     5
 10
-181.1023561799002
 20
-344.82036586409998
 30
0.0
 11
-178.79613149069971
 21
-344.49315459879972
 31
0.0
  0
LINE
  8
DETAIL
  6
CONTINUOUS
 62
     5
 10
-178.79613149069971
 20
-344.49315459879972
 30
0.0
 11
-176.48637014240009
 21
-344.22549980059989
 31
0.0
  0
LINE
  8
DETAIL
  6
CONTINUOUS
 62
     5
 10
-176.48637014240009
 20
-344.22549980059989
 30
0.0
 11
-174.17450639090021
 21
-344.01743068849999
 31
0.0
  0
LINE
  8
DETAIL
  6
CONTINUOUS
 62
     5
 10
-174.17450639090021
 20
-344.01743068849999
 30
0.0
 11
-171.86081320489981
 21
-343.86884810789991
 31
0.0
  0
LINE
  8
DETAIL
  6
CONTINUOUS
 62
     5
 10
-171.86081320489981
 20
-343.86884810789991
 30
0.0
 11
-169.54556296519971
 21
-343.77970378369997
 31
0.0
  0
LINE
  8
DETAIL
  6
CONTINUOUS
 62
     5
 10
-169.54556296519971
 20
-343.77970378369997
 30
0.0
 11
-167.2301917673999
 21
-343.74999999999977
 31
0.0
  0
LINE
  8
DETAIL
  6
CONTINUOUS
 62
     5
 10
167.23019176740041
 20
-343.74999999999977
 30
0.0
 11
96.519513648700013
 21
-343.74999999999977
 31
0.0
  0
LINE
  8
DETAIL
  6
CONTINUOUS
 62
     5
 10
-167.2301917673999
 20
-343.74999999999977
 30
0.0
 11
-96.519513648700013
 21
-343.74999999999977
 31
0.0
  0
LINE
  8
DETAIL
  6
CONTINUOUS
 62
     5
 10
198.5504964662
 20
-344.34168842280002
 30
0.0
 11
197.16315521390021
 21
-344.23080034399982
 31
0.0
  0
LINE
  8
DETAIL
  6
CONTINUOUS
 62
     5
 10
197.16315521390021
 20
-344.23080034399982
 30
0.0
 11
195.78559294249999
 21
-344.23970192089968
 31
0.0
  0
LINE
  8
DETAIL
  6
CONTINUOUS
 62
     5
 10
195.78559294249999
 20
-344.23970192089968
 30
0.0
 11
194.40367955960031
 21
-344.36536069389979
 31
0.0
  0
LINE
  8
DETAIL
  6
CONTINUOUS
 62
     5
 10
194.40367955960031
 20
-344.36536069389979
 30
0.0
 11
193.0224435721002
 21
-344.60795732629981
 31
0.0
  0
LINE
  8
DETAIL
  6
CONTINUOUS
 62
     5
 10
193.0224435721002
 20
-344.60795732629981
 30
0.0
 11
191.64690405799999
 21
-344.96597487139991
 31
0.0
  0
LINE
  8
DETAIL
  6
CONTINUOUS
 62
     5
 10
191.64690405799999
 20
-344.96597487139991
 30
0.0
 11
190.28212138329991
 21
-345.43873725489982
 31
0.0
  0
LINE
  8
DETAIL
  6
CONTINUOUS
 62
     5
 10
190.28212138329991
 20
-345.43873725489982
 30
0.0
 11
188.93300019080019
 21
-346.02390252239968
 31
0.0
  0
LINE
  8
DETAIL
  6
CONTINUOUS
 62
     5
 10
188.93300019080019
 20
-346.02390252239968
 30
0.0
 11
188.9187280986998
 21
-346.03138047509992
 31
0.0
  0
LINE
  8
DETAIL
  6
CONTINUOUS
 62
     5
 10
199.79418409739989
 20
-344.54907942530002
 30
0.0
 11
199.6286113063002
 21
-344.53584544359978
 31
0.0
  0
LINE
  8
DETAIL
  6
CONTINUOUS
 62
     5
 10
199.6286113063002
 20
-344.53584544359978
 30
0.0
 11
198.25104903490001
 21
-344.54474702049993
 31
0.0
  0
LINE
  8
DETAIL
  6
CONTINUOUS
 62
     5
 10
198.25104903490001
 20
-344.54474702049993
 30
0.0
 11
196.8691356520003
 21
-344.67040579359991
 31
0.0
  0
LINE
  8
DETAIL
  6
CONTINUOUS
 62
     5
 10
196.8691356520003
 20
-344.67040579359991
 30
0.0
 11
195.48789966450019
 21
-344.91300242589989
 31
0.0
  0
LINE
  8
DETAIL
  6
CONTINUOUS
 62
     5
 10
195.48789966450019
 20
-344.91300242589989
 30
0.0
 11
194.11236015040001
 21
-345.27101997099999
 31
0.0
  0
LINE
  8
DETAIL
  6
CONTINUOUS
 62
     5
 10
194.11236015040001
 20
-345.27101997099999
 30
0.0
 11
192.7475774756999
 21
-345.7437823544999
 31
0.0
  0
LINE
  8
DETAIL
  6
CONTINUOUS
 62
     5
 10
192.7475774756999
 20
-345.7437823544999
 30
0.0
 11
191.3984562832002
 21
-346.32894762199987
 31
0.0
  0
LINE
  8
DETAIL
  6
CONTINUOUS
 62
     5
 10
191.3984562832002
 20
-346.32894762199987
 30
0.0
 11
191.2708584877
 21
-346.39580329139972
 31
0.0
  0
LINE
  8
DETAIL
  6
CONTINUOUS
 62
     5
 10
198.69786580280021
 20
-343.15061001949982
 30
0.0
 11
201.16332189530019
 21
-343.45565511910002
 31
0.0
  0
LINE
  8
DETAIL
  6
CONTINUOUS
 62
     5
 10
181.1023561799002
 20
-344.82036586409998
 30
0.0
 11
178.79613149069971
 21
-344.49315459879972
 31
0.0
  0
LINE
  8
DETAIL
  6
CONTINUOUS
 62
     5
 10
178.79613149069971
 20
-344.49315459879972
 30
0.0
 11
176.48637014240009
 21
-344.22549980059989
 31
0.0
  0
LINE
  8
DETAIL
  6
CONTINUOUS
 62
     5
 10
176.48637014240009
 20
-344.22549980059989
 30
0.0
 11
174.17450639090021
 21
-344.01743068849999
 31
0.0
  0
LINE
  8
DETAIL
  6
CONTINUOUS
 62
     5
 10
174.17450639090021
 20
-344.01743068849999
 30
0.0
 11
171.8608132049003
 21
-343.86884810789991
 31
0.0
  0
LINE
  8
DETAIL
  6
CONTINUOUS
 62
     5
 10
171.8608132049003
 20
-343.86884810789991
 30
0.0
 11
169.54556296520011
 21
-343.77970378369997
 31
0.0
  0
LINE
  8
DETAIL
  6
CONTINUOUS
 62
     5
 10
169.54556296520011
 20
-343.77970378369997
 30
0.0
 11
167.23019176740041
 21
-343.74999999999977
 31
0.0
  0
LINE
  8
DETAIL
  6
CONTINUOUS
 62
     5
 10
433.93783522310008
 20
-383.9929465038
 30
0.0
 11
181.1023561799002
 21
-344.82036586409998
 31
0.0
  0
LINE
  8
DETAIL
  6
CONTINUOUS
 62
     5
 10
201.16330135889979
 20
-343.4558210995998
 30
0.0
 11
202.56760504890011
 21
-343.69088464079982
 31
0.0
  0
LINE
  8
DETAIL
  6
CONTINUOUS
 62
     5
 10
202.56760504890011
 20
-343.69088464079982
 30
0.0
 11
203.95262060379989
 21
-344.04679130480008
 31
0.0
  0
LINE
  8
DETAIL
  6
CONTINUOUS
 62
     5
 10
203.95262060379989
 20
-344.04679130480008
 30
0.0
 11
205.31250864099999
 21
-344.52147363499978
 31
0.0
  0
LINE
  8
DETAIL
  6
CONTINUOUS
 62
     5
 10
205.31250864099999
 20
-344.52147363499978
 30
0.0
 11
206.64215084280019
 21
-345.1138428216999
 31
0.0
  0
LINE
  8
DETAIL
  6
CONTINUOUS
 62
     5
 10
206.64215084280019
 20
-345.1138428216999
 30
0.0
 11
207.93686902360011
 21
-345.82109872699982
 31
0.0
  0
LINE
  8
DETAIL
  6
CONTINUOUS
 62
     5
 10
207.93686902360011
 20
-345.82109872699982
 30
0.0
 11
209.191730001
 21
-346.64127955179993
 31
0.0
  0
LINE
  8
DETAIL
  6
CONTINUOUS
 62
     5
 10
209.191730001
 20
-346.64127955179993
 30
0.0
 11
210.40238044739999
 21
-347.57078146959998
 31
0.0
  0
LINE
  8
DETAIL
  6
CONTINUOUS
 62
     5
 10
210.40238044739999
 20
-347.57078146959998
 30
0.0
 11
211.56414429350019
 21
-348.60679835489998
 31
0.0
  0
LINE
  8
DETAIL
  6
CONTINUOUS
 62
     5
 10
211.56414429350019
 20
-348.60679835489998
 30
0.0
 11
212.63488667169989
 21
-349.70579807529998
 31
0.0
  0
LINE
  8
DETAIL
  6
CONTINUOUS
 62
     5
 10
198.6978452664998
 20
-343.15077600000012
 30
0.0
 11
200.10214895650009
 21
-343.38583954120008
 31
0.0
  0
LINE
  8
DETAIL
  6
CONTINUOUS
 62
     5
 10
200.10214895650009
 20
-343.38583954120008
 30
0.0
 11
201.4871645113999
 21
-343.74174620509967
 31
0.0
  0
LINE
  8
DETAIL
  6
CONTINUOUS
 62
     5
 10
201.4871645113999
 20
-343.74174620509967
 30
0.0
 11
202.8470525486
 21
-344.2164285353997
 31
0.0
  0
LINE
  8
DETAIL
  6
CONTINUOUS
 62
     5
 10
202.8470525486
 20
-344.2164285353997
 30
0.0
 11
204.1766947504002
 21
-344.80879772209983
 31
0.0
  0
LINE
  8
DETAIL
  6
CONTINUOUS
 62
     5
 10
204.1766947504002
 20
-344.80879772209983
 30
0.0
 11
205.4714129311001
 21
-345.51605362740003
 31
0.0
  0
LINE
  8
DETAIL
  6
CONTINUOUS
 62
     5
 10
205.4714129311001
 20
-345.51605362740003
 30
0.0
 11
206.72627390860001
 21
-346.33623445220007
 31
0.0
  0
LINE
  8
DETAIL
  6
CONTINUOUS
 62
     5
 10
206.72627390860001
 20
-346.33623445220007
 30
0.0
 11
207.9369243548999
 21
-347.26573636999979
 31
0.0
  0
LINE
  8
DETAIL
  6
CONTINUOUS
 62
     5
 10
207.9369243548999
 20
-347.26573636999979
 30
0.0
 11
209.0986882011002
 21
-348.30175325520008
 31
0.0
  0
LINE
  8
DETAIL
  6
CONTINUOUS
 62
     5
 10
209.0986882011002
 20
-348.30175325520008
 30
0.0
 11
210.0811467192998
 21
-349.31013926749978
 31
0.0
  0
LINE
  8
DETAIL
  6
CONTINUOUS
 62
     5
 10
189.23399825620029
 20
-407.68509107729989
 30
0.0
 11
190.13321764930009
 21
-408.00319168829992
 31
0.0
  0
LINE
  8
DETAIL
  6
CONTINUOUS
 62
     5
 10
190.13321764930009
 20
-408.00319168829992
 30
0.0
 11
190.94493080070009
 21
-408.23883098399972
 31
0.0
  0
LINE
  8
DETAIL
  6
CONTINUOUS
 62
     5
 10
186.76854216380019
 20
-407.38004597759988
 30
0.0
 11
187.6677615569001
 21
-407.69814658869967
 31
0.0
  0
LINE
  8
DETAIL
  6
CONTINUOUS
 62
     5
 10
187.6677615569001
 20
-407.69814658869967
 30
0.0
 11
188.57610287109989
 21
-407.9618369172
 31
0.0
  0
LINE
  8
DETAIL
  6
CONTINUOUS
 62
     5
 10
188.57610287109989
 20
-407.9618369172
 30
0.0
 11
189.49356610650011
 21
-408.17111696319989
 31
0.0
  0
LINE
  8
DETAIL
  6
CONTINUOUS
 62
     5
 10
-424.67489929610019
 20
-443.77963413579988
 30
0.0
 11
-171.8394202528998
 21
-404.60705349609998
 31
0.0
  0
LINE
  8
DETAIL
  6
CONTINUOUS
 62
     5
 10
-171.8394202528998
 20
-404.60705349609998
 30
0.0
 11
-171.0852738504
 21
-404.49977139309999
 31
0.0
  0
LINE
  8
DETAIL
  6
CONTINUOUS
 62
     5
 10
-171.0852738504
 20
-404.49977139309999
 30
0.0
 11
-170.32481963659981
 21
-404.4109508416999
 31
0.0
  0
LINE
  8
DETAIL
  6
CONTINUOUS
 62
     5
 10
-170.32481963659981
 20
-404.4109508416999
 30
0.0
 11
-169.55723283299989
 21
-404.34100946939998
 31
0.0
  0
LINE
  8
DETAIL
  6
CONTINUOUS
 62
     5
 10
-169.55723283299989
 20
-404.34100946939998
 30
0.0
 11
-168.78467712639991
 21
-404.29061196669988
 31
0.0
  0
LINE
  8
DETAIL
  6
CONTINUOUS
 62
     5
 10
-168.78467712639991
 20
-404.29061196669988
 30
0.0
 11
-168.00928990899999
 21
-404.26020156209961
 31
0.0
  0
LINE
  8
DETAIL
  6
CONTINUOUS
 62
     5
 10
-168.00928990899999
 20
-404.26020156209961
 30
0.0
 11
-167.2301917673999
 21
-404.25
 31
0.0
  0
LINE
  8
DETAIL
  6
CONTINUOUS
 62
     5
 10
194.0997972800001
 20
-408.23883098399972
 30
0.0
 11
194.80421330639999
 21
-408.32598672679978
 31
0.0
  0
LINE
  8
DETAIL
  6
CONTINUOUS
 62
     5
 10
186.76854216380019
 20
-407.38004597759988
 30
0.0
 11
189.23399825620029
 21
-407.68509107729989
 31
0.0
  0
LINE
  8
DETAIL
  6
CONTINUOUS
 62
     5
 10
194.7299275833002
 20
-409.52678089639988
 30
0.0
 11
197.16091739059991
 21
-409.82756156340002
 31
0.0
  0
LINE
  8
DETAIL
  6
CONTINUOUS
 62
     5
 10
194.60616823999999
 20
-411.52729313129998
 30
0.0
 11
197.07162433240001
 21
-411.83233823089989
 31
0.0
  0
LINE
  8
DETAIL
  6
CONTINUOUS
 62
     5
 10
193.79165519639989
 20
-413.21980447450011
 30
0.0
 11
197.66594334159981
 21
-413.69916105959999
 31
0.0
  0
LINE
  8
DETAIL
  6
CONTINUOUS
 62
     5
 10
189.40759315300011
 20
-413.21980447450011
 30
0.0
 11
193.28188129820001
 21
-413.69916105959999
 31
0.0
  0
LINE
  8
DETAIL
  6
CONTINUOUS
 62
     5
 10
171.8394202528998
 20
-404.60705349609998
 30
0.0
 11
171.0852738504
 21
-404.49977139309999
 31
0.0
  0
LINE
  8
DETAIL
  6
CONTINUOUS
 62
     5
 10
171.0852738504
 20
-404.49977139309999
 30
0.0
 11
170.3248196366003
 21
-404.4109508416999
 31
0.0
  0
LINE
  8
DETAIL
  6
CONTINUOUS
 62
     5
 10
170.3248196366003
 20
-404.4109508416999
 30
0.0
 11
169.55723283299989
 21
-404.34100946939998
 31
0.0
  0
LINE
  8
DETAIL
  6
CONTINUOUS
 62
     5
 10
169.55723283299989
 20
-404.34100946939998
 30
0.0
 11
168.78467712640031
 21
-404.29061196669988
 31
0.0
  0
LINE
  8
DETAIL
  6
CONTINUOUS
 62
     5
 10
168.78467712640031
 20
-404.29061196669988
 30
0.0
 11
168.00928990899999
 21
-404.26020156209961
 31
0.0
  0
LINE
  8
DETAIL
  6
CONTINUOUS
 62
     5
 10
168.00928990899999
 20
-404.26020156209961
 30
0.0
 11
167.23019176740041
 21
-404.25
 31
0.0
  0
LINE
  8
DETAIL
  6
CONTINUOUS
 62
     5
 10
424.67489929610019
 20
-443.77963413580022
 30
0.0
 11
171.8394202528998
 21
-404.60705349609998
 31
0.0
  0
LINE
  8
DETAIL
  6
CONTINUOUS
 62
     5
 10
189.64313246829991
 20
-409.41242097299988
 30
0.0
 11
189.36393092160009
 21
-409.36698484829992
 31
0.0
  0
LINE
  8
DETAIL
  6
CONTINUOUS
 62
     5
 10
189.36393092160009
 20
-409.36698484829992
 30
0.0
 11
188.39189058320019
 21
-409.14838038319999
 31
0.0
  0
LINE
  8
DETAIL
  6
CONTINUOUS
 62
     5
 10
188.39189058320019
 20
-409.14838038319999
 30
0.0
 11
187.42974452470031
 21
-408.87096750099988
 31
0.0
  0
LINE
  8
DETAIL
  6
CONTINUOUS
 62
     5
 10
187.42974452470031
 20
-408.87096750099988
 30
0.0
 11
186.47749274629999
 21
-408.53474620190002
 31
0.0
  0
LINE
  8
DETAIL
  6
CONTINUOUS
 62
     5
 10
189.49356610650011
 20
-408.17111696319989
 30
0.0
 11
189.8986988136003
 21
-408.23883098399972
 31
0.0
  0
LINE
  8
DETAIL
  6
CONTINUOUS
 62
     5
 10
189.51956865850019
 20
-411.40977249830007
 30
0.0
 11
188.77589558730011
 21
-411.28537070440012
 31
0.0
  0
LINE
  8
DETAIL
  6
CONTINUOUS
 62
     5
 10
188.77589558730011
 20
-411.28537070440012
 30
0.0
 11
187.35449882349991
 21
-410.92484223280002
 31
0.0
  0
LINE
  8
DETAIL
  6
CONTINUOUS
 62
     5
 10
187.35449882349991
 20
-410.92484223280002
 30
0.0
 11
185.95554188679989
 21
-410.44478515569972
 31
0.0
  0
LINE
  8
DETAIL
  6
CONTINUOUS
 62
     5
 10
185.95554188679989
 20
-410.44478515569972
 30
0.0
 11
184.58614683250019
 21
-409.8479671555001
 31
0.0
  0
LINE
  8
DETAIL
  6
CONTINUOUS
 62
     5
 10
184.58614683250019
 20
-409.8479671555001
 30
0.0
 11
183.2511792401001
 21
-409.13583921870008
 31
0.0
  0
LINE
  8
DETAIL
  6
CONTINUOUS
 62
     5
 10
183.2511792401001
 20
-409.13583921870008
 30
0.0
 11
181.95503451889999
 21
-408.31142887219988
 31
0.0
  0
LINE
  8
DETAIL
  6
CONTINUOUS
 62
     5
 10
181.95503451889999
 20
-408.31142887219988
 30
0.0
 11
180.70237411500011
 21
-407.37699339980009
 31
0.0
  0
LINE
  8
DETAIL
  6
CONTINUOUS
 62
     5
 10
180.70237411500011
 20
-407.37699339980009
 30
0.0
 11
179.49726549630029
 21
-406.33629451770003
 31
0.0
  0
LINE
  8
DETAIL
  6
CONTINUOUS
 62
     5
 10
179.49726549630029
 20
-406.33629451770003
 30
0.0
 11
178.8488203541001
 21
-405.6930414743
 31
0.0
  0
LINE
  8
DETAIL
  6
CONTINUOUS
 62
     5
 10
167.23019176740041
 20
-404.25
 30
0.0
 11
96.519513648700013
 21
-404.25
 31
0.0
  0
LINE
  8
DETAIL
  6
CONTINUOUS
 62
     5
 10
-167.2301917673999
 20
-404.25
 30
0.0
 11
-96.519513648700013
 21
-404.25
 31
0.0
  0
LINE
  8
DETAIL
  6
CONTINUOUS
 62
     5
 10
189.7157352366003
 20
-408.23883098399972
 30
0.0
 11
194.0997972800001
 21
-408.23883098399972
 31
0.0
  0
LINE
  8
DETAIL
  6
CONTINUOUS
 62
     5
 10
193.79165519639989
 20
-413.21980447450011
 30
0.0
 11
189.40759315300011
 21
-413.21980447450011
 31
0.0
  0
LINE
  8
DETAIL
  6
CONTINUOUS
 62
     5
 10
197.66594334159981
 20
-413.69916105959999
 30
0.0
 11
193.28188129820001
 21
-413.69916105959999
 31
0.0
  0
LINE
  8
DETAIL
  6
CONTINUOUS
 62
     5
 10
67.481143271100336
 20
-506.93600692440009
 30
0.0
 11
67.446090809400175
 21
-506.9139947251
 31
0.0
  0
LINE
  8
DETAIL
  6
CONTINUOUS
 62
     5
 10
67.516286733400193
 20
-506.95836945159999
 30
0.0
 11
67.481143271100336
 21
-506.93600692440009
 31
0.0
  0
LINE
  8
DETAIL
  6
CONTINUOUS
 62
     5
 10
-298.26476151589992
 20
-3.1999999999999318
 30
0.0
 11
-298.30664915509988
 21
-3.042679318499836
 31
0.0
  0
LINE
  8
DETAIL
  6
CONTINUOUS
 62
     5
 10
-298.30664915509988
 20
-3.042679318499836
 30
0.0
 11
-298.34555699280008
 21
-2.8857774983998752
 31
0.0
  0
LINE
  8
DETAIL
  6
CONTINUOUS
 62
     5
 10
-298.34555699280008
 20
-2.8857774983998752
 30
0.0
 11
-298.38144851369998
 21
-2.7296787750998419
 31
0.0
  0
LINE
  8
DETAIL
  6
CONTINUOUS
 62
     5
 10
-298.38144851369998
 20
-2.7296787750998419
 30
0.0
 11
-298.4144332633
 21
-2.5747434583998938
 31
0.0
  0
LINE
  8
DETAIL
  6
CONTINUOUS
 62
     5
 10
-298.4144332633
 20
-2.5747434583998938
 30
0.0
 11
-298.44460084430011
 21
-2.4213076589998082
 31
0.0
  0
LINE
  8
DETAIL
  6
CONTINUOUS
 62
     5
 10
-298.44460084430011
 20
-2.4213076589998082
 30
0.0
 11
-298.47197456979978
 21
-2.269811254299952
 31
0.0
  0
LINE
  8
DETAIL
  6
CONTINUOUS
 62
     5
 10
-298.47197456979978
 20
-2.269811254299952
 30
0.0
 11
-298.49659469670001
 21
-2.120692706599812
 31
0.0
  0
LINE
  8
DETAIL
  6
CONTINUOUS
 62
     5
 10
-298.49659469670001
 20
-2.120692706599812
 30
0.0
 11
-298.51849999529992
 21
-1.9742473128998199
 31
0.0
  0
LINE
  8
DETAIL
  6
CONTINUOUS
 62
     5
 10
-298.51849999529992
 20
-1.9742473128998199
 30
0.0
 11
-298.53772996640009
 21
-1.830807185699882
 31
0.0
  0
LINE
  8
DETAIL
  6
CONTINUOUS
 62
     5
 10
-298.53772996640009
 20
-1.830807185699882
 30
0.0
 11
-298.55432267600008
 21
-1.690666937099877
 31
0.0
  0
LINE
  8
DETAIL
  6
CONTINUOUS
 62
     5
 10
-298.55432267600008
 20
-1.690666937099877
 30
0.0
 11
-298.56832593790023
 21
-1.554082224899844
 31
0.0
  0
LINE
  8
DETAIL
  6
CONTINUOUS
 62
     5
 10
-298.56832593790023
 20
-1.554082224899844
 30
0.0
 11
-298.57975000899978
 21
-1.4214760861998459
 31
0.0
  0
LINE
  8
DETAIL
  6
CONTINUOUS
 62
     5
 10
-298.57975000899978
 20
-1.4214760861998459
 30
0.0
 11
-298.58861749260001
 21
-1.293250549099866
 31
0.0
  0
LINE
  8
DETAIL
  6
CONTINUOUS
 62
     5
 10
-298.58861749260001
 20
-1.293250549099866
 30
0.0
 11
-298.5949391639997
 21
-1.169631957999854
 31
0.0
  0
LINE
  8
DETAIL
  6
CONTINUOUS
 62
     5
 10
-298.5949391639997
 20
-1.169631957999854
 30
0.0
 11
-298.59873562190018
 21
-1.0508667039998729
 31
0.0
  0
LINE
  8
DETAIL
  6
CONTINUOUS
 62
     5
 10
-298.59873562190018
 20
-1.0508667039998729
 30
0.0
 11
-298.59999999999991
 21
-0.9372583001999146
 31
0.0
  0
LINE
  8
DETAIL
  6
CONTINUOUS
 62
     5
 10
-288.93523848410001
 20
-1.5999999999999091
 30
0.0
 11
-288.93523848410001
 21
0.0000000000001137
 31
0.0
  0
LINE
  8
DETAIL
  6
CONTINUOUS
 62
     5
 10
-288.59999999999991
 20
-0.9372583001999146
 30
0.0
 11
-288.60126437809998
 21
-1.0508667039998729
 31
0.0
  0
LINE
  8
DETAIL
  6
CONTINUOUS
 62
     5
 10
-288.60126437809998
 20
-1.0508667039998729
 30
0.0
 11
-288.60506083600012
 21
-1.169631957999854
 31
0.0
  0
LINE
  8
DETAIL
  6
CONTINUOUS
 62
     5
 10
-288.60506083600012
 20
-1.169631957999854
 30
0.0
 11
-288.61138250739992
 21
-1.293250549099866
 31
0.0
  0
LINE
  8
DETAIL
  6
CONTINUOUS
 62
     5
 10
-288.61138250739992
 20
-1.293250549099866
 30
0.0
 11
-288.62024999099998
 21
-1.4214760861998459
 31
0.0
  0
LINE
  8
DETAIL
  6
CONTINUOUS
 62
     5
 10
-288.62024999099998
 20
-1.4214760861998459
 30
0.0
 11
-288.63167406220009
 21
-1.554082224899844
 31
0.0
  0
LINE
  8
DETAIL
  6
CONTINUOUS
 62
     5
 10
-288.63167406220009
 20
-1.554082224899844
 30
0.0
 11
-288.64567732399968
 21
-1.690666937099877
 31
0.0
  0
LINE
  8
DETAIL
  6
CONTINUOUS
 62
     5
 10
-288.64567732399968
 20
-1.690666937099877
 30
0.0
 11
-288.66227003360018
 21
-1.830807185699882
 31
0.0
  0
LINE
  8
DETAIL
  6
CONTINUOUS
 62
     5
 10
-288.66227003360018
 20
-1.830807185699882
 30
0.0
 11
-288.68150000470001
 21
-1.9742473128998199
 31
0.0
  0
LINE
  8
DETAIL
  6
CONTINUOUS
 62
     5
 10
-288.68150000470001
 20
-1.9742473128998199
 30
0.0
 11
-288.70340530329992
 21
-2.120692706599812
 31
0.0
  0
LINE
  8
DETAIL
  6
CONTINUOUS
 62
     5
 10
-288.70340530329992
 20
-2.120692706599812
 30
0.0
 11
-288.72802543030002
 21
-2.269811254299952
 31
0.0
  0
LINE
  8
DETAIL
  6
CONTINUOUS
 62
     5
 10
-288.72802543030002
 20
-2.269811254299952
 30
0.0
 11
-288.75539915569971
 21
-2.4213076589998082
 31
0.0
  0
LINE
  8
DETAIL
  6
CONTINUOUS
 62
     5
 10
-288.75539915569971
 20
-2.4213076589998082
 30
0.0
 11
-288.78556673679992
 21
-2.5747434583998938
 31
0.0
  0
LINE
  8
DETAIL
  6
CONTINUOUS
 62
     5
 10
-288.78556673679992
 20
-2.5747434583998938
 30
0.0
 11
-288.81855148629978
 21
-2.7296787750998419
 31
0.0
  0
LINE
  8
DETAIL
  6
CONTINUOUS
 62
     5
 10
-288.81855148629978
 20
-2.7296787750998419
 30
0.0
 11
-288.85444300719968
 21
-2.8857774983998752
 31
0.0
  0
LINE
  8
DETAIL
  6
CONTINUOUS
 62
     5
 10
-288.85444300719968
 20
-2.8857774983998752
 30
0.0
 11
-288.89335084489989
 21
-3.042679318499836
 31
0.0
  0
LINE
  8
DETAIL
  6
CONTINUOUS
 62
     5
 10
-288.89335084489989
 20
-3.042679318499836
 30
0.0
 11
-288.93523848410001
 21
-3.1999999999999318
 31
0.0
  0
LINE
  8
DETAIL
  6
CONTINUOUS
 62
     5
 10
196.0301820967002
 20
-410.1030628955001
 30
0.0
 11
197.37135153369991
 21
-409.7762897166001
 31
0.0
  0
LINE
  8
DETAIL
  6
CONTINUOUS
 62
     5
 10
197.37135153369991
 20
-409.7762897166001
 30
0.0
 11
198.70595201659989
 21
-409.34604459029993
 31
0.0
  0
LINE
  8
DETAIL
  6
CONTINUOUS
 62
     5
 10
198.70595201659989
 20
-409.34604459029993
 30
0.0
 11
199.7409245978001
 21
-408.92991962649978
 31
0.0
  0
LINE
  8
DETAIL
  6
CONTINUOUS
 62
     5
 10
194.80421330639999
 20
-408.32598672679978
 30
0.0
 11
195.28850448650019
 21
-408.24009244519988
 31
0.0
  0
LINE
  8
DETAIL
  6
CONTINUOUS
 62
     5
 10
194.68041675999979
 20
-410.32710033109993
 30
0.0
 11
196.0301820967002
 21
-410.1030628955001
 31
0.0
  0
LINE
  8
DETAIL
  6
CONTINUOUS
 62
     5
 10
-298.26476151589992
 20
-1.5999999999999091
 30
0.0
 11
-298.26476151589992
 21
0.0000000000001137
 31
0.0
  0
LINE
  8
DETAIL
  6
CONTINUOUS
 62
     5
 10
-298.59999999999991
 20
-0.9372583001999146
 30
0.0
 11
-298.59873562190018
 21
-0.8290875012999095
 31
0.0
  0
LINE
  8
DETAIL
  6
CONTINUOUS
 62
     5
 10
-298.59873562190018
 20
-0.8290875012999095
 30
0.0
 11
-298.5949391639997
 21
-0.7266206083999123
 31
0.0
  0
LINE
  8
DETAIL
  6
CONTINUOUS
 62
     5
 10
-298.5949391639997
 20
-0.7266206083999123
 30
0.0
 11
-298.58861749260001
 21
-0.6301154633998749
 31
0.0
  0
LINE
  8
DETAIL
  6
CONTINUOUS
 62
     5
 10
-298.58861749260001
 20
-0.6301154633998749
 30
0.0
 11
-298.57975000899978
 21
-0.5397645426999134
 31
0.0
  0
LINE
  8
DETAIL
  6
CONTINUOUS
 62
     5
 10
-298.57975000899978
 20
-0.5397645426999134
 30
0.0
 11
-298.56832593790023
 21
-0.4557415066998374
 31
0.0
  0
LINE
  8
DETAIL
  6
CONTINUOUS
 62
     5
 10
-298.56832593790023
 20
-0.4557415066998374
 30
0.0
 11
-298.55432267600008
 21
-0.3783136769998237
 31
0.0
  0
LINE
  8
DETAIL
  6
CONTINUOUS
 62
     5
 10
-298.55432267600008
 20
-0.3783136769998237
 30
0.0
 11
-298.53772996640009
 21
-0.3077152564998187
 31
0.0
  0
LINE
  8
DETAIL
  6
CONTINUOUS
 62
     5
 10
-298.53772996640009
 20
-0.3077152564998187
 30
0.0
 11
-298.51849999529992
 21
-0.2440686153997831
 31
0.0
  0
LINE
  8
DETAIL
  6
CONTINUOUS
 62
     5
 10
-298.51849999529992
 20
-0.2440686153997831
 30
0.0
 11
-298.49659469670001
 21
-0.1875100386998838
 31
0.0
  0
LINE
  8
DETAIL
  6
CONTINUOUS
 62
     5
 10
-298.49659469670001
 20
-0.1875100386998838
 30
0.0
 11
-298.47197456979978
 21
-0.1381788265998694
 31
0.0
  0
LINE
  8
DETAIL
  6
CONTINUOUS
 62
     5
 10
-298.47197456979978
 20
-0.1381788265998694
 30
0.0
 11
-298.44460084430011
 21
-0.0961897224999575
 31
0.0
  0
LINE
  8
DETAIL
  6
CONTINUOUS
 62
     5
 10
-298.44460084430011
 20
-0.0961897224999575
 30
0.0
 11
-298.4144332633
 21
-0.0616797075998647
 31
0.0
  0
LINE
  8
DETAIL
  6
CONTINUOUS
 62
     5
 10
-298.4144332633
 20
-0.0616797075998647
 30
0.0
 11
-298.38144851369998
 21
-0.0347515190998138
 31
0.0
  0
LINE
  8
DETAIL
  6
CONTINUOUS
 62
     5
 10
-298.38144851369998
 20
-0.0347515190998138
 30
0.0
 11
-298.34555699280008
 21
-0.0154648345999249
 31
0.0
  0
LINE
  8
DETAIL
  6
CONTINUOUS
 62
     5
 10
-298.34555699280008
 20
-0.0154648345999249
 30
0.0
 11
-298.30664915509988
 21
-0.003869495199865
 31
0.0
  0
LINE
  8
DETAIL
  6
CONTINUOUS
 62
     5
 10
-298.30664915509988
 20
-0.003869495199865
 30
0.0
 11
-298.26476151589992
 21
0.0000000000001137
 31
0.0
  0
LINE
  8
DETAIL
  6
CONTINUOUS
 62
     5
 10
69.243485111200243
 20
-506.09746058959968
 30
0.0
 11
69.092887382500066
 21
-506.1321805394
 31
0.0
  0
LINE
  8
DETAIL
  6
CONTINUOUS
 62
     5
 10
69.092887382500066
 20
-506.1321805394
 30
0.0
 11
68.950696101599988
 21
-506.15099974939989
 31
0.0
  0
LINE
  8
DETAIL
  6
CONTINUOUS
 62
     5
 10
68.950696101599988
 20
-506.15099974939989
 30
0.0
 11
68.817341473900342
 21
-506.15347758560011
 31
0.0
  0
LINE
  8
DETAIL
  6
CONTINUOUS
 62
     5
 10
68.817341473900342
 20
-506.15347758560011
 30
0.0
 11
68.691655501900186
 21
-506.14093594989981
 31
0.0
  0
LINE
  8
DETAIL
  6
CONTINUOUS
 62
     5
 10
68.691655501900186
 20
-506.14093594989981
 30
0.0
 11
68.573152320399913
 21
-506.11470916609989
 31
0.0
  0
LINE
  8
DETAIL
  6
CONTINUOUS
 62
     5
 10
68.573152320399913
 20
-506.11470916609989
 30
0.0
 11
68.460185039099997
 21
-506.07431933379962
 31
0.0
  0
LINE
  8
DETAIL
  6
CONTINUOUS
 62
     5
 10
68.460185039099997
 20
-506.07431933379962
 30
0.0
 11
68.350667486400198
 21
-506.01978857609993
 31
0.0
  0
LINE
  8
DETAIL
  6
CONTINUOUS
 62
     5
 10
68.350667486400198
 20
-506.01978857609993
 30
0.0
 11
68.245390273600151
 21
-505.95095114589998
 31
0.0
  0
LINE
  8
DETAIL
  6
CONTINUOUS
 62
     5
 10
68.245390273600151
 20
-505.95095114589998
 30
0.0
 11
68.144105577900064
 21
-505.86745737179979
 31
0.0
  0
LINE
  8
DETAIL
  6
CONTINUOUS
 62
     5
 10
68.144105577900064
 20
-505.86745737179979
 30
0.0
 11
68.047841703099948
 21
-505.7698811491
 31
0.0
  0
LINE
  8
DETAIL
  6
CONTINUOUS
 62
     5
 10
68.047841703099948
 20
-505.7698811491
 30
0.0
 11
67.957352491400343
 21
-505.65867916109988
 31
0.0
  0
LINE
  8
DETAIL
  6
CONTINUOUS
 62
     5
 10
67.957352491400343
 20
-505.65867916109988
 30
0.0
 11
67.873227216100076
 21
-505.53385337319992
 31
0.0
  0
LINE
  8
DETAIL
  6
CONTINUOUS
 62
     5
 10
67.873227216100076
 20
-505.53385337319992
 30
0.0
 11
67.795778496099956
 21
-505.39492081520001
 31
0.0
  0
LINE
  8
DETAIL
  6
CONTINUOUS
 62
     5
 10
67.795778496099956
 20
-505.39492081520001
 30
0.0
 11
67.726597999800106
 21
-505.24379297839988
 31
0.0
  0
LINE
  8
DETAIL
  6
CONTINUOUS
 62
     5
 10
67.726597999800106
 20
-505.24379297839988
 30
0.0
 11
67.66712428089977
 21
-505.08163882369968
 31
0.0
  0
LINE
  8
DETAIL
  6
CONTINUOUS
 62
     5
 10
67.66712428089977
 20
-505.08163882369968
 30
0.0
 11
67.618144133700298
 21
-504.91020297300003
 31
0.0
  0
LINE
  8
DETAIL
  6
CONTINUOUS
 62
     5
 10
67.618144133700298
 20
-504.91020297300003
 30
0.0
 11
67.580788540700269
 21
-504.73080918199997
 31
0.0
  0
LINE
  8
DETAIL
  6
CONTINUOUS
 62
     5
 10
67.580788540700269
 20
-504.73080918199997
 30
0.0
 11
67.555461887699948
 21
-504.54588901020003
 31
0.0
  0
LINE
  8
DETAIL
  6
CONTINUOUS
 62
     5
 10
67.555461887699948
 20
-504.54588901020003
 30
0.0
 11
67.543032496900196
 21
-504.35867436999979
 31
0.0
  0
LINE
  8
DETAIL
  6
CONTINUOUS
 62
     5
 10
67.543032496900196
 20
-504.35867436999979
 30
0.0
 11
67.543223705899891
 21
-504.16808795739962
 31
0.0
  0
LINE
  8
DETAIL
  6
CONTINUOUS
 62
     5
 10
70.0
 20
-534.60909090910002
 30
0.0
 11
70.257454585399955
 21
-534.5989207934
 31
0.0
  0
LINE
  8
DETAIL
  6
CONTINUOUS
 62
     5
 10
70.257454585399955
 20
-534.5989207934
 30
0.0
 11
70.514106305899986
 21
-534.56844216179991
 31
0.0
  0
LINE
  8
DETAIL
  6
CONTINUOUS
 62
     5
 10
70.514106305899986
 20
-534.56844216179991
 30
0.0
 11
70.769154800500019
 21
-534.51775006079993
 31
0.0
  0
LINE
  8
DETAIL
  6
CONTINUOUS
 62
     5
 10
70.769154800500019
 20
-534.51775006079993
 30
0.0
 11
71.021804707700085
 21
-534.44700257249997
 31
0.0
  0
LINE
  8
DETAIL
  6
CONTINUOUS
 62
     5
 10
71.021804707700085
 20
-534.44700257249997
 30
0.0
 11
71.271268145900194
 21
-534.3564203208
 31
0.0
  0
LINE
  8
DETAIL
  6
CONTINUOUS
 62
     5
 10
71.271268145900194
 20
-534.3564203208
 30
0.0
 11
71.520279601500079
 21
-534.24455373099988
 31
0.0
  0
LINE
  8
DETAIL
  6
CONTINUOUS
 62
     5
 10
68.134972468099932
 20
-531.23131634219999
 30
0.0
 11
68.076296593500047
 21
-531.23350713639991
 31
0.0
  0
LINE
  8
DETAIL
  6
CONTINUOUS
 62
     5
 10
47.963660381899899
 20
-531.96495780429984
 30
0.0
 11
68.076296593500047
 21
-531.23350713639991
 31
0.0
  0
LINE
  8
DETAIL
  6
CONTINUOUS
 62
     5
 10
100.0726792362002
 20
-530.07008439139997
 30
0.0
 11
68.134972468099932
 21
-531.23131634219999
 31
0.0
  0
LINE
  8
DETAIL
  6
CONTINUOUS
 62
     5
 10
94.40848333060012
 20
-506.0
 30
0.0
 11
69.522632055100075
 21
-506.0
 31
0.0
  0
LINE
  8
DETAIL
  6
CONTINUOUS
 62
     5
 10
-69.522632408300069
 20
-506.0
 30
0.0
 11
-94.408483330599665
 21
-506.0
 31
0.0
  0
LINE
  8
DETAIL
  6
CONTINUOUS
 62
     5
 10
91.585046789599801
 20
-512.99999999999989
 30
0.0
 11
74.585046789200078
 21
-512.99999999999989
 31
0.0
  0
LINE
  8
DETAIL
  6
CONTINUOUS
 62
     5
 10
-74.585046789200078
 20
-512.99999999999989
 30
0.0
 11
-91.585046789599801
 21
-512.99999999999989
 31
0.0
  0
LINE
  8
DETAIL
  6
CONTINUOUS
 62
     5
 10
102.0
 20
-517.99999999999989
 30
0.0
 11
-102.0
 21
-517.99999999999989
 31
0.0
  0
LINE
  8
DETAIL
  6
CONTINUOUS
 62
     5
 10
74.0
 20
-531.30909090910006
 30
0.0
 11
66.0
 21
-531.30909090910006
 31
0.0
  0
LINE
  8
DETAIL
  6
CONTINUOUS
 62
     5
 10
74.699999999999818
 20
-532.10909090910002
 30
0.0
 11
65.300000000000182
 21
-532.10909090910002
 31
0.0
  0
LINE
  8
DETAIL
  6
CONTINUOUS
 62
     5
 10
74.699999999999818
 20
-532.60909090910002
 30
0.0
 11
65.300000000000182
 21
-532.60909090910002
 31
0.0
  0
LINE
  8
DETAIL
  6
CONTINUOUS
 62
     5
 10
-89.0
 20
-536.99999999999989
 30
0.0
 11
-99.0
 21
-536.99999999999989
 31
0.0
  0
LINE
  8
DETAIL
  6
CONTINUOUS
 62
     5
 10
-90.0
 20
-538.69999999999993
 30
0.0
 11
-98.0
 21
-538.69999999999993
 31
0.0
  0
LINE
  8
DETAIL
  6
CONTINUOUS
 62
     5
 10
87.335046790300112
 20
-512.99999999999989
 30
0.0
 11
86.642790698499994
 21
-512.97766334289997
 31
0.0
  0
LINE
  8
DETAIL
  6
CONTINUOUS
 62
     5
 10
86.642790698499994
 20
-512.97766334289997
 30
0.0
 11
85.947758984800203
 21
-512.91361138619993
 31
0.0
  0
LINE
  8
DETAIL
  6
CONTINUOUS
 62
     5
 10
85.947758984800203
 20
-512.91361138619993
 30
0.0
 11
85.25337846930006
 21
-512.80780912629984
 31
0.0
  0
LINE
  8
DETAIL
  6
CONTINUOUS
 62
     5
 10
85.25337846930006
 20
-512.80780912629984
 30
0.0
 11
84.549368691799828
 21
-512.66036157399992
 31
0.0
  0
LINE
  8
DETAIL
  6
CONTINUOUS
 62
     5
 10
84.549368691799828
 20
-512.66036157399992
 30
0.0
 11
83.825449191800089
 21
-512.47137374019997
 31
0.0
  0
LINE
  8
DETAIL
  6
CONTINUOUS
 62
     5
 10
83.825449191800089
 20
-512.47137374019997
 30
0.0
 11
83.085046789400167
 21
-512.24081062139987
 31
0.0
  0
LINE
  8
DETAIL
  6
CONTINUOUS
 62
     5
 10
78.835046790300112
 20
-512.99999999999989
 30
0.0
 11
78.142790698499994
 21
-512.97766334289997
 31
0.0
  0
LINE
  8
DETAIL
  6
CONTINUOUS
 62
     5
 10
78.142790698499994
 20
-512.97766334289997
 30
0.0
 11
77.447758984800203
 21
-512.91361138619993
 31
0.0
  0
LINE
  8
DETAIL
  6
CONTINUOUS
 62
     5
 10
77.447758984800203
 20
-512.91361138619993
 30
0.0
 11
76.75337846930006
 21
-512.80780912629984
 31
0.0
  0
LINE
  8
DETAIL
  6
CONTINUOUS
 62
     5
 10
76.75337846930006
 20
-512.80780912629984
 30
0.0
 11
76.049368691799828
 21
-512.66036157399992
 31
0.0
  0
LINE
  8
DETAIL
  6
CONTINUOUS
 62
     5
 10
76.049368691799828
 20
-512.66036157399992
 30
0.0
 11
75.325449191800089
 21
-512.47137374019997
 31
0.0
  0
LINE
  8
DETAIL
  6
CONTINUOUS
 62
     5
 10
75.325449191800089
 20
-512.47137374019997
 30
0.0
 11
74.585046789400167
 21
-512.24081062139987
 31
0.0
  0
LINE
  8
DETAIL
  6
CONTINUOUS
 62
     5
 10
-78.835046788500222
 20
-512.99999999999989
 30
0.0
 11
-79.52730288039993
 21
-512.97766334289997
 31
0.0
  0
LINE
  8
DETAIL
  6
CONTINUOUS
 62
     5
 10
-79.52730288039993
 20
-512.97766334289997
 30
0.0
 11
-80.222334594100175
 21
-512.91361138619993
 31
0.0
  0
LINE
  8
DETAIL
  6
CONTINUOUS
 62
     5
 10
-80.222334594100175
 20
-512.91361138619993
 30
0.0
 11
-80.916715109499819
 21
-512.80780912629984
 31
0.0
  0
LINE
  8
DETAIL
  6
CONTINUOUS
 62
     5
 10
-80.916715109499819
 20
-512.80780912629984
 30
0.0
 11
-81.620724887000051
 21
-512.66036157399992
 31
0.0
  0
LINE
  8
DETAIL
  6
CONTINUOUS
 62
     5
 10
-81.620724887000051
 20
-512.66036157399992
 30
0.0
 11
-82.344644387099834
 21
-512.47137374019997
 31
0.0
  0
LINE
  8
DETAIL
  6
CONTINUOUS
 62
     5
 10
-82.344644387099834
 20
-512.47137374019997
 30
0.0
 11
-83.085046789399712
 21
-512.24081062139987
 31
0.0
  0
LINE
  8
DETAIL
  6
CONTINUOUS
 62
     5
 10
-87.335046788500222
 20
-512.99999999999989
 30
0.0
 11
-88.02730288039993
 21
-512.97766334289997
 31
0.0
  0
LINE
  8
DETAIL
  6
CONTINUOUS
 62
     5
 10
-88.02730288039993
 20
-512.97766334289997
 30
0.0
 11
-88.722334594100175
 21
-512.91361138619993
 31
0.0
  0
LINE
  8
DETAIL
  6
CONTINUOUS
 62
     5
 10
-88.722334594100175
 20
-512.91361138619993
 30
0.0
 11
-89.416715109499819
 21
-512.80780912629984
 31
0.0
  0
LINE
  8
DETAIL
  6
CONTINUOUS
 62
     5
 10
-89.416715109499819
 20
-512.80780912629984
 30
0.0
 11
-90.120724887000051
 21
-512.66036157399992
 31
0.0
  0
LINE
  8
DETAIL
  6
CONTINUOUS
 62
     5
 10
-90.120724887000051
 20
-512.66036157399992
 30
0.0
 11
-90.844644387099834
 21
-512.47137374019997
 31
0.0
  0
LINE
  8
DETAIL
  6
CONTINUOUS
 62
     5
 10
-90.844644387099834
 20
-512.47137374019997
 30
0.0
 11
-91.585046789399712
 21
-512.24081062139987
 31
0.0
  0
LINE
  8
DETAIL
  6
CONTINUOUS
 62
     5
 10
-99.485119584100175
 20
-530.08807066539998
 30
0.0
 11
-100.0105747212001
 21
-530.07008439139997
 31
0.0
  0
LINE
  8
DETAIL
  6
CONTINUOUS
 62
     5
 10
-98.856968573899849
 20
-530.10969007039989
 30
0.0
 11
-99.485119584100175
 21
-530.08807066539998
 31
0.0
  0
LINE
  8
DETAIL
  6
CONTINUOUS
 62
     5
 10
-97.753375381799742
 20
-530.14799066579997
 30
0.0
 11
-98.856968573899849
 21
-530.10969007039989
 31
0.0
  0
LINE
  8
DETAIL
  6
CONTINUOUS
 62
     5
 10
-93.267009185499774
 20
-530.30812646369998
 30
0.0
 11
-97.753375381799742
 21
-530.14799066579997
 31
0.0
  0
LINE
  8
DETAIL
  6
CONTINUOUS
 62
     5
 10
-88.874796920099925
 20
-530.47256106589998
 30
0.0
 11
-93.267009185499774
 21
-530.30812646369998
 31
0.0
  0
LINE
  8
DETAIL
  6
CONTINUOUS
 62
     5
 10
-87.836034303500128
 20
-530.51268562889993
 30
0.0
 11
-88.874796920099925
 21
-530.47256106589998
 31
0.0
  0
LINE
  8
DETAIL
  6
CONTINUOUS
 62
     5
 10
-87.45803847390016
 20
-530.52741202819982
 30
0.0
 11
-87.836034303500128
 21
-530.51268562889993
 31
0.0
  0
LINE
  8
DETAIL
  6
CONTINUOUS
 62
     5
 10
-47.963660381899899
 20
-531.96495780429984
 30
0.0
 11
-86.977531089899912
 21
-530.54623111889998
 31
0.0
  0
LINE
  8
DETAIL
  6
CONTINUOUS
 62
     5
 10
-86.977531089899912
 20
-530.54623111889998
 30
0.0
 11
-87.45803847390016
 21
-530.52741202819982
 31
0.0
  0
LINE
  8
DETAIL
  6
CONTINUOUS
 62
     5
 10
70.0
 20
-534.60909090910002
 30
0.0
 11
69.742545414600045
 21
-534.5989207934
 31
0.0
  0
LINE
  8
DETAIL
  6
CONTINUOUS
 62
     5
 10
69.742545414600045
 20
-534.5989207934
 30
0.0
 11
69.485893694100014
 21
-534.56844216179991
 31
0.0
  0
LINE
  8
DETAIL
  6
CONTINUOUS
 62
     5
 10
69.485893694100014
 20
-534.56844216179991
 30
0.0
 11
69.230845199499981
 21
-534.51775006079993
 31
0.0
  0
LINE
  8
DETAIL
  6
CONTINUOUS
 62
     5
 10
69.230845199499981
 20
-534.51775006079993
 30
0.0
 11
68.97819529230037
 21
-534.44700257249997
 31
0.0
  0
LINE
  8
DETAIL
  6
CONTINUOUS
 62
     5
 10
68.97819529230037
 20
-534.44700257249997
 30
0.0
 11
68.728731854100261
 21
-534.3564203208
 31
0.0
  0
LINE
  8
DETAIL
  6
CONTINUOUS
 62
     5
 10
68.728731854100261
 20
-534.3564203208
 30
0.0
 11
68.479720398499921
 21
-534.24455373099988
 31
0.0
  0
LINE
  8
DETAIL
  6
CONTINUOUS
 62
     5
 10
-69.24349476640009
 20
-506.09745758069982
 30
0.0
 11
-68.980057275599847
 21
-506.18528800769991
 31
0.0
  0
LINE
  8
DETAIL
  6
CONTINUOUS
 62
     5
 10
-68.980057275599847
 20
-506.18528800769991
 30
0.0
 11
-68.703293079599916
 21
-506.29912772129973
 31
0.0
  0
LINE
  8
DETAIL
  6
CONTINUOUS
 62
     5
 10
-68.703293079599916
 20
-506.29912772129973
 30
0.0
 11
-68.414059996499873
 21
-506.44526042310002
 31
0.0
  0
LINE
  8
DETAIL
  6
CONTINUOUS
 62
     5
 10
-68.414059996499873
 20
-506.44526042310002
 30
0.0
 11
-68.109456556399891
 21
-506.60483500890012
 31
0.0
  0
LINE
  8
DETAIL
  6
CONTINUOUS
 62
     5
 10
-68.109456556399891
 20
-506.60483500890012
 30
0.0
 11
-67.78653279450009
 21
-506.75900037479988
 31
0.0
  0
LINE
  8
DETAIL
  6
CONTINUOUS
 62
     5
 10
-67.78653279450009
 20
-506.75900037479988
 30
0.0
 11
-67.446089199899689
 21
-506.91404022219979
 31
0.0
  0
LINE
  8
DETAIL
  6
CONTINUOUS
 62
     5
 10
-108.04003992129989
 20
-514.54854861639978
 30
0.0
 11
-102.0
 21
-517.99999999999989
 31
0.0
  0
LINE
  8
DETAIL
  6
CONTINUOUS
 62
     5
 10
-298.5450300002999
 20
-1.7691518811998319
 30
0.0
 11
-298.54170216979992
 21
-1.76152347649986
 31
0.0
  0
LINE
  8
DETAIL
  6
CONTINUOUS
 62
     5
 10
-298.54170216979992
 20
-1.76152347649986
 30
0.0
 11
-298.52030784499988
 21
-1.724704576499789
 31
0.0
  0
LINE
  8
DETAIL
  6
CONTINUOUS
 62
     5
 10
-298.52030784499988
 20
-1.724704576499789
 30
0.0
 11
-298.49536923429969
 21
-1.6923701425998841
 31
0.0
  0
LINE
  8
DETAIL
  6
CONTINUOUS
 62
     5
 10
-298.49536923429969
 20
-1.6923701425998841
 30
0.0
 11
-298.46680033360008
 21
-1.664653269199903
 31
0.0
  0
LINE
  8
DETAIL
  6
CONTINUOUS
 62
     5
 10
-298.46680033360008
 20
-1.664653269199903
 30
0.0
 11
-298.43446722530012
 21
-1.641692030299851
 31
0.0
  0
LINE
  8
DETAIL
  6
CONTINUOUS
 62
     5
 10
-298.43446722530012
 20
-1.641692030299851
 30
0.0
 11
-298.39826624609992
 21
-1.6236158728997909
 31
0.0
  0
LINE
  8
DETAIL
  6
CONTINUOUS
 62
     5
 10
-298.39826624609992
 20
-1.6236158728997909
 30
0.0
 11
-298.35802062889979
 21
-1.61056403489988
 31
0.0
  0
LINE
  8
DETAIL
  6
CONTINUOUS
 62
     5
 10
-298.35802062889979
 20
-1.61056403489988
 30
0.0
 11
-298.31349263699991
 21
-1.6026566217999521
 31
0.0
  0
LINE
  8
DETAIL
  6
CONTINUOUS
 62
     5
 10
-298.31349263699991
 20
-1.6026566217999521
 30
0.0
 11
-298.26476151589992
 21
-1.5999999999999091
 31
0.0
  0
LINE
  8
DETAIL
  6
CONTINUOUS
 62
     5
 10
46.0
 20
-544.99999999999989
 30
0.0
 11
-46.0
 21
-544.99999999999989
 31
0.0
  0
LINE
  8
DETAIL
  6
CONTINUOUS
 62
     5
 10
-493.14987745110011
 20
-49.999999999999893
 30
0.0
 11
-493.14987745110011
 21
-294.59999999999991
 31
0.0
  0
LINE
  8
DETAIL
  6
CONTINUOUS
 62
     5
 10
-553.64987745110011
 20
-49.999999999999893
 30
0.0
 11
-553.64987745110011
 21
-294.59999999999991
 31
0.0
  0
LINE
  8
DETAIL
  6
CONTINUOUS
 62
     5
 10
-633.95981977370002
 20
-2.3697812692998919
 30
0.0
 11
-633.97729335539998
 21
-2.2959183524999389
 31
0.0
  0
LINE
  8
DETAIL
  6
CONTINUOUS
 62
     5
 10
-633.97729335539998
 20
-2.2959183524999389
 30
0.0
 11
-633.99754902940003
 21
-2.2246034343997958
 31
0.0
  0
LINE
  8
DETAIL
  6
CONTINUOUS
 62
     5
 10
-633.99754902940003
 20
-2.2246034343997958
 30
0.0
 11
-634.02058965549986
 21
-2.1561840961998091
 31
0.0
  0
LINE
  8
DETAIL
  6
CONTINUOUS
 62
     5
 10
-634.02058965549986
 20
-2.1561840961998091
 30
0.0
 11
-634.04655071490015
 21
-2.090731390099791
 31
0.0
  0
LINE
  8
DETAIL
  6
CONTINUOUS
 62
     5
 10
-634.04655071490015
 20
-2.090731390099791
 30
0.0
 11
-634.07555789929984
 21
-2.028338945599899
 31
0.0
  0
LINE
  8
DETAIL
  6
CONTINUOUS
 62
     5
 10
-634.07555789929984
 20
-2.028338945599899
 30
0.0
 11
-634.1076434380002
 21
-1.969352518399774
 31
0.0
  0
LINE
  8
DETAIL
  6
CONTINUOUS
 62
     5
 10
-634.1076434380002
 20
-1.969352518399774
 30
0.0
 11
-634.14281950419991
 21
-1.9140881701998751
 31
0.0
  0
LINE
  8
DETAIL
  6
CONTINUOUS
 62
     5
 10
-634.14281950419991
 20
-1.9140881701998751
 30
0.0
 11
-634.18127195860006
 21
-1.862629244299796
 31
0.0
  0
LINE
  8
DETAIL
  6
CONTINUOUS
 62
     5
 10
-634.18127195860006
 20
-1.862629244299796
 30
0.0
 11
-634.22315527330011
 21
-1.8150935962999031
 31
0.0
  0
LINE
  8
DETAIL
  6
CONTINUOUS
 62
     5
 10
-634.22315527330011
 20
-1.8150935962999031
 30
0.0
 11
-634.26857578640011
 21
-1.771775028799766
 31
0.0
  0
LINE
  8
DETAIL
  6
CONTINUOUS
 62
     5
 10
-634.26857578640011
 20
-1.771775028799766
 30
0.0
 11
-634.31759857689985
 21
-1.732929650699816
 31
0.0
  0
LINE
  8
DETAIL
  6
CONTINUOUS
 62
     5
 10
-634.31759857689985
 20
-1.732929650699816
 30
0.0
 11
-634.37050189450019
 21
-1.698684179899828
 31
0.0
  0
LINE
  8
DETAIL
  6
CONTINUOUS
 62
     5
 10
-634.37050189450019
 20
-1.698684179899828
 30
0.0
 11
-634.4275391156998
 21
-1.6691923190999201
 31
0.0
  0
LINE
  8
DETAIL
  6
CONTINUOUS
 62
     5
 10
-634.4275391156998
 20
-1.6691923190999201
 30
0.0
 11
-634.48884993989986
 21
-1.6446843739997801
 31
0.0
  0
LINE
  8
DETAIL
  6
CONTINUOUS
 62
     5
 10
-634.48884993989986
 20
-1.6446843739997801
 30
0.0
 11
-634.55455398210006
 21
-1.62535383269983
 31
0.0
  0
LINE
  8
DETAIL
  6
CONTINUOUS
 62
     5
 10
-634.55455398210006
 20
-1.62535383269983
 30
0.0
 11
-634.62496487229964
 21
-1.6113614426998311
 31
0.0
  0
LINE
  8
DETAIL
  6
CONTINUOUS
 62
     5
 10
-634.62496487229964
 20
-1.6113614426998311
 30
0.0
 11
-634.70048029989994
 21
-1.602861899199866
 31
0.0
  0
LINE
  8
DETAIL
  6
CONTINUOUS
 62
     5
 10
-634.70048029989994
 20
-1.602861899199866
 30
0.0
 11
-634.78096770189995
 21
-1.5999999999999091
 31
0.0
  0
LINE
  8
DETAIL
  6
CONTINUOUS
 62
     5
 10
-630.0
 20
-198.39999999999989
 30
0.0
 11
-630.0
 21
-199.9999999999998
 31
0.0
  0
LINE
  8
DETAIL
  6
CONTINUOUS
 62
     5
 10
-634.78096770189995
 20
-1.5999999999999091
 30
0.0
 11
-634.78096770189995
 21
0.0000000000001137
 31
0.0
  0
LINE
  8
DETAIL
  6
CONTINUOUS
 62
     5
 10
-636.80000000000018
 20
-1.5999999999999091
 30
0.0
 11
-636.80000000000018
 21
0.0000000000001137
 31
0.0
  0
LINE
  8
DETAIL
  6
CONTINUOUS
 62
     5
 10
-638.40000000000009
 20
-8.5178233311999065
 30
0.0
 11
-638.40000000000009
 21
-3.1999999999998181
 31
0.0
  0
LINE
  8
DETAIL
  6
CONTINUOUS
 62
     5
 10
-638.40000000000009
 20
-8.5178233311999065
 30
0.0
 11
-638.40000000000009
 21
-49.999999999999893
 31
0.0
  0
LINE
  8
DETAIL
  6
CONTINUOUS
 62
     5
 10
-640.0
 20
-3.1999999999998181
 30
0.0
 11
-640.0
 21
-49.999999999999893
 31
0.0
  0
LINE
  8
DETAIL
  6
CONTINUOUS
 62
     5
 10
-633.91127890210009
 20
-2.5226524612999128
 30
0.0
 11
-633.91269144489979
 21
-2.7013989636998299
 31
0.0
  0
LINE
  8
DETAIL
  6
CONTINUOUS
 62
     5
 10
-633.91269144489979
 20
-2.7013989636998299
 30
0.0
 11
-633.91647595630002
 21
-2.8669257296998012
 31
0.0
  0
LINE
  8
DETAIL
  6
CONTINUOUS
 62
     5
 10
-633.91647595630002
 20
-2.8669257296998012
 30
0.0
 11
-633.92264876890022
 21
-3.033262658999774
 31
0.0
  0
LINE
  8
DETAIL
  6
CONTINUOUS
 62
     5
 10
-633.92264876890022
 20
-3.033262658999774
 30
0.0
 11
-633.93120772820021
 21
-3.1999999999998181
 31
0.0
  0
LINE
  8
DETAIL
  6
CONTINUOUS
 62
     5
 10
-633.92368794150025
 20
-2.6041628750997461
 30
0.0
 11
-633.93307482720002
 21
-2.523965794799778
 31
0.0
  0
LINE
  8
DETAIL
  6
CONTINUOUS
 62
     5
 10
-633.93307482720002
 20
-2.523965794799778
 30
0.0
 11
-633.94509776819996
 21
-2.4458194621997791
 31
0.0
  0
LINE
  8
DETAIL
  6
CONTINUOUS
 62
     5
 10
-633.94509776819996
 20
-2.4458194621997791
 30
0.0
 11
-633.95981977370002
 21
-2.3697812692998919
 31
0.0
  0
ARC
  8
DETAIL
  6
CONTINUOUS
 62
     5
 10
-614.0
 20
-119.9999999999998
 30
0.0
 40
78.400000000000006
 50
270.0
 51
320.33679415750993
  0
ARC
  8
DETAIL
  6
CONTINUOUS
 62
     5
 10
614.0
 20
-119.9999999999999
 30
0.0
 40
78.400000000000006
 50
219.6632058424901
 51
270.0
  0
ARC
  8
DETAIL
  6
CONTINUOUS
 62
     5
 10
70.0
 20
-528.08659090909998
 30
0.0
 40
6.5225
 50
223.89739816706819
 51
316.10260183293178
  0
ARC
  8
DETAIL
  6
CONTINUOUS
 62
     5
 10
639.91126983720005
 20
-2.7112698372000068
 30
0.0
 40
6.0
 50
184.67220564019499
 51
255.41131145028339
  0
ARC
  8
DETAIL
  6
CONTINUOUS
 62
     5
 10
-639.91126983720005
 20
-2.711269837199779
 30
0.0
 40
6.0
 50
284.58868854971672
 51
355.32779435980501
  0
ARC
  8
DETAIL
  6
CONTINUOUS
 62
     5
 10
-293.59999999999991
 20
-1.399999999999864
 30
0.0
 40
5.0
 50
201.10019602409679
 51
338.89980397590313
  0
ARC
  8
DETAIL
  6
CONTINUOUS
 62
     5
 10
293.59999999999991
 20
-1.399999999999977
 30
0.0
 40
5.0
 50
201.10019602409679
 51
338.89980397590313
  0
ARC
  8
DETAIL
  6
CONTINUOUS
 62
     5
 10
-636.80000000000018
 20
-3.1999999999998181
 30
0.0
 40
3.2000000000000002
 50
90.0
 51
180.0
  0
ARC
  8
DETAIL
  6
CONTINUOUS
 62
     5
 10
636.80000000000018
 20
-3.200000000000045
 30
0.0
 40
3.2000000000000002
 50
0.0
 51
90.0
  0
ARC
  8
DETAIL
  6
CONTINUOUS
 62
     5
 10
-107.04776204459991
 20
-235.1879376677999
 30
0.0
 40
2.0
 50
119.7448812968962
 51
177.61405596959489
  0
ARC
  8
DETAIL
  6
CONTINUOUS
 62
     5
 10
-100.0
 20
-219.9285946043999
 30
0.0
 40
2.0
 50
92.082565279692119
 51
180.0
  0
ARC
  8
DETAIL
  6
CONTINUOUS
 62
     5
 10
-107.04776204459991
 20
-512.8120623320998
 30
0.0
 40
2.0
 50
182.38594403040511
 51
240.25511870310379
  0
ARC
  8
DETAIL
  6
CONTINUOUS
 62
     5
 10
107.04776204459991
 20
-512.8120623320998
 30
0.0
 40
2.0
 50
299.74488129689621
 51
357.61405596959492
  0
ARC
  8
DETAIL
  6
CONTINUOUS
 62
     5
 10
100.0
 20
-528.07140539550005
 30
0.0
 40
2.0
 50
272.08256527969212
 51
0.0
  0
ARC
  8
DETAIL
  6
CONTINUOUS
 62
     5
 10
-100.0
 20
-528.07140539550005
 30
0.0
 40
2.0
 50
180.0
 51
250.5287793654725
  0
ARC
  8
DETAIL
  6
CONTINUOUS
 62
     5
 10
16.5
 20
-200.04020202529989
 30
0.0
 40
1.8
 50
315.00000000000921
 51
0.0
  0
ARC
  8
DETAIL
  6
CONTINUOUS
 62
     5
 10
-16.5
 20
-200.04020202529989
 30
0.0
 40
1.8
 50
180.0
 51
224.99999999999079
  0
ARC
  8
DETAIL
  6
CONTINUOUS
 62
     5
 10
-636.80000000000018
 20
-3.1999999999998181
 30
0.0
 40
1.6000000000000001
 50
90.0
 51
180.0
  0
ARC
  8
DETAIL
  6
CONTINUOUS
 62
     5
 10
636.80000000000018
 20
-3.200000000000045
 30
0.0
 40
1.6000000000000001
 50
0.0
 51
90.0
  0
ARC
  8
DETAIL
  6
CONTINUOUS
 62
     5
 10
17.5
 20
-202.99999999999989
 30
0.0
 40
1.0
 50
134.99999999941971
 51
180.0
  0
ARC
  8
DETAIL
  6
CONTINUOUS
 62
     5
 10
-17.5
 20
-202.99999999999989
 30
0.0
 40
1.0
 50
0.0
 51
45.000000000580343
  0
ARC
  8
DETAIL
  6
CONTINUOUS
 62
     5
 10
-46.0
 20
-203.99999999999989
 30
0.0
 40
1.0
 50
90.0
 51
180.0
  0
ARC
  8
DETAIL
  6
CONTINUOUS
 62
     5
 10
-48.0
 20
-215.03570269769989
 30
0.0
 40
1.0
 50
272.08256527969212
 51
0.0
  0
ARC
  8
DETAIL
  6
CONTINUOUS
 62
     5
 10
-99.0
 20
-535.99999999999989
 30
0.0
 40
1.0
 50
180.0
 51
270.0
  0
ARC
  8
DETAIL
  6
CONTINUOUS
 62
     5
 10
-89.0
 20
-535.99999999999989
 30
0.0
 40
1.0
 50
270.0
 51
0.0
  0
ARC
  8
DETAIL
  6
CONTINUOUS
 62
     5
 10
-101.0
 20
-530.89983252019999
 30
0.0
 40
1.0
 50
0.0
 51
70.528779365306704
  0
ARC
  8
DETAIL
  6
CONTINUOUS
 62
     5
 10
-87.0
 20
-531.54611548399998
 30
0.0
 40
1.0
 50
87.917434720307881
 51
180.0
  0
ARC
  8
DETAIL
  6
CONTINUOUS
 62
     5
 10
46.0
 20
-543.99999999999989
 30
0.0
 40
1.0
 50
270.0
 51
0.0
  0
ARC
  8
DETAIL
  6
CONTINUOUS
 62
     5
 10
-46.0
 20
-543.99999999999989
 30
0.0
 40
1.0
 50
180.0
 51
270.0
  0
ARC
  8
DETAIL
  6
CONTINUOUS
 62
     5
 10
48.0
 20
-532.96429730220007
 30
0.0
 40
1.0
 50
92.082565279692119
 51
180.0
  0
ARC
  8
DETAIL
  6
CONTINUOUS
 62
     5
 10
-48.0
 20
-532.96429730220007
 30
0.0
 40
1.0
 50
0.0
 51
87.917434720307881
  0
ARC
  8
DETAIL
  6
CONTINUOUS
 62
     5
 10
-90.0
 20
-538.19999999999993
 30
0.0
 40
0.5
 50
270.0
 51
0.0
  0
ARC
  8
DETAIL
  6
CONTINUOUS
 62
     5
 10
-98.0
 20
-538.19999999999993
 30
0.0
 40
0.5
 50
180.0
 51
270.0
  0
LINE
  8
OUTLINE
  6
CONTINUOUS
 62
     3
 10
640.0
 20
-3.200000000000045
 30
0.0
 11
640.0
 21
-50.0
 31
0.0
  0
LINE
  8
OUTLINE
  6
CONTINUOUS
 62
     3
 10
630.0
 20
-198.40000000000009
 30
0.0
 11
630.0
 21
-200.0
 31
0.0
  0
LINE
  8
OUTLINE
  6
CONTINUOUS
 62
     3
 10
553.64987745110011
 20
-50.0
 30
0.0
 11
553.64987745110011
 21
-294.59999999999991
 31
0.0
  0
LINE
  8
OUTLINE
  6
CONTINUOUS
 62
     3
 10
108.04003992129989
 20
-514.54854861639978
 30
0.0
 11
102.0
 21
-517.99999999999989
 31
0.0
  0
LINE
  8
OUTLINE
  6
CONTINUOUS
 62
     3
 10
288.93523848410001
 20
0.0
 30
0.0
 11
-288.93523848410001
 21
0.0000000000001137
 31
0.0
  0
LINE
  8
OUTLINE
  6
CONTINUOUS
 62
     3
 10
-298.26476151589992
 20
0.0000000000001137
 30
0.0
 11
-288.93523848410001
 21
0.0000000000001137
 31
0.0
  0
LINE
  8
OUTLINE
  6
CONTINUOUS
 62
     3
 10
-298.26476151589992
 20
0.0000000000001137
 30
0.0
 11
-636.80000000000018
 21
0.0000000000001137
 31
0.0
  0
LINE
  8
OUTLINE
  6
CONTINUOUS
 62
     3
 10
288.93523848410001
 20
0.0
 30
0.0
 11
298.26476151590032
 21
0.0
 31
0.0
  0
LINE
  8
OUTLINE
  6
CONTINUOUS
 62
     3
 10
298.26476151590032
 20
0.0
 30
0.0
 11
636.80000000000018
 21
0.0
 31
0.0
  0
LINE
  8
OUTLINE
  6
CONTINUOUS
 62
     3
 10
102.0
 20
-517.99999999999989
 30
0.0
 11
102.0
 21
-528.07140539550005
 31
0.0
  0
LINE
  8
OUTLINE
  6
CONTINUOUS
 62
     3
 10
110.0
 20
-490.0
 30
0.0
 11
109.0460281907999
 21
-512.89532342149982
 31
0.0
  0
LINE
  8
OUTLINE
  6
CONTINUOUS
 62
     3
 10
-640.0
 20
-49.999999999999893
 30
0.0
 11
-553.64987745110056
 21
-50.0
 31
0.0
  0
LINE
  8
OUTLINE
  6
CONTINUOUS
 62
     3
 10
47.0
 20
-543.99999999999989
 30
0.0
 11
47.0
 21
-532.96429730220007
 31
0.0
  0
LINE
  8
OUTLINE
  6
CONTINUOUS
 62
     3
 10
-47.0
 20
-543.99999999999989
 30
0.0
 11
-47.0
 21
-532.96429730220007
 31
0.0
  0
LINE
  8
OUTLINE
  6
CONTINUOUS
 62
     3
 10
630.0
 20
-198.40000000000009
 30
0.0
 11
553.64987745110011
 21
-198.40000000000009
 31
0.0
  0
LINE
  8
OUTLINE
  6
CONTINUOUS
 62
     3
 10
-553.64987745110011
 20
-198.39999999999989
 30
0.0
 11
-630.0
 21
-198.39999999999989
 31
0.0
  0
LINE
  8
OUTLINE
  6
CONTINUOUS
 62
     3
 10
630.0
 20
-200.0
 30
0.0
 11
553.64987745110011
 21
-200.0
 31
0.0
  0
LINE
  8
OUTLINE
  6
CONTINUOUS
 62
     3
 10
-553.64987745110011
 20
-199.9999999999998
 30
0.0
 11
-630.0
 21
-199.9999999999998
 31
0.0
  0
LINE
  8
OUTLINE
  6
CONTINUOUS
 62
     3
 10
-88.0
 20
-535.99999999999989
 30
0.0
 11
-88.0
 21
-531.54611548399998
 31
0.0
  0
LINE
  8
OUTLINE
  6
CONTINUOUS
 62
     3
 10
-89.5
 20
-536.99999999999989
 30
0.0
 11
-89.5
 21
-538.19999999999993
 31
0.0
  0
LINE
  8
OUTLINE
  6
CONTINUOUS
 62
     3
 10
-110.0
 20
-490.0
 30
0.0
 11
-109.0460281907999
 21
-512.89532342149982
 31
0.0
  0
LINE
  8
OUTLINE
  6
CONTINUOUS
 62
     3
 10
-98.5
 20
-536.99999999999989
 30
0.0
 11
-98.5
 21
-538.19999999999993
 31
0.0
  0
LINE
  8
OUTLINE
  6
CONTINUOUS
 62
     3
 10
-100.0
 20
-535.99999999999989
 30
0.0
 11
-100.0
 21
-530.89983252019999
 31
0.0
  0
LINE
  8
OUTLINE
  6
CONTINUOUS
 62
     3
 10
-102.0
 20
-517.99999999999989
 30
0.0
 11
-102.0
 21
-528.07140539550005
 31
0.0
  0
LINE
  8
OUTLINE
  6
CONTINUOUS
 62
     3
 10
-424.67489929610019
 20
-443.77963413579988
 30
0.0
 11
-171.8394202528998
 21
-404.60705349609998
 31
0.0
  0
LINE
  8
OUTLINE
  6
CONTINUOUS
 62
     3
 10
-171.8394202528998
 20
-404.60705349609998
 30
0.0
 11
-171.0852738504
 21
-404.49977139309999
 31
0.0
  0
LINE
  8
OUTLINE
  6
CONTINUOUS
 62
     3
 10
-171.0852738504
 20
-404.49977139309999
 30
0.0
 11
-170.32481963659981
 21
-404.4109508416999
 31
0.0
  0
LINE
  8
OUTLINE
  6
CONTINUOUS
 62
     3
 10
-170.32481963659981
 20
-404.4109508416999
 30
0.0
 11
-169.55723283299989
 21
-404.34100946939998
 31
0.0
  0
LINE
  8
OUTLINE
  6
CONTINUOUS
 62
     3
 10
-169.55723283299989
 20
-404.34100946939998
 30
0.0
 11
-168.78467712639991
 21
-404.29061196669988
 31
0.0
  0
LINE
  8
OUTLINE
  6
CONTINUOUS
 62
     3
 10
-168.78467712639991
 20
-404.29061196669988
 30
0.0
 11
-168.00928990899999
 21
-404.26020156209961
 31
0.0
  0
LINE
  8
OUTLINE
  6
CONTINUOUS
 62
     3
 10
-168.00928990899999
 20
-404.26020156209961
 30
0.0
 11
-167.2301917673999
 21
-404.25
 31
0.0
  0
LINE
  8
OUTLINE
  6
CONTINUOUS
 62
     3
 10
171.8394202528998
 20
-404.60705349609998
 30
0.0
 11
171.0852738504
 21
-404.49977139309999
 31
0.0
  0
LINE
  8
OUTLINE
  6
CONTINUOUS
 62
     3
 10
171.0852738504
 20
-404.49977139309999
 30
0.0
 11
170.3248196366003
 21
-404.4109508416999
 31
0.0
  0
LINE
  8
OUTLINE
  6
CONTINUOUS
 62
     3
 10
170.3248196366003
 20
-404.4109508416999
 30
0.0
 11
169.55723283299989
 21
-404.34100946939998
 31
0.0
  0
LINE
  8
OUTLINE
  6
CONTINUOUS
 62
     3
 10
169.55723283299989
 20
-404.34100946939998
 30
0.0
 11
168.78467712640031
 21
-404.29061196669988
 31
0.0
  0
LINE
  8
OUTLINE
  6
CONTINUOUS
 62
     3
 10
168.78467712640031
 20
-404.29061196669988
 30
0.0
 11
168.00928990899999
 21
-404.26020156209961
 31
0.0
  0
LINE
  8
OUTLINE
  6
CONTINUOUS
 62
     3
 10
168.00928990899999
 20
-404.26020156209961
 30
0.0
 11
167.23019176740041
 21
-404.25
 31
0.0
  0
LINE
  8
OUTLINE
  6
CONTINUOUS
 62
     3
 10
424.67489929610019
 20
-443.77963413580022
 30
0.0
 11
171.8394202528998
 21
-404.60705349609998
 31
0.0
  0
LINE
  8
OUTLINE
  6
CONTINUOUS
 62
     3
 10
-167.2301917673999
 20
-404.25
 30
0.0
 11
-150.07481089809971
 21
-404.25
 31
0.0
  0
LINE
  8
OUTLINE
  6
CONTINUOUS
 62
     3
 10
47.963660381899899
 20
-531.96495780429984
 30
0.0
 11
68.076296593500047
 21
-531.23350713639991
 31
0.0
  0
LINE
  8
OUTLINE
  6
CONTINUOUS
 62
     3
 10
100.0726792362002
 20
-530.07008439139997
 30
0.0
 11
68.134972468099932
 21
-531.23131634219999
 31
0.0
  0
LINE
  8
OUTLINE
  6
CONTINUOUS
 62
     3
 10
-89.0
 20
-536.99999999999989
 30
0.0
 11
-99.0
 21
-536.99999999999989
 31
0.0
  0
LINE
  8
OUTLINE
  6
CONTINUOUS
 62
     3
 10
-90.0
 20
-538.69999999999993
 30
0.0
 11
-98.0
 21
-538.69999999999993
 31
0.0
  0
LINE
  8
OUTLINE
  6
CONTINUOUS
 62
     3
 10
-47.963660381899899
 20
-531.96495780429984
 30
0.0
 11
-86.977531089899912
 21
-530.54623111889998
 31
0.0
  0
LINE
  8
OUTLINE
  6
CONTINUOUS
 62
     3
 10
-86.977531089899912
 20
-530.54623111889998
 30
0.0
 11
-87.45803847390016
 21
-530.52741202819982
 31
0.0
  0
LINE
  8
OUTLINE
  6
CONTINUOUS
 62
     3
 10
-108.04003992129989
 20
-514.54854861639978
 30
0.0
 11
-102.0
 21
-517.99999999999989
 31
0.0
  0
LINE
  8
OUTLINE
  6
CONTINUOUS
 62
     3
 10
46.0
 20
-544.99999999999989
 30
0.0
 11
-46.0
 21
-544.99999999999989
 31
0.0
  0
LINE
  8
OUTLINE
  6
CONTINUOUS
 62
     3
 10
-553.64987745110011
 20
-49.999999999999893
 30
0.0
 11
-553.64987745110011
 21
-294.59999999999991
 31
0.0
  0
LINE
  8
OUTLINE
  6
CONTINUOUS
 62
     3
 10
-630.0
 20
-198.39999999999989
 30
0.0
 11
-630.0
 21
-199.9999999999998
 31
0.0
  0
LINE
  8
OUTLINE
  6
CONTINUOUS
 62
     3
 10
-640.0
 20
-3.1999999999998181
 30
0.0
 11
-640.0
 21
-49.999999999999893
 31
0.0
  0
ARC
  8
OUTLINE
  6
CONTINUOUS
 62
     3
 10
-614.0
 20
-119.9999999999998
 30
0.0
 40
78.400000000000006
 50
270.0
 51
320.33679415750993
  0
ARC
  8
OUTLINE
  6
CONTINUOUS
 62
     3
 10
614.0
 20
-120.0
 30
0.0
 40
78.400000000000006
 50
219.6632058424901
 51
270.0
  0
ARC
  8
OUTLINE
  6
CONTINUOUS
 62
     3
 10
-636.80000000000018
 20
-3.1999999999998181
 30
0.0
 40
3.2000000000000002
 50
90.0
 51
180.0
  0
ARC
  8
OUTLINE
  6
CONTINUOUS
 62
     3
 10
636.80000000000018
 20
-3.200000000000045
 30
0.0
 40
3.2000000000000002
 50
0.0
 51
90.0
  0
ARC
  8
OUTLINE
  6
CONTINUOUS
 62
     3
 10
-107.04776204459991
 20
-512.8120623320998
 30
0.0
 40
2.0
 50
182.38594403040511
 51
240.25511870310379
  0
ARC
  8
OUTLINE
  6
CONTINUOUS
 62
     3
 10
107.04776204459991
 20
-512.8120623320998
 30
0.0
 40
2.0
 50
299.74488129689621
 51
357.61405596959492
  0
ARC
  8
OUTLINE
  6
CONTINUOUS
 62
     3
 10
100.0
 20
-528.07140539550005
 30
0.0
 40
2.0
 50
272.08256527969212
 51
0.0
  0
ARC
  8
OUTLINE
  6
CONTINUOUS
 62
     3
 10
-100.0
 20
-528.07140539550005
 30
0.0
 40
2.0
 50
180.0
 51
250.5287793654725
  0
ARC
  8
OUTLINE
  6
CONTINUOUS
 62
     3
 10
-99.0
 20
-535.99999999999989
 30
0.0
 40
1.0
 50
180.0
 51
270.0
  0
ARC
  8
OUTLINE
  6
CONTINUOUS
 62
     3
 10
-89.0
 20
-535.99999999999989
 30
0.0
 40
1.0
 50
270.0
 51
0.0
  0
ARC
  8
OUTLINE
  6
CONTINUOUS
 62
     3
 10
-101.0
 20
-530.89983252019999
 30
0.0
 40
1.0
 50
0.0
 51
70.528779365306704
  0
ARC
  8
OUTLINE
  6
CONTINUOUS
 62
     3
 10
-87.0
 20
-531.54611548399998
 30
0.0
 40
1.0
 50
87.917434720307881
 51
180.0
  0
ARC
  8
OUTLINE
  6
CONTINUOUS
 62
     3
 10
46.0
 20
-543.99999999999989
 30
0.0
 40
1.0
 50
270.0
 51
0.0
  0
ARC
  8
OUTLINE
  6
CONTINUOUS
 62
     3
 10
-46.0
 20
-543.99999999999989
 30
0.0
 40
1.0
 50
180.0
 51
270.0
  0
ARC
  8
OUTLINE
  6
CONTINUOUS
 62
     3
 10
48.0
 20
-532.96429730220007
 30
0.0
 40
1.0
 50
92.082565279692119
 51
180.0
  0
ARC
  8
OUTLINE
  6
CONTINUOUS
 62
     3
 10
-48.0
 20
-532.96429730220007
 30
0.0
 40
1.0
 50
0.0
 51
87.917434720307881
  0
ARC
  8
OUTLINE
  6
CONTINUOUS
 62
     3
 10
-90.0
 20
-538.19999999999993
 30
0.0
 40
0.5
 50
270.0
 51
0.0
  0
ARC
  8
OUTLINE
  6
CONTINUOUS
 62
     3
 10
-98.0
 20
-538.19999999999993
 30
0.0
 40
0.5
 50
180.0
 51
270.0
  0
LINE
  8
OUTLINE
  6
CONTINUOUS
 62
     3
 10
553.64987745110056
 20
-50.0
 30
0.0
 11
640.0
 21
-50.0
 31
0.0
  0
LINE
  8
BASIS
  6
DASHDOT
 62
     6
 10
0.0
 20
-603.98838846027752
 30
0.0
 11
0.0
 21
48.98360007670567
 31
0.0
  0
CIRCLE
  8
FIX
  6
CONTINUOUS
 62
    11
 10
605.0
 20
0.0
 30
0.0
 40
7.0
  0
LINE
  8
NOTE
  6
CONTINUOUS
 62
     4
 10
605.0
 20
-55.428046801112259
 30
0.0
 11
605.0
 21
16.035252376258541
 31
0.0
  0
LINE
  8
NOTE
  6
CONTINUOUS
 62
     4
 10
605.0
 20
-46.485854787462358
 30
0.0
 11
605.0
 21
24.796828318904549
 31
0.0
  0
CIRCLE
  8
FIX
  6
CONTINUOUS
 62
    11
 10
375.0
 20
0.0
 30
0.0
 40
7.0
  0
LINE
  8
NOTE
  6
CONTINUOUS
 62
     4
 10
375.0
 20
-55.428046801112259
 30
0.0
 11
375.0
 21
16.035252376258541
 31
0.0
  0
LINE
  8
NOTE
  6
CONTINUOUS
 62
     4
 10
375.0
 20
-46.485854787462358
 30
0.0
 11
375.0
 21
24.796828318904549
 31
0.0
  0
CIRCLE
  8
FIX
  6
CONTINUOUS
 62
    11
 10
-375.0
 20
0.0000000000001137
 30
0.0
 40
7.0
  0
LINE
  8
NOTE
  6
CONTINUOUS
 62
     4
 10
-375.0
 20
-55.428046801112153
 30
0.0
 11
-375.0
 21
16.035252376258651
 31
0.0
  0
LINE
  8
NOTE
  6
CONTINUOUS
 62
     4
 10
-375.0
 20
-46.485854787462237
 30
0.0
 11
-375.0
 21
24.796828318904659
 31
0.0
  0
CIRCLE
  8
FIX
  6
CONTINUOUS
 62
    11
 10
-605.0
 20
0.0000000000001137
 30
0.0
 40
7.0
  0
LINE
  8
NOTE
  6
CONTINUOUS
 62
     4
 10
-605.0
 20
-55.428046801112153
 30
0.0
 11
-605.0
 21
16.035252376258651
 31
0.0
  0
LINE
  8
NOTE
  6
CONTINUOUS
 62
     4
 10
-605.0
 20
-46.485854787462237
 30
0.0
 11
-605.0
 21
24.796828318904659
 31
0.0
  0
LINE
  8
SIZE
  6
CONTINUOUS
 62
    30
 10
-375.0
 20
44.796828318904659
 30
0.0
 11
-375.0
 21
207.99700236409009
 31
0.0
  0
LINE
  8
SIZE
  6
CONTINUOUS
 62
    30
 10
375.0
 20
44.796828318904552
 30
0.0
 11
375.0
 21
207.99700236409009
 31
0.0
  0
LINE
  8
SIZE
  6
CONTINUOUS
 62
    30
 10
-363.0
 20
187.99700236409009
 30
0.0
 11
363.0
 21
187.99700236409009
 31
0.0
  0
CIRCLE
  8
SIZE
  6
CONTINUOUS
 62
    30
 10
-375.0
 20
187.99700236409009
 30
0.0
 40
6.0
  0
LINE
  8
SIZE
  6
CONTINUOUS
 62
    30
 10
-375.0
 20
187.99700236409009
 30
0.0
 11
-363.0
 21
187.99700236409009
 31
0.0
  0
CIRCLE
  8
SIZE
  6
CONTINUOUS
 62
    30
 10
375.0
 20
187.99700236409009
 30
0.0
 40
6.0
  0
LINE
  8
SIZE
  6
CONTINUOUS
 62
    30
 10
375.0
 20
187.99700236409009
 30
0.0
 11
363.0
 21
187.99700236409009
 31
0.0
  0
TEXT
  8
SIZE
  6
CONTINUOUS
 62
    30
 10
-74.057142857142864
 20
212.99700236409009
 30
0.0
 40
64.0
  1
750
 41
0.9
 72
     1
 11
0.0
 21
212.99700236409009
 31
0.0
  0
POINT
  8
DEFPOINTS
  6
CONTINUOUS
 62
    30
 10
-375.0
 20
24.796828318904659
 30
0.0
  0
POINT
  8
DEFPOINTS
  6
CONTINUOUS
 62
    30
 10
375.0
 20
24.796828318904549
 30
0.0
  0
POINT
  8
DEFPOINTS
  6
CONTINUOUS
 62
    30
 10
375.0
 20
187.99700236409009
 30
0.0
  0
LINE
  8
SIZE
  6
CONTINUOUS
 62
    30
 10
-605.0
 20
44.796828318904659
 30
0.0
 11
-605.0
 21
380.69281043871661
 31
0.0
  0
LINE
  8
SIZE
  6
CONTINUOUS
 62
    30
 10
605.0
 20
44.796828318904552
 30
0.0
 11
605.0
 21
380.69281043871661
 31
0.0
  0
LINE
  8
SIZE
  6
CONTINUOUS
 62
    30
 10
-593.0
 20
360.69281043871661
 30
0.0
 11
593.0
 21
360.69281043871661
 31
0.0
  0
CIRCLE
  8
SIZE
  6
CONTINUOUS
 62
    30
 10
-605.0
 20
360.69281043871661
 30
0.0
 40
6.0
  0
LINE
  8
SIZE
  6
CONTINUOUS
 62
    30
 10
-605.0
 20
360.69281043871661
 30
0.0
 11
-593.0
 21
360.69281043871661
 31
0.0
  0
CIRCLE
  8
SIZE
  6
CONTINUOUS
 62
    30
 10
605.0
 20
360.69281043871661
 30
0.0
 40
6.0
  0
LINE
  8
SIZE
  6
CONTINUOUS
 62
    30
 10
605.0
 20
360.69281043871661
 30
0.0
 11
593.0
 21
360.69281043871661
 31
0.0
  0
TEXT
  8
SIZE
  6
CONTINUOUS
 62
    30
 10
-90.514285714285705
 20
385.69281043871661
 30
0.0
 40
64.0
  1
1210
 41
0.9
 72
     1
 11
0.0
 21
385.69281043871661
 31
0.0
  0
POINT
  8
DEFPOINTS
  6
CONTINUOUS
 62
    30
 10
-605.0
 20
24.796828318904659
 30
0.0
  0
POINT
  8
DEFPOINTS
  6
CONTINUOUS
 62
    30
 10
605.0
 20
24.796828318904549
 30
0.0
  0
POINT
  8
DEFPOINTS
  6
CONTINUOUS
 62
    30
 10
605.0
 20
360.69281043871661
 30
0.0
  0
LINE
  8
SIZE
  6
CONTINUOUS
 62
    30
 10
-640.0
 20
16.800000000000178
 30
0.0
 11
-640.0
 21
579.0131465254758
 31
0.0
  0
LINE
  8
SIZE
  6
CONTINUOUS
 62
    30
 10
640.0
 20
16.799999999999951
 30
0.0
 11
640.0
 21
579.0131465254758
 31
0.0
  0
LINE
  8
SIZE
  6
CONTINUOUS
 62
    30
 10
-628.0
 20
559.0131465254758
 30
0.0
 11
628.0
 21
559.0131465254758
 31
0.0
  0
CIRCLE
  8
SIZE
  6
CONTINUOUS
 62
    30
 10
-640.0
 20
559.0131465254758
 30
0.0
 40
6.0
  0
LINE
  8
SIZE
  6
CONTINUOUS
 62
    30
 10
-640.0
 20
559.0131465254758
 30
0.0
 11
-628.0
 21
559.0131465254758
 31
0.0
  0
CIRCLE
  8
SIZE
  6
CONTINUOUS
 62
    30
 10
640.0
 20
559.0131465254758
 30
0.0
 40
6.0
  0
LINE
  8
SIZE
  6
CONTINUOUS
 62
    30
 10
640.0
 20
559.0131465254758
 30
0.0
 11
628.0
 21
559.0131465254758
 31
0.0
  0
TEXT
  8
SIZE
  6
CONTINUOUS
 62
    30
 10
-96.000000000000014
 20
584.0131465254758
 30
0.0
 40
64.0
  1
1280
 41
0.9
 72
     1
 11
0.0
 21
584.0131465254758
 31
0.0
  0
POINT
  8
DEFPOINTS
  6
CONTINUOUS
 62
    30
 10
-640.0
 20
-3.1999999999998181
 30
0.0
  0
POINT
  8
DEFPOINTS
  6
CONTINUOUS
 62
    30
 10
640.0
 20
-3.200000000000045
 30
0.0
  0
POINT
  8
DEFPOINTS
  6
CONTINUOUS
 62
    30
 10
640.0
 20
559.0131465254758
 30
0.0
  0
LINE
  8
SIZE
  6
CONTINUOUS
 62
    30
 10
656.80000000000018
 20
0.0
 30
0.0
 11
806.29742991472085
 21
0.0
 31
0.0
  0
LINE
  8
SIZE
  6
CONTINUOUS
 62
    30
 10
660.0
 20
-50.0
 30
0.0
 11
806.29742991472085
 21
-50.0
 31
0.0
  0
LINE
  8
SIZE
  6
CONTINUOUS
 62
    30
 10
786.29742991472085
 20
12.0
 30
0.0
 11
786.29742991472085
 21
24.0
 31
0.0
  0
LINE
  8
SIZE
  6
CONTINUOUS
 62
    30
 10
786.29742991472085
 20
-62.0
 30
0.0
 11
786.29742991472085
 21
-349.26044708019128
 31
0.0
  0
LINE
  8
SIZE
  6
CONTINUOUS
 62
    30
 10
786.29742991472085
 20
0.0
 30
0.0
 11
786.29742991472085
 21
-50.0
 31
0.0
  0
CIRCLE
  8
SIZE
  6
CONTINUOUS
 62
    30
 10
786.29742991472085
 20
0.0
 30
0.0
 40
6.0
  0
LINE
  8
SIZE
  6
CONTINUOUS
 62
    30
 10
786.29742991472085
 20
0.0
 30
0.0
 11
786.29742991472085
 21
12.0
 31
0.0
  0
CIRCLE
  8
SIZE
  6
CONTINUOUS
 62
    30
 10
786.29742991472085
 20
-50.0
 30
0.0
 40
6.0
  0
LINE
  8
SIZE
  6
CONTINUOUS
 62
    30
 10
786.29742991472085
 20
-50.0
 30
0.0
 11
786.29742991472085
 21
-62.0
 31
0.0
  0
TEXT
  8
SIZE
  6
CONTINUOUS
 62
    30
 10
761.2974299147204
 20
-324.2604470801914
 30
0.0
 40
64.0
  1
50
 50
90.0
 41
0.9
 72
     1
 11
761.2974299147204
 21
-277.63187565162002
 31
0.0
  0
POINT
  8
DEFPOINTS
  6
CONTINUOUS
 62
    30
 10
636.80000000000018
 20
0.0
 30
0.0
  0
POINT
  8
DEFPOINTS
  6
CONTINUOUS
 62
    30
 10
640.0
 20
-50.0
 30
0.0
  0
POINT
  8
DEFPOINTS
  6
CONTINUOUS
 62
    30
 10
786.29742991472085
 20
-50.0
 30
0.0
  0
LINE
  8
SIZE
  6
CONTINUOUS
 62
    30
 10
656.80000000000018
 20
0.0
 30
0.0
 11
979.09455410171586
 21
0.0
 31
0.0
  0
LINE
  8
SIZE
  6
CONTINUOUS
 62
    30
 10
650.0
 20
-200.00000000000011
 30
0.0
 11
979.09455410171586
 21
-200.00000000000011
 31
0.0
  0
LINE
  8
SIZE
  6
CONTINUOUS
 62
    30
 10
959.09455410171586
 20
-12.0
 30
0.0
 11
959.09455410171586
 21
-188.00000000000011
 31
0.0
  0
CIRCLE
  8
SIZE
  6
CONTINUOUS
 62
    30
 10
959.09455410171586
 20
0.0
 30
0.0
 40
6.0
  0
LINE
  8
SIZE
  6
CONTINUOUS
 62
    30
 10
959.09455410171586
 20
0.0
 30
0.0
 11
959.09455410171586
 21
-12.0
 31
0.0
  0
CIRCLE
  8
SIZE
  6
CONTINUOUS
 62
    30
 10
959.09455410171586
 20
-200.00000000000011
 30
0.0
 40
6.0
  0
LINE
  8
SIZE
  6
CONTINUOUS
 62
    30
 10
959.09455410171586
 20
-200.00000000000011
 30
0.0
 11
959.09455410171586
 21
-188.00000000000011
 31
0.0
  0
TEXT
  8
SIZE
  6
CONTINUOUS
 62
    30
 10
934.0945541017154
 20
-174.05714285714311
 30
0.0
 40
64.0
  1
200
 50
90.0
 41
0.9
 72
     1
 11
934.0945541017154
 21
-100.0000000000003
 31
0.0
  0
POINT
  8
DEFPOINTS
  6
CONTINUOUS
 62
    30
 10
636.80000000000018
 20
0.0
 30
0.0
  0
POINT
  8
DEFPOINTS
  6
CONTINUOUS
 62
    30
 10
630.0
 20
-200.00000000000011
 30
0.0
  0
POINT
  8
DEFPOINTS
  6
CONTINUOUS
 62
    30
 10
959.09455410171586
 20
-200.00000000000011
 30
0.0
  0
LINE
  8
SIZE
  6
CONTINUOUS
 62
    30
 10
-656.80000000000041
 20
0.0000000000001137
 30
0.0
 11
-839.88418486306523
 21
0.0000000000001137
 31
0.0
  0
LINE
  8
SIZE
  6
CONTINUOUS
 62
    30
 10
-459.06927082600009
 20
-444.84848918669991
 30
0.0
 11
-839.884184863065
 21
-444.84848918670008
 31
0.0
  0
LINE
  8
SIZE
  6
CONTINUOUS
 62
    30
 10
-819.88418486306523
 20
-11.99999999999989
 30
0.0
 11
-819.884184863065
 21
-432.84848918670008
 31
0.0
  0
CIRCLE
  8
SIZE
  6
CONTINUOUS
 62
    30
 10
-819.88418486306523
 20
0.0000000000001137
 30
0.0
 40
6.0
  0
LINE
  8
SIZE
  6
CONTINUOUS
 62
    30
 10
-819.88418486306523
 20
0.0000000000001137
 30
0.0
 11
-819.88418486306523
 21
-11.99999999999989
 31
0.0
  0
CIRCLE
  8
SIZE
  6
CONTINUOUS
 62
    30
 10
-819.884184863065
 20
-444.84848918670008
 30
0.0
 40
6.0
  0
LINE
  8
SIZE
  6
CONTINUOUS
 62
    30
 10
-819.884184863065
 20
-444.84848918670008
 30
0.0
 11
-819.884184863065
 21
-432.84848918670008
 31
0.0
  0
TEXT
  8
SIZE
  6
CONTINUOUS
 62
    30
 10
-844.884184863065
 20
-295.10995887906421
 30
0.0
 40
64.0
  1
436
 50
90.0
 41
0.9
 72
     1
 11
-844.884184863065
 21
-222.42424459334981
 31
0.0
  0
POINT
  8
DEFPOINTS
  6
CONTINUOUS
 62
    30
 10
-636.80000000000041
 20
0.0000000000001137
 30
0.0
  0
POINT
  8
DEFPOINTS
  6
CONTINUOUS
 62
    30
 10
-439.06927082600009
 20
-444.84848918669991
 30
0.0
  0
POINT
  8
DEFPOINTS
  6
CONTINUOUS
 62
    30
 10
-819.884184863065
 20
-444.84848918670008
 30
0.0
  0
LINE
  8
SIZE
  6
CONTINUOUS
 62
    30
 10
-656.80000000000041
 20
0.0000000000001137
 30
0.0
 11
-1026.9337274279819
 21
0.0
 31
0.0
  0
LINE
  8
SIZE
  6
CONTINUOUS
 62
    30
 10
-20.0
 20
-545.00000000000011
 30
0.0
 11
-1026.9337274279819
 21
-545.00000000000011
 31
0.0
  0
LINE
  8
SIZE
  6
CONTINUOUS
 62
    30
 10
-1006.933727427982
 20
-12.0
 30
0.0
 11
-1006.933727427982
 21
-533.00000000000011
 31
0.0
  0
CIRCLE
  8
SIZE
  6
CONTINUOUS
 62
    30
 10
-1006.933727427982
 20
0.0
 30
0.0
 40
6.0
  0
LINE
  8
SIZE
  6
CONTINUOUS
 62
    30
 10
-1006.933727427982
 20
0.0
 30
0.0
 11
-1006.933727427982
 21
-12.0
 31
0.0
  0
CIRCLE
  8
SIZE
  6
CONTINUOUS
 62
    30
 10
-1006.933727427982
 20
-545.00000000000011
 30
0.0
 40
6.0
  0
LINE
  8
SIZE
  6
CONTINUOUS
 62
    30
 10
-1006.933727427982
 20
-545.00000000000011
 30
0.0
 11
-1006.933727427982
 21
-533.00000000000011
 31
0.0
  0
TEXT
  8
SIZE
  6
CONTINUOUS
 62
    30
 10
-1031.9337274279819
 20
-346.55714285714259
 30
0.0
 40
64.0
  1
545
 50
90.0
 41
0.9
 72
     1
 11
-1031.9337274279819
 21
-272.49999999999972
 31
0.0
  0
POINT
  8
DEFPOINTS
  6
CONTINUOUS
 62
    30
 10
-636.80000000000041
 20
0.0000000000001137
 30
0.0
  0
POINT
  8
DEFPOINTS
  6
CONTINUOUS
 62
    30
 10
0.0
 20
-545.00000000000011
 30
0.0
  0
POINT
  8
DEFPOINTS
  6
CONTINUOUS
 62
    30
 10
-1006.933727427982
 20
-545.00000000000011
 30
0.0
  0
LINE
  8
SIZE
  6
CONTINUOUS
 62
    30
 10
-152.81616243727649
 20
-393.99914992157278
 30
0.0
 11
-152.81616243727649
 21
-777.80764439321104
 31
0.0
  0
LINE
  8
SIZE
  6
CONTINUOUS
 62
    30
 10
152.18383756272351
 20
-393.99914992157289
 30
0.0
 11
152.18383756272351
 21
-777.80764439321104
 31
0.0
  0
LINE
  8
SIZE
  6
CONTINUOUS
 62
    30
 10
-140.81616243727649
 20
-757.80764439321104
 30
0.0
 11
140.18383756272351
 21
-757.80764439321104
 31
0.0
  0
CIRCLE
  8
SIZE
  6
CONTINUOUS
 62
    30
 10
-152.81616243727649
 20
-757.80764439321104
 30
0.0
 40
6.0
  0
LINE
  8
SIZE
  6
CONTINUOUS
 62
    30
 10
-152.81616243727649
 20
-757.80764439321104
 30
0.0
 11
-140.81616243727649
 21
-757.80764439321104
 31
0.0
  0
CIRCLE
  8
SIZE
  6
CONTINUOUS
 62
    30
 10
152.18383756272351
 20
-757.80764439321104
 30
0.0
 40
6.0
  0
LINE
  8
SIZE
  6
CONTINUOUS
 62
    30
 10
152.18383756272351
 20
-757.80764439321104
 30
0.0
 11
140.18383756272351
 21
-757.80764439321104
 31
0.0
  0
TEXT
  8
SIZE
  6
CONTINUOUS
 62
    30
 10
-114.6933052944193
 20
-732.80764439321104
 30
0.0
 40
64.0
  1
φ305
 41
0.9
 72
     1
 11
-0.3161624372764891
 21
-732.80764439321104
 31
0.0
  0
POINT
  8
DEFPOINTS
  6
CONTINUOUS
 62
    30
 10
-152.81616243727649
 20
-373.99914992157278
 30
0.0
  0
POINT
  8
DEFPOINTS
  6
CONTINUOUS
 62
    30
 10
152.18383756272351
 20
-373.99914992157289
 30
0.0
  0
POINT
  8
DEFPOINTS
  6
CONTINUOUS
 62
    30
 10
152.18383756272351
 20
-757.80764439321104
 30
0.0
  0
TEXT
  8
NOTE
  6
CONTINUOUS
 62
     4
 10
-1018.945417799433
 20
89.632665428528639
 30
0.0
 40
64.0
  1
12-φ15
 41
0.9
  0
LINE
  8
NOTE
  6
CONTINUOUS
 62
     4
 10
-607.76339863963221
 20
5.5631220774381518
 30
0.0
 11
-605.0
 21
0.0000000000001137
 31
0.0
  0
LINE
  8
NOTE
  6
CONTINUOUS
 62
     4
 10
-605.0
 20
0.0000000000001137
 30
0.0
 11
-610.17473963943576
 21
3.4360979255619668
 31
0.0
  0
LINE
  8
NOTE
  6
CONTINUOUS
 62
     4
 10
-605.0
 20
0.0000000000001137
 30
0.0
 11
-612.93813827906797
 21
8.9992200030000049
 31
0.0
  0
LINE
  8
NOTE
  6
CONTINUOUS
 62
     4
 10
-612.93813827906797
 20
8.9992200030000049
 30
0.0
 11
-661.10359287950132
 21
63.60289497761562
 31
0.0
  0
LINE
  8
NOTE
  6
CONTINUOUS
 62
     4
 10
-661.10359287950132
 20
63.60289497761562
 30
0.0
 11
-1026.0688684033189
 21
63.764349826796092
 31
0.0
  0
TEXT
  8
ETC
  6
CONTINUOUS
 62
    61
 10
711.89302718490671
 20
527.1432820134097
 30
0.0
 40
64.0
  1
EWH-105MTA2-50_1
 41
0.9
  0
TEXT
  8
ETC
  6
CONTINUOUS
 62
    61
 10
707.70703318490632
 20
409.18797199857858
 30
0.0
 40
64.0
  1
有圧換気扇
 41
0.9
  0
TEXT
  8
ETC
  6
CONTINUOUS
 62
    61
 10
758.99367376110558
 20
301.48471720239422
 30
0.0
 40
40.0
  1
EWH-105MTA2-50
 41
0.9
  0
TEXT
  8
ETC
  6
CONTINUOUS
 62
    61
 10
758.99367376110558
 20
219.0033559180315
 30
0.0
 40
40.0
  1
EWH-105MTA2-60
 41
0.9
  0
ARC
  8
DETAIL
  6
CONTINUOUS
 62
     5
 10
-386.00810546717639
 20
-299.28667682876011
 30
0.0
 40
167.7072707237437
 50
178.39862777205471
 51
226.05891588436691
  0
ARC
  8
DETAIL
  6
CONTINUOUS
 62
     5
 10
-438.77820615581572
 20
-350.44248377052281
 30
0.0
 40
94.396646670788314
 50
225.58039931950759
 51
278.59243220624688
  0
ARC
  8
DETAIL
  6
CONTINUOUS
 62
     5
 10
-393.96040251483282
 20
-293.20583000501881
 30
0.0
 40
99.199272417227149
 50
180.80527492385559
 51
246.2340631011723
  0
ARC
  8
DETAIL
  6
CONTINUOUS
 62
     5
 10
399.95905266411052
 20
-304.12154488464398
 30
0.0
 40
153.98548451297421
 50
304.36118203840022
 51
3.5450911560291112
  0
ARC
  8
DETAIL
  6
CONTINUOUS
 62
     5
 10
438.62234066068407
 20
-352.15921564078712
 30
0.0
 40
92.675952683637561
 50
261.34427765806601
 51
303.32147642391487
  0
ARC
  8
DETAIL
  6
CONTINUOUS
 62
     5
 10
383.86538679633532
 20
-286.51910000680152
 30
0.0
 40
109.5828492163415
 50
297.18962779125161
 51
355.77103418371729
  0
ARC
  8
DETAIL
  6
CONTINUOUS
 62
     5
 10
-233.96159952191189
 20
496.33565257119108
 30
0.0
 40
858.02577914096889
 50
288.6421877072878
 51
305.75179959394978
  0
ARC
  8
DETAIL
  6
CONTINUOUS
 62
     5
 10
40.328890030020368
 20
-311.04446840244952
 30
0.0
 40
5.7142436830749466
 50
126.75660237120999
 51
267.45524490641782
  0
ARC
  8
DETAIL
  6
CONTINUOUS
 62
     5
 10
-7.4996905509478893
 20
-239.53127932037691
 30
0.0
 40
80.327229524030784
 50
303.56290231469558
 51
2.240942138328772
  0
ARC
  8
DETAIL
  6
CONTINUOUS
 62
     5
 10
34.544345452012287
 20
-239.6061842322184
 30
0.0
 40
38.356808328717399
 50
4.8093434306049074
 51
72.622846689263426
  0
ARC
  8
DETAIL
  6
CONTINUOUS
 62
     5
 10
-2705.9118871741298
 20
-9165.3799706991485
 30
0.0
 40
9385.4680903204953
 50
70.517357030864957
 51
71.942348208199505
  0
ARC
  8
DETAIL
  6
CONTINUOUS
 62
     5
 10
1868.444419098581
 20
2063.423514226683
 30
0.0
 40
2781.468021144266
 50
234.66282812600011
 51
238.76589262785919
  0
LINE
  8
DETAIL
  6
CONTINUOUS
 62
     5
 10
426.15282835359989
 20
-314.88666737590029
 30
0.0
 11
424.35671073079988
 21
-317.29388587659992
 31
0.0
  0
ARC
  8
DETAIL
  6
CONTINUOUS
 62
     5
 10
-438.07208810363909
 20
-258.57545473018928
 30
0.0
 40
60.729645258005078
 50
204.91494612697281
 51
252.02464537848761
  0
ARC
  8
DETAIL
  6
CONTINUOUS
 62
     5
 10
324.43409997597968
 20
-1899.819852025415
 30
0.0
 40
1765.716268372222
 50
105.70247318324679
 51
116.2605469779794
  0
LINE
  8
DETAIL
  6
CONTINUOUS
 62
     5
 10
47.0
 20
-203.99999999999989
 30
0.0
 11
47.0
 21
-215.03570269769989
 31
0.0
  0
LINE
  8
DETAIL
  6
CONTINUOUS
 62
     5
 10
47.963660381899899
 20
-216.0350421956999
 30
0.0
 11
65.284244266852511
 21
-216.66488160967049
 31
0.0
  0
ARC
  8
DETAIL
  6
CONTINUOUS
 62
     5
 10
46.0
 20
-203.99999999999989
 30
0.0
 40
1.0
 50
0.0
 51
90.0
  0
ARC
  8
DETAIL
  6
CONTINUOUS
 62
     5
 10
48.0
 20
-215.03570269769989
 30
0.0
 40
1.0
 50
180.0
 51
267.91743472030788
  0
ARC
  8
OUTLINE
  6
CONTINUOUS
 62
     3
 10
-386.00810546717639
 20
-299.28667682875999
 30
0.0
 40
167.7072707237437
 50
178.39862777206119
 51
226.05891588436691
  0
ARC
  8
OUTLINE
  6
CONTINUOUS
 62
     3
 10
-438.77820615581572
 20
-350.4424837705227
 30
0.0
 40
94.396646670788314
 50
225.58039931950759
 51
278.59243220624688
  0
ARC
  8
OUTLINE
  6
CONTINUOUS
 62
     3
 10
399.95905266411052
 20
-304.12154488464398
 30
0.0
 40
153.98548451297421
 50
304.36118203840022
 51
3.5450911560356122
  0
ARC
  8
OUTLINE
  6
CONTINUOUS
 62
     3
 10
438.62234066068407
 20
-352.1592156407869
 30
0.0
 40
92.675952683637561
 50
261.34427765806601
 51
303.32147642391942
  0
LINE
  8
DETAIL
  6
CONTINUOUS
 62
     5
 10
-110.0
 20
-257.99999999999989
 30
0.0
 11
70.675562307385917
 21
-257.99999999999989
 31
0.0
  0
LINE
  8
DETAIL
  6
CONTINUOUS
 62
     5
 10
110.0
 20
-490.0
 30
0.0
 11
-110.0
 21
-490.0
 31
0.0
  0
LINE
  8
DETAIL
  6
CONTINUOUS
 62
     5
 10
149.616446255
 20
-271.17729225021861
 30
0.0
 11
149.616446255
 21
-483.97379546489981
 31
0.0
  0
LINE
  8
DETAIL
  6
CONTINUOUS
 62
     5
 10
149.616446255
 20
-483.97379546489981
 30
0.0
 11
149.61638836305289
 21
-483.97379546489981
 31
0.0
  0
LINE
  8
DETAIL
  6
CONTINUOUS
 62
     5
 10
-150.07481089809971
 20
-483.97379546489981
 30
0.0
 11
-150.07481089809971
 21
-264.47804058109989
 31
0.0
  0
LINE
  8
DETAIL
  6
CONTINUOUS
 62
     5
 10
-110.0
 20
-257.99999999999989
 30
0.0
 11
-150.07481089809971
 21
-264.47804058109989
 31
0.0
  0
LINE
  8
DETAIL
  6
CONTINUOUS
 62
     5
 10
-150.07481089809971
 20
-483.97379546489981
 30
0.0
 11
-110.0
 21
-490.0
 31
0.0
  0
LINE
  8
DETAIL
  6
CONTINUOUS
 62
     5
 10
110.0
 20
-490.0
 30
0.0
 11
149.61638836305289
 21
-483.97379546489981
 31
0.0
  0
LINE
  8
DETAIL
  6
CONTINUOUS
 62
     5
 10
-96.519513648700013
 20
-343.74999999999977
 30
0.0
 11
-96.519513648700013
 21
-404.25
 31
0.0
  0
LINE
  8
DETAIL
  6
CONTINUOUS
 62
     5
 10
96.519513648700013
 20
-343.74999999999977
 30
0.0
 11
96.519513648700013
 21
-404.25
 31
0.0
  0
LINE
  8
OUTLINE
  6
CONTINUOUS
 62
     3
 10
-150.07481089809971
 20
-404.25
 30
0.0
 11
-150.07481089809971
 21
-483.97379546489981
 31
0.0
  0
LINE
  8
OUTLINE
  6
CONTINUOUS
 62
     3
 10
-150.07481089809971
 20
-483.97379546489981
 30
0.0
 11
-110.0
 21
-490.0
 31
0.0
  0
LINE
  8
OUTLINE
  6
CONTINUOUS
 62
     3
 10
110.0
 20
-490.0
 30
0.0
 11
149.616446255
 21
-483.97379546489981
 31
0.0
  0
LINE
  8
OUTLINE
  6
CONTINUOUS
 62
     3
 10
149.616446255
 20
-483.97379546489981
 30
0.0
 11
149.616446255
 21
-404.25
 31
0.0
  0
LINE
  8
OUTLINE
  6
CONTINUOUS
 62
     3
 10
168.00928990899999
 20
-404.26020156209961
 30
0.0
 11
149.616446255
 21
-404.25
 31
0.0
  0
ENDSEC
  0
EOF
