  0
SECTION
  2
HEADER
  9
$ACADVER
  1
AC1009
  9
$DWGCODEPAGE
  3
dos932
  9
$INSBASE
 10
0.0
 20
0.0
 30
0.0
  9
$EXTMIN
 10
-1395.8129726185159
 20
-747.57384118574373
 30
-0.0015258207003583
  9
$EXTMAX
 10
1732.5302247918769
 20
1240.7226650285561
 30
0.0000000349246037
  9
$LIMMIN
 10
-2970.0
 20
-2100.0
  9
$LIMMAX
 10
2970.0
 20
2100.0
  9
$ORTHOMODE
 70
     1
  9
$REGENMODE
 70
     1
  9
$FILLMODE
 70
     1
  9
$QTEXTMODE
 70
     0
  9
$MIRRTEXT
 70
     0
  9
$LTSCALE
 40
20.0
  9
$ATTMODE
 70
     1
  9
$TEXTSIZE
 40
64.0
  9
$TRACEWID
 40
0.05
  9
$TEXTSTYLE
  7
STANDARD
  9
$CLAYER
  8
SIZE
  9
$CELTYPE
  6
CONTINUOUS
  9
$CECOLOR
 62
     7
  9
$DIMSCALE
 40
1.0
  9
$DIMASZ
 40
12.0
  9
$DIMEXO
 40
20.0
  9
$DIMDLI
 40
200.0
  9
$DIMRND
 40
0.0
  9
$DIMDLE
 40
0.0
  9
$DIMEXE
 40
20.0
  9
$DIMTP
 40
0.0
  9
$DIMTM
 40
0.0
  9
$DIMTXT
 40
64.0
  9
$DIMCEN
 40
0.09
  9
$DIMTSZ
 40
0.0
  9
$DIMTOL
 70
     0
  9
$DIMLIM
 70
     0
  9
$DIMTIH
 70
     0
  9
$DIMTOH
 70
     0
  9
$DIMSE1
 70
     0
  9
$DIMSE2
 70
     0
  9
$DIMTAD
 70
     1
  9
$DIMZIN
 70
     8
  9
$DIMBLK
  1

  9
$DIMASO
 70
     1
  9
$DIMSHO
 70
     0
  9
$DIMPOST
  1

  9
$DIMAPOST
  1

  9
$DIMALT
 70
     0
  9
$DIMALTD
 70
     2
  9
$DIMALTF
 40
25.399999999999999
  9
$DIMLFAC
 40
1.0
  9
$DIMTOFL
 70
     1
  9
$DIMTVP
 40
0.0
  9
$DIMTIX
 70
     1
  9
$DIMSOXD
 70
     0
  9
$DIMSAH
 70
     0
  9
$DIMBLK1
  1

  9
$DIMBLK2
  1

  9
$DIMSTYLE
  2
STANDARD
  9
$DIMCLRD
 70
     7
  9
$DIMCLRE
 70
     7
  9
$DIMCLRT
 70
     7
  9
$DIMTFAC
 40
1.0
  9
$DIMGAP
 40
25.0
  9
$LUNITS
 70
     2
  9
$LUPREC
 70
     4
  9
$SKETCHINC
 40
0.1
  9
$FILLETRAD
 40
3.0
  9
$AUNITS
 70
     1
  9
$AUPREC
 70
     3
  9
$MENU
  1
ACAD
  9
$ELEVATION
 40
0.0
  9
$PELEVATION
 40
0.0
  9
$THICKNESS
 40
0.0
  9
$LIMCHECK
 70
     0
  9
$CHAMFERA
 40
0.0
  9
$CHAMFERB
 40
0.0
  9
$SKPOLY
 70
     0
  9
$TDCREATE
 40
2453019.62301037
  9
$TDUPDATE
 40
2458949.461777106
  9
$TDINDWG
 40
1.7144604282
  9
$TDUSRTIMER
 40
1.7144604282
  9
$USRTIMER
 70
     1
  9
$ANGBASE
 50
0.0
  9
$ANGDIR
 70
     0
  9
$PDMODE
 70
     3
  9
$PDSIZE
 40
-2.0
  9
$PLINEWID
 40
0.0
  9
$SPLFRAME
 70
     0
  9
$SPLINETYPE
 70
     6
  9
$SPLINESEGS
 70
     8
  9
$SURFTAB1
 70
     6
  9
$SURFTAB2
 70
     6
  9
$SURFTYPE
 70
     6
  9
$SURFU
 70
     6
  9
$SURFV
 70
     6
  9
$UCSNAME
  2

  9
$UCSORG
 10
0.0
 20
0.0
 30
0.0
  9
$UCSXDIR
 10
1.0
 20
0.0
 30
0.0
  9
$UCSYDIR
 10
0.0
 20
1.0
 30
0.0
  9
$PUCSNAME
  2

  9
$PUCSORG
 10
0.0
 20
0.0
 30
0.0
  9
$PUCSXDIR
 10
1.0
 20
0.0
 30
0.0
  9
$PUCSYDIR
 10
0.0
 20
1.0
 30
0.0
  9
$USERI1
 70
     0
  9
$USERI2
 70
     0
  9
$USERI3
 70
     0
  9
$USERI4
 70
     0
  9
$USERI5
 70
     0
  9
$USERR1
 40
20.0
  9
$USERR2
 40
0.0
  9
$USERR3
 40
0.0
  9
$USERR4
 40
0.0
  9
$USERR5
 40
0.0
  9
$WORLDVIEW
 70
     1
  9
$SHADEDGE
 70
     3
  9
$SHADEDIF
 70
    70
  9
$TILEMODE
 70
     1
  9
$MAXACTVP
 70
    48
  9
$PINSBASE
 10
0.0
 20
0.0
 30
0.0
  9
$PLIMCHECK
 70
     0
  9
$PEXTMIN
 10
-100000000000000000000.0
 20
-100000000000000000000.0
 30
-100000000000000000000.0
  9
$PEXTMAX
 10
100000000000000000000.0
 20
100000000000000000000.0
 30
100000000000000000000.0
  9
$PLIMMIN
 10
0.0
 20
0.0
  9
$PLIMMAX
 10
12.0
 20
9.0
  9
$UNITMODE
 70
     0
  9
$VISRETAIN
 70
     0
  9
$PLINEGEN
 70
     0
  9
$PSLTSCALE
 70
     0
  9
$TREEDEPTH
 70
  3020
  9
$ATTDIA
 70
     0
  9
$ATTREQ
 70
     1
  9
$BLIPMODE
 70
     1
  9
$COORDS
 70
     1
  9
$DRAGMODE
 70
     2
  9
$OSMODE
 70
     0
  9
$HANDLING
 70
     0
  9
$HANDSEED
  5
13727
  0
ENDSEC
  0
SECTION
  2
TABLES
  0
TABLE
  2
LTYPE
 70
     2
  0
LTYPE
  2
CONTINUOUS
 70
     0
  3
実線
 72
    65
 73
     0
 40
0.0
  0
LTYPE
  2
DASHDOT
 70
     0
  3
____ _ ____ _ ____ _ ____ _ ____ _ ____ _ ____
 72
    65
 73
     4
 40
5.5
 49
4.0
 49
-0.6
 49
0.3
 49
-0.6
  0
ENDTAB
  0
TABLE
  2
LAYER
 70
    12
  0
LAYER
  2
0
 70
     0
 62
     7
  6
CONTINUOUS
  0
LAYER
  2
BASIS
 70
     0
 62
     6
  6
DASHDOT
  0
LAYER
  2
OUTLINE
 70
     0
 62
     3
  6
CONTINUOUS
  0
LAYER
  2
DETAIL
 70
     0
 62
     5
  6
CONTINUOUS
  0
LAYER
  2
SIZE
 70
     0
 62
    30
  6
CONTINUOUS
  0
LAYER
  2
ARRANGE
 70
     0
 62
     1
  6
CONTINUOUS
  0
LAYER
  2
DEFPOINTS
 70
     0
 62
     7
  6
CONTINUOUS
  0
LAYER
  2
ETC
 70
     0
 62
    61
  6
CONTINUOUS
  0
LAYER
  2
FIX
 70
     0
 62
    11
  6
CONTINUOUS
  0
LAYER
  2
NOTE
 70
     0
 62
     4
  6
CONTINUOUS
  0
LAYER
  2
SERVICESPACE
 70
    64
 62
     2
  6
DASHDOT
  0
LAYER
  2
SYMBOLLINE
 70
    64
 62
    15
  6
CONTINUOUS
  0
ENDTAB
  0
TABLE
  2
STYLE
 70
     1
  0
STYLE
  2
STANDARD
 70
     0
 40
64.0
 41
0.9
 50
0.0
 71
     0
 42
64.0
  3
SIMPLEX.shx
  4
BIGFONT.shx
  0
ENDTAB
  0
TABLE
  2
APPID
 70
    19
  0
APPID
  2
ACAD
 70
     0
  0
APPID
  2
AUTOCAD_POSTSCRIPT_FIGURE
 70
     0
  0
APPID
  2
ACAD_EXEMPT_FROM_CAD_STANDARDS
 70
     0
  0
APPID
  2
ACAD_PSEXT
 70
     0
  0
APPID
  2
ACAUTHENVIRON
 70
     0
  0
APPID
  2
GENIUS_GENOENT_13
 70
     0
  0
APPID
  2
GENIUS_GENCFG_13
 70
     0
  0
APPID
  2
GENIUS_GENCFG0_13
 70
     0
  0
APPID
  2
GENIUS_GENCFG1_13
 70
     0
  0
APPID
  2
GENIUS_GENCFG2_13
 70
     0
  0
APPID
  2
GENIUS_GENCFG3_13
 70
     0
  0
APPID
  2
GENIUS_GENCFG4_13
 70
     0
  0
APPID
  2
GENIUS_GEVCFG0_13
 70
     0
  0
APPID
  2
CONTENTBLOCKICON
 70
     0
  0
APPID
  2
CONTENTBLOCKDESCRIPTION
 70
     0
  0
APPID
  2
ACAD_NAV_VCDISPLAY
 70
     0
  0
APPID
  2
ACAD_MLEADERVER
 70
     0
  0
APPID
  2
ACDBDYNAMICBLOCKTRUENAME
 70
     0
  0
APPID
  2
ACDBDYNAMICBLOCKGUID
 70
     0
  0
ENDTAB
  0
TABLE
  2
DIMSTYLE
 70
     1
  0
DIMSTYLE
  2
STANDARD
 70
     0
  3

  4

  5
_ORIGIN
  6

  7

 40
1.0
 41
12.0
 42
20.0
 43
200.0
 44
20.0
 45
0.0
 46
0.0
 47
0.0
 48
0.0
140
64.0
141
0.09
142
0.0
143
25.399999999999999
144
1.0
145
0.0
146
1.0
147
25.0
 71
     0
 72
     0
 73
     0
 74
     0
 75
     0
 76
     0
 77
     1
 78
     8
170
     0
171
     2
172
     1
173
     0
174
     1
175
     0
176
     7
177
     7
178
     7
  0
ENDTAB
  0
TABLE
  2
VIEW
 70
     1
  0
VIEW
  2
ALL
 70
     0
 40
4282.6198079999986
 10
0.0
 20
41.309904000000003
 41
5940.0
 11
0.0
 21
0.0
 31
1.0
 12
0.0
 22
0.0
 32
0.0
 42
50.0
 43
0.0
 44
0.0
 50
0.0
 71
     0
  0
ENDTAB
  0
TABLE
  2
UCS
 70
     0
  0
ENDTAB
  0
TABLE
  2
VPORT
 70
     1
  0
VPORT
  2
*ACTIVE
 70
     0
 10
0.0
 20
0.0
 11
1.0
 21
1.0
 12
168.3586260866804
 22
246.57441192140581
 13
0.0
 23
0.0
 14
1.0
 24
1.0
 15
0.0
 25
0.0
 16
0.0
 26
0.0
 36
1.0
 17
0.0
 27
0.0
 37
0.0
 40
2001.4785824985929
 41
1.747787610619469
 42
50.0
 43
0.0
 44
0.0
 50
0.0
 51
0.0
 71
     0
 72
  1000
 73
     1
 74
     3
 75
     0
 76
     0
 77
     0
 78
     0
  0
ENDTAB
  0
ENDSEC
  0
SECTION
  2
BLOCKS
  0
BLOCK
  8
0
  2
_ORIGIN
 70
     0
 10
0.0
 20
0.0
 30
0.0
  3
_ORIGIN
  1
_ORIGIN
  0
CIRCLE
  8
0
  6
CONTINUOUS
 62
     7
 10
0.0
 20
0.0
 30
0.0
 40
0.5
  0
LINE
  8
0
  6
CONTINUOUS
 62
     7
 10
0.0
 20
0.0
 30
0.0
 11
-1.0
 21
0.0
 31
0.0
  0
ENDBLK
  8
0
  0
ENDSEC
  0
SECTION
  2
ENTITIES
  0
POINT
  8
ARRANGE
  6
CONTINUOUS
 62
     1
 10
0.0
 20
0.0
 30
0.0
  0
CIRCLE
  8
ARRANGE
  6
CONTINUOUS
 62
     1
 10
0.0
 20
0.0
 30
0.0
 40
40.0
  0
LINE
  8
DETAIL
  6
CONTINUOUS
 62
     5
 10
-636.80000000000052
 20
632.87636479150001
 30
0.0
 11
-636.96796596020067
 21
632.83993342530005
 31
0.0
  0
LINE
  8
DETAIL
  6
CONTINUOUS
 62
     5
 10
-636.96796596020067
 20
632.83993342530005
 30
0.0
 11
-637.13540754210089
 21
632.80619217089998
 31
0.0
  0
LINE
  8
DETAIL
  6
CONTINUOUS
 62
     5
 10
-637.13540754210089
 20
632.80619217089998
 30
0.0
 11
-637.30188517100078
 21
632.7751617173999
 31
0.0
  0
LINE
  8
DETAIL
  6
CONTINUOUS
 62
     5
 10
-637.30188517100078
 20
632.7751617173999
 30
0.0
 11
-637.46687896250069
 21
632.74677999770017
 31
0.0
  0
LINE
  8
DETAIL
  6
CONTINUOUS
 62
     5
 10
-637.46687896250069
 20
632.74677999770017
 30
0.0
 11
-637.62984410460047
 21
632.72100557149997
 31
0.0
  0
LINE
  8
DETAIL
  6
CONTINUOUS
 62
     5
 10
-637.62984410460047
 20
632.72100557149997
 30
0.0
 11
-637.79045709590082
 21
632.69779724689988
 31
0.0
  0
LINE
  8
DETAIL
  6
CONTINUOUS
 62
     5
 10
-637.79045709590082
 20
632.69779724689988
 30
0.0
 11
-637.94840611730103
 21
632.67710156630017
 31
0.0
  0
LINE
  8
DETAIL
  6
CONTINUOUS
 62
     5
 10
-637.94840611730103
 20
632.67710156630017
 30
0.0
 11
-638.10313441270091
 21
632.65891388680006
 31
0.0
  0
LINE
  8
DETAIL
  6
CONTINUOUS
 62
     5
 10
-638.10313441270091
 20
632.65891388680006
 30
0.0
 11
-638.2540826486005
 21
632.64322550129987
 31
0.0
  0
LINE
  8
DETAIL
  6
CONTINUOUS
 62
     5
 10
-638.2540826486005
 20
632.64322550129987
 30
0.0
 11
-638.40103508310085
 21
632.62999514420005
 31
0.0
  0
LINE
  8
DETAIL
  6
CONTINUOUS
 62
     5
 10
-638.40103508310085
 20
632.62999514420005
 30
0.0
 11
-638.54379613580068
 21
632.61917663350005
 31
0.0
  0
LINE
  8
DETAIL
  6
CONTINUOUS
 62
     5
 10
-638.54379613580068
 20
632.61917663350005
 30
0.0
 11
-638.68174664620074
 21
632.61077601059981
 31
0.0
  0
LINE
  8
DETAIL
  6
CONTINUOUS
 62
     5
 10
-638.68174664620074
 20
632.61077601059981
 30
0.0
 11
-638.81429514120055
 21
632.60478699450016
 31
0.0
  0
LINE
  8
DETAIL
  6
CONTINUOUS
 62
     5
 10
-638.81429514120055
 20
632.60478699450016
 30
0.0
 11
-638.94133632270086
 21
632.60120037000002
 31
0.0
  0
LINE
  8
DETAIL
  6
CONTINUOUS
 62
     5
 10
-638.94133632270086
 20
632.60120037000002
 30
0.0
 11
-639.06274169980099
 21
632.60000341500006
 31
0.0
  0
LINE
  8
DETAIL
  6
CONTINUOUS
 62
     5
 10
632.87636479149921
 20
636.7999999999995
 30
0.0
 11
632.83993342519898
 21
636.96796596029992
 31
0.0
  0
LINE
  8
DETAIL
  6
CONTINUOUS
 62
     5
 10
632.83993342519898
 20
636.96796596029992
 30
0.0
 11
632.80619217089918
 21
637.13540754209976
 31
0.0
  0
LINE
  8
DETAIL
  6
CONTINUOUS
 62
     5
 10
632.80619217089918
 20
637.13540754209976
 30
0.0
 11
632.77516171739899
 21
637.30188517099987
 31
0.0
  0
LINE
  8
DETAIL
  6
CONTINUOUS
 62
     5
 10
632.77516171739899
 20
637.30188517099987
 30
0.0
 11
632.74677999769938
 21
637.46687896249978
 31
0.0
  0
LINE
  8
DETAIL
  6
CONTINUOUS
 62
     5
 10
632.74677999769938
 20
637.46687896249978
 30
0.0
 11
632.7210055713989
 21
637.62984410459967
 31
0.0
  0
LINE
  8
DETAIL
  6
CONTINUOUS
 62
     5
 10
632.7210055713989
 20
637.62984410459967
 30
0.0
 11
632.69779724679927
 21
637.7904570958998
 31
0.0
  0
LINE
  8
DETAIL
  6
CONTINUOUS
 62
     5
 10
632.69779724679927
 20
637.7904570958998
 30
0.0
 11
632.67710156629937
 21
637.94840611729978
 31
0.0
  0
LINE
  8
DETAIL
  6
CONTINUOUS
 62
     5
 10
632.67710156629937
 20
637.94840611729978
 30
0.0
 11
632.65891388679927
 21
638.10313441280005
 31
0.0
  0
LINE
  8
DETAIL
  6
CONTINUOUS
 62
     5
 10
632.65891388679927
 20
638.10313441280005
 30
0.0
 11
632.64322550129918
 21
638.25408264869975
 31
0.0
  0
LINE
  8
DETAIL
  6
CONTINUOUS
 62
     5
 10
632.64322550129918
 20
638.25408264869975
 30
0.0
 11
632.62999514409921
 21
638.40103508309949
 31
0.0
  0
LINE
  8
DETAIL
  6
CONTINUOUS
 62
     5
 10
632.62999514409921
 20
638.40103508309949
 30
0.0
 11
632.61917663339909
 21
638.54379613579977
 31
0.0
  0
LINE
  8
DETAIL
  6
CONTINUOUS
 62
     5
 10
632.61917663339909
 20
638.54379613579977
 30
0.0
 11
632.61077601049919
 21
638.68174664619994
 31
0.0
  0
LINE
  8
DETAIL
  6
CONTINUOUS
 62
     5
 10
632.61077601049919
 20
638.68174664619994
 30
0.0
 11
632.60478699439909
 21
638.81429514129991
 31
0.0
  0
LINE
  8
DETAIL
  6
CONTINUOUS
 62
     5
 10
632.60478699439909
 20
638.81429514129991
 30
0.0
 11
632.60120036999922
 21
638.9413363226995
 31
0.0
  0
LINE
  8
DETAIL
  6
CONTINUOUS
 62
     5
 10
632.60120036999922
 20
638.9413363226995
 30
0.0
 11
632.60000341489922
 21
639.06274169979952
 31
0.0
  0
LINE
  8
DETAIL
  6
CONTINUOUS
 62
     5
 10
299.66476151589882
 20
638.39999999999986
 30
0.0
 11
299.71349263699881
 21
638.39734337819971
 31
0.0
  0
LINE
  8
DETAIL
  6
CONTINUOUS
 62
     5
 10
299.71349263699881
 20
638.39734337819971
 30
0.0
 11
299.75802062889937
 21
638.38943596509989
 31
0.0
  0
LINE
  8
DETAIL
  6
CONTINUOUS
 62
     5
 10
299.75802062889937
 20
638.38943596509989
 30
0.0
 11
299.79826624609882
 21
638.37638412709998
 31
0.0
  0
LINE
  8
DETAIL
  6
CONTINUOUS
 62
     5
 10
299.79826624609882
 20
638.37638412709998
 30
0.0
 11
299.83446722529942
 21
638.35830796969969
 31
0.0
  0
LINE
  8
DETAIL
  6
CONTINUOUS
 62
     5
 10
299.83446722529942
 20
638.35830796969969
 30
0.0
 11
299.86680033359931
 21
638.33534673079976
 31
0.0
  0
LINE
  8
DETAIL
  6
CONTINUOUS
 62
     5
 10
299.86680033359931
 20
638.33534673079976
 30
0.0
 11
299.89536923429932
 21
638.30762985739989
 31
0.0
  0
LINE
  8
DETAIL
  6
CONTINUOUS
 62
     5
 10
299.89536923429932
 20
638.30762985739989
 30
0.0
 11
299.92030784499912
 21
638.27529542349976
 31
0.0
  0
LINE
  8
DETAIL
  6
CONTINUOUS
 62
     5
 10
299.92030784499912
 20
638.27529542349976
 30
0.0
 11
299.94170216969911
 21
638.23847652349991
 31
0.0
  0
LINE
  8
DETAIL
  6
CONTINUOUS
 62
     5
 10
299.94170216969911
 20
638.23847652349991
 30
0.0
 11
299.94503000029908
 21
638.23084811880005
 31
0.0
  0
LINE
  8
DETAIL
  6
CONTINUOUS
 62
     5
 10
299.66476151589882
 20
639.99999999999977
 30
0.0
 11
299.70664915509923
 21
639.99613050469975
 31
0.0
  0
LINE
  8
DETAIL
  6
CONTINUOUS
 62
     5
 10
299.70664915509923
 20
639.99613050469975
 30
0.0
 11
299.74555699279932
 21
639.98453516539985
 31
0.0
  0
LINE
  8
DETAIL
  6
CONTINUOUS
 62
     5
 10
299.74555699279932
 20
639.98453516539985
 30
0.0
 11
299.78144851369922
 21
639.96524848089985
 31
0.0
  0
LINE
  8
DETAIL
  6
CONTINUOUS
 62
     5
 10
299.78144851369922
 20
639.96524848089985
 30
0.0
 11
299.81443326319908
 21
639.93832029239979
 31
0.0
  0
LINE
  8
DETAIL
  6
CONTINUOUS
 62
     5
 10
299.81443326319908
 20
639.93832029239979
 30
0.0
 11
299.84460084429878
 21
639.90381027739977
 31
0.0
  0
LINE
  8
DETAIL
  6
CONTINUOUS
 62
     5
 10
299.84460084429878
 20
639.90381027739977
 30
0.0
 11
299.87197456969898
 21
639.8618211733999
 31
0.0
  0
LINE
  8
DETAIL
  6
CONTINUOUS
 62
     5
 10
299.87197456969898
 20
639.8618211733999
 30
0.0
 11
299.8965946965991
 21
639.81248996119996
 31
0.0
  0
LINE
  8
DETAIL
  6
CONTINUOUS
 62
     5
 10
299.8965946965991
 20
639.81248996119996
 30
0.0
 11
299.91849999529938
 21
639.75593138459976
 31
0.0
  0
LINE
  8
DETAIL
  6
CONTINUOUS
 62
     5
 10
299.91849999529938
 20
639.75593138459976
 30
0.0
 11
299.93772996639927
 21
639.69228474350007
 31
0.0
  0
LINE
  8
DETAIL
  6
CONTINUOUS
 62
     5
 10
299.93772996639927
 20
639.69228474350007
 30
0.0
 11
299.95432267599932
 21
639.62168632299995
 31
0.0
  0
LINE
  8
DETAIL
  6
CONTINUOUS
 62
     5
 10
299.95432267599932
 20
639.62168632299995
 30
0.0
 11
299.96832593779891
 21
639.54425849329994
 31
0.0
  0
LINE
  8
DETAIL
  6
CONTINUOUS
 62
     5
 10
299.96832593779891
 20
639.54425849329994
 30
0.0
 11
299.97975000899908
 21
639.46023545729997
 31
0.0
  0
LINE
  8
DETAIL
  6
CONTINUOUS
 62
     5
 10
299.97975000899908
 20
639.46023545729997
 30
0.0
 11
299.98861749259908
 21
639.36988453659978
 31
0.0
  0
LINE
  8
DETAIL
  6
CONTINUOUS
 62
     5
 10
299.98861749259908
 20
639.36988453659978
 30
0.0
 11
299.99493916399928
 21
639.2733793914997
 31
0.0
  0
LINE
  8
DETAIL
  6
CONTINUOUS
 62
     5
 10
299.99493916399928
 20
639.2733793914997
 30
0.0
 11
299.99873562189907
 21
639.17091249869986
 31
0.0
  0
LINE
  8
DETAIL
  6
CONTINUOUS
 62
     5
 10
299.99873562189907
 20
639.17091249869986
 30
0.0
 11
299.99999999999909
 21
639.06274169979952
 31
0.0
  0
LINE
  8
DETAIL
  6
CONTINUOUS
 62
     5
 10
639.9999999999992
 20
638.39999999999986
 30
0.0
 11
639.9999999999992
 21
299.66476151589961
 31
0.0
  0
LINE
  8
DETAIL
  6
CONTINUOUS
 62
     5
 10
639.9999999999992
 20
299.66476151589961
 30
0.0
 11
639.9999999999992
 21
290.33523848419992
 31
0.0
  0
LINE
  8
DETAIL
  6
CONTINUOUS
 62
     5
 10
639.9999999999992
 20
290.33523848419992
 30
0.0
 11
639.9999999999992
 21
-290.33523848409999
 31
0.0
  0
LINE
  8
DETAIL
  6
CONTINUOUS
 62
     5
 10
639.9999999999992
 20
-290.33523848409999
 30
0.0
 11
639.9999999999992
 21
-299.66476151580008
 31
0.0
  0
LINE
  8
DETAIL
  6
CONTINUOUS
 62
     5
 10
639.9999999999992
 20
-299.66476151580008
 30
0.0
 11
639.9999999999992
 21
-638.40000000000032
 31
0.0
  0
LINE
  8
DETAIL
  6
CONTINUOUS
 62
     5
 10
638.3999999999993
 20
-640.00000000000011
 30
0.0
 11
638.3999999999993
 21
-638.40000000000032
 31
0.0
  0
LINE
  8
DETAIL
  6
CONTINUOUS
 62
     5
 10
638.3999999999993
 20
639.99999999999977
 30
0.0
 11
638.3999999999993
 21
638.39999999999986
 31
0.0
  0
LINE
  8
DETAIL
  6
CONTINUOUS
 62
     5
 10
638.3999999999993
 20
638.39999999999986
 30
0.0
 11
638.3999999999993
 21
632.87636479149978
 31
0.0
  0
LINE
  8
DETAIL
  6
CONTINUOUS
 62
     5
 10
638.3999999999993
 20
299.66476151589961
 30
0.0
 11
638.3999999999993
 21
290.33523848419992
 31
0.0
  0
LINE
  8
DETAIL
  6
CONTINUOUS
 62
     5
 10
638.3999999999993
 20
-290.33523848409999
 30
0.0
 11
638.3999999999993
 21
-299.66476151580008
 31
0.0
  0
LINE
  8
DETAIL
  6
CONTINUOUS
 62
     5
 10
638.3999999999993
 20
-632.87636479150012
 30
0.0
 11
638.3999999999993
 21
-638.40000000000032
 31
0.0
  0
LINE
  8
DETAIL
  6
CONTINUOUS
 62
     5
 10
632.87636479149921
 20
638.39999999999986
 30
0.0
 11
632.87636479149921
 21
639.99999999999977
 31
0.0
  0
LINE
  8
DETAIL
  6
CONTINUOUS
 62
     5
 10
632.87636479149921
 20
-638.40000000000032
 30
0.0
 11
632.87636479149921
 21
-640.00000000000011
 31
0.0
  0
LINE
  8
DETAIL
  6
CONTINUOUS
 62
     5
 10
632.60000341489922
 20
-639.06274169980043
 30
0.0
 11
632.60120036989917
 21
-638.94133632620014
 31
0.0
  0
LINE
  8
DETAIL
  6
CONTINUOUS
 62
     5
 10
632.60120036989917
 20
-638.94133632620014
 30
0.0
 11
632.604786994199
 21
-638.81429514690012
 31
0.0
  0
LINE
  8
DETAIL
  6
CONTINUOUS
 62
     5
 10
632.604786994199
 20
-638.81429514690012
 30
0.0
 11
632.61077601019917
 21
-638.6817466527001
 31
0.0
  0
LINE
  8
DETAIL
  6
CONTINUOUS
 62
     5
 10
632.61077601019917
 20
-638.6817466527001
 30
0.0
 11
632.61917663299937
 21
-638.54379614210029
 31
0.0
  0
LINE
  8
DETAIL
  6
CONTINUOUS
 62
     5
 10
632.61917663299937
 20
-638.54379614210029
 30
0.0
 11
632.62999514359944
 21
-638.40103508900017
 31
0.0
  0
LINE
  8
DETAIL
  6
CONTINUOUS
 62
     5
 10
632.62999514359944
 20
-638.40103508900017
 30
0.0
 11
632.64322550059921
 21
-638.25408265580018
 31
0.0
  0
LINE
  8
DETAIL
  6
CONTINUOUS
 62
     5
 10
632.64322550059921
 20
-638.25408265580018
 30
0.0
 11
632.65891388589898
 21
-638.10313442070014
 31
0.0
  0
LINE
  8
DETAIL
  6
CONTINUOUS
 62
     5
 10
632.65891388589898
 20
-638.10313442070014
 30
0.0
 11
632.67710156559917
 21
-637.94840612320013
 31
0.0
  0
LINE
  8
DETAIL
  6
CONTINUOUS
 62
     5
 10
632.67710156559917
 20
-637.94840612320013
 30
0.0
 11
632.69779724629916
 21
-637.7904570994001
 31
0.0
  0
LINE
  8
DETAIL
  6
CONTINUOUS
 62
     5
 10
632.69779724629916
 20
-637.7904570994001
 30
0.0
 11
632.72100557089925
 21
-637.6298441078003
 31
0.0
  0
LINE
  8
DETAIL
  6
CONTINUOUS
 62
     5
 10
632.72100557089925
 20
-637.6298441078003
 30
0.0
 11
632.74677999709911
 21
-637.46687896570029
 31
0.0
  0
LINE
  8
DETAIL
  6
CONTINUOUS
 62
     5
 10
632.74677999709911
 20
-637.46687896570029
 30
0.0
 11
632.77516171699926
 21
-637.30188517300019
 31
0.0
  0
LINE
  8
DETAIL
  6
CONTINUOUS
 62
     5
 10
632.77516171699926
 20
-637.30188517300019
 30
0.0
 11
632.80619217069943
 21
-637.13540754280029
 31
0.0
  0
LINE
  8
DETAIL
  6
CONTINUOUS
 62
     5
 10
632.80619217069943
 20
-637.13540754280029
 30
0.0
 11
632.83993342519898
 21
-636.96796596040053
 31
0.0
  0
LINE
  8
DETAIL
  6
CONTINUOUS
 62
     5
 10
632.83993342519898
 20
-636.96796596040053
 30
0.0
 11
632.87636479149921
 21
-636.8000000000003
 31
0.0
  0
LINE
  8
DETAIL
  6
CONTINUOUS
 62
     5
 10
632.60000341489922
 20
639.06274169979952
 30
0.0
 11
632.60120036999922
 21
639.17795684530006
 31
0.0
  0
LINE
  8
DETAIL
  6
CONTINUOUS
 62
     5
 10
632.60120036999922
 20
639.17795684530006
 30
0.0
 11
632.60478699449925
 21
639.28648649479987
 31
0.0
  0
LINE
  8
DETAIL
  6
CONTINUOUS
 62
     5
 10
632.60478699449925
 20
639.28648649479987
 30
0.0
 11
632.61077601059924
 21
639.38824835819969
 31
0.0
  0
LINE
  8
DETAIL
  6
CONTINUOUS
 62
     5
 10
632.61077601059924
 20
639.38824835819969
 30
0.0
 11
632.61917663339909
 21
639.48312784579957
 31
0.0
  0
LINE
  8
DETAIL
  6
CONTINUOUS
 62
     5
 10
632.61917663339909
 20
639.48312784579957
 30
0.0
 11
632.62999514399917
 21
639.57068342819969
 31
0.0
  0
LINE
  8
DETAIL
  6
CONTINUOUS
 62
     5
 10
632.62999514399917
 20
639.57068342819969
 30
0.0
 11
632.6432255010991
 21
639.65055146329951
 31
0.0
  0
LINE
  8
DETAIL
  6
CONTINUOUS
 62
     5
 10
632.6432255010991
 20
639.65055146329951
 30
0.0
 11
632.65891388649914
 21
639.72264275879979
 31
0.0
  0
LINE
  8
DETAIL
  6
CONTINUOUS
 62
     5
 10
632.65891388649914
 20
639.72264275879979
 30
0.0
 11
632.67710156609928
 21
639.78683166339988
 31
0.0
  0
LINE
  8
DETAIL
  6
CONTINUOUS
 62
     5
 10
632.67710156609928
 20
639.78683166339988
 30
0.0
 11
632.69779724669934
 21
639.8428596318995
 31
0.0
  0
LINE
  8
DETAIL
  6
CONTINUOUS
 62
     5
 10
632.69779724669934
 20
639.8428596318995
 30
0.0
 11
632.7210055712992
 21
639.89052726269983
 31
0.0
  0
LINE
  8
DETAIL
  6
CONTINUOUS
 62
     5
 10
632.7210055712992
 20
639.89052726269983
 30
0.0
 11
632.74677999759922
 21
639.92973999699984
 31
0.0
  0
LINE
  8
DETAIL
  6
CONTINUOUS
 62
     5
 10
632.74677999759922
 20
639.92973999699984
 30
0.0
 11
632.77516171739899
 21
639.96039732869997
 31
0.0
  0
LINE
  8
DETAIL
  6
CONTINUOUS
 62
     5
 10
632.77516171739899
 20
639.96039732869997
 30
0.0
 11
632.80619217089918
 21
639.98237360799976
 31
0.0
  0
LINE
  8
DETAIL
  6
CONTINUOUS
 62
     5
 10
632.80619217089918
 20
639.98237360799976
 30
0.0
 11
632.83993342529902
 21
639.99558874639968
 31
0.0
  0
LINE
  8
DETAIL
  6
CONTINUOUS
 62
     5
 10
632.83993342529902
 20
639.99558874639968
 30
0.0
 11
632.87636479149921
 21
639.99999999999977
 31
0.0
  0
LINE
  8
DETAIL
  6
CONTINUOUS
 62
     5
 10
638.3999999999993
 20
-299.66476151580008
 30
0.0
 11
638.39734289679927
 21
-299.71349619660032
 31
0.0
  0
LINE
  8
DETAIL
  6
CONTINUOUS
 62
     5
 10
638.39734289679927
 20
-299.71349619660032
 30
0.0
 11
638.38943690279928
 21
-299.75801867560023
 31
0.0
  0
LINE
  8
DETAIL
  6
CONTINUOUS
 62
     5
 10
638.38943690279928
 20
-299.75801867560023
 30
0.0
 11
638.37639493479901
 21
-299.79824440070018
 31
0.0
  0
LINE
  8
DETAIL
  6
CONTINUOUS
 62
     5
 10
638.37639493479901
 20
-299.79824440070018
 30
0.0
 11
638.35833425149951
 21
-299.83442702880018
 31
0.0
  0
LINE
  8
DETAIL
  6
CONTINUOUS
 62
     5
 10
638.35833425149951
 20
-299.83442702880018
 30
0.0
 11
638.33538036409936
 21
-299.8667623875001
 31
0.0
  0
LINE
  8
DETAIL
  6
CONTINUOUS
 62
     5
 10
638.33538036409936
 20
-299.8667623875001
 30
0.0
 11
638.30766547359929
 21
-299.8953394135001
 31
0.0
  0
LINE
  8
DETAIL
  6
CONTINUOUS
 62
     5
 10
638.30766547359929
 20
-299.8953394135001
 30
0.0
 11
638.27532918219913
 21
-299.92028362460019
 31
0.0
  0
LINE
  8
DETAIL
  6
CONTINUOUS
 62
     5
 10
638.27532918219913
 20
-299.92028362460019
 30
0.0
 11
638.23851141019895
 21
-299.9416811041001
 31
0.0
  0
LINE
  8
DETAIL
  6
CONTINUOUS
 62
     5
 10
638.23851141019895
 20
-299.9416811041001
 30
0.0
 11
638.23084981469947
 21
-299.94502471560003
 31
0.0
  0
LINE
  8
DETAIL
  6
CONTINUOUS
 62
     5
 10
638.3999999999993
 20
290.33523848419992
 30
0.0
 11
638.39734289679927
 21
290.28650380339991
 31
0.0
  0
LINE
  8
DETAIL
  6
CONTINUOUS
 62
     5
 10
638.39734289679927
 20
290.28650380339991
 30
0.0
 11
638.38943690279928
 21
290.24198132439977
 31
0.0
  0
LINE
  8
DETAIL
  6
CONTINUOUS
 62
     5
 10
638.38943690279928
 20
290.24198132439977
 30
0.0
 11
638.37639493479901
 21
290.20175559929982
 31
0.0
  0
LINE
  8
DETAIL
  6
CONTINUOUS
 62
     5
 10
638.37639493479901
 20
290.20175559929982
 30
0.0
 11
638.35833425149951
 21
290.16557297119988
 31
0.0
  0
LINE
  8
DETAIL
  6
CONTINUOUS
 62
     5
 10
638.35833425149951
 20
290.16557297119988
 30
0.0
 11
638.33538036409936
 21
290.1332376124999
 31
0.0
  0
LINE
  8
DETAIL
  6
CONTINUOUS
 62
     5
 10
638.33538036409936
 20
290.1332376124999
 30
0.0
 11
638.30766547359929
 21
290.1046605864999
 31
0.0
  0
LINE
  8
DETAIL
  6
CONTINUOUS
 62
     5
 10
638.30766547359929
 20
290.1046605864999
 30
0.0
 11
638.27532918219913
 21
290.07971637539981
 31
0.0
  0
LINE
  8
DETAIL
  6
CONTINUOUS
 62
     5
 10
638.27532918219913
 20
290.07971637539981
 30
0.0
 11
638.23851141019895
 21
290.05831889589962
 31
0.0
  0
LINE
  8
DETAIL
  6
CONTINUOUS
 62
     5
 10
638.23851141019895
 20
290.05831889589962
 30
0.0
 11
638.23084981469947
 21
290.05497528439969
 31
0.0
  0
LINE
  8
DETAIL
  6
CONTINUOUS
 62
     5
 10
639.9999999999992
 20
-299.66476151580008
 30
0.0
 11
639.99613024159908
 21
-299.7066508754001
 31
0.0
  0
LINE
  8
DETAIL
  6
CONTINUOUS
 62
     5
 10
639.99613024159908
 20
-299.7066508754001
 30
0.0
 11
639.98453521419924
 21
-299.74555831750013
 31
0.0
  0
LINE
  8
DETAIL
  6
CONTINUOUS
 62
     5
 10
639.98453521419924
 20
-299.74555831750013
 30
0.0
 11
639.96525183579945
 21
-299.78144632380003
 31
0.0
  0
LINE
  8
DETAIL
  6
CONTINUOUS
 62
     5
 10
639.96525183579945
 20
-299.78144632380003
 30
0.0
 11
639.93832923999935
 21
-299.81442744920008
 31
0.0
  0
LINE
  8
DETAIL
  6
CONTINUOUS
 62
     5
 10
639.93832923999935
 20
-299.81442744920008
 30
0.0
 11
639.90382172119917
 21
-299.84459549140001
 31
0.0
  0
LINE
  8
DETAIL
  6
CONTINUOUS
 62
     5
 10
639.90382172119917
 20
-299.84459549140001
 30
0.0
 11
639.86183611179922
 21
-299.87196920370019
 31
0.0
  0
LINE
  8
DETAIL
  6
CONTINUOUS
 62
     5
 10
639.86183611179922
 20
-299.87196920370019
 30
0.0
 11
639.8125239944992
 21
-299.89658257119999
 31
0.0
  0
LINE
  8
DETAIL
  6
CONTINUOUS
 62
     5
 10
639.8125239944992
 20
-299.89658257119999
 30
0.0
 11
639.75597800819924
 21
-299.91848369640002
 31
0.0
  0
LINE
  8
DETAIL
  6
CONTINUOUS
 62
     5
 10
639.75597800819924
 20
-299.91848369640002
 30
0.0
 11
639.69228490439946
 21
-299.93772472210031
 31
0.0
  0
LINE
  8
DETAIL
  6
CONTINUOUS
 62
     5
 10
639.69228490439946
 20
-299.93772472210031
 30
0.0
 11
639.62163807269917
 21
-299.95432751160018
 31
0.0
  0
LINE
  8
DETAIL
  6
CONTINUOUS
 62
     5
 10
639.62163807269917
 20
-299.95432751160018
 30
0.0
 11
639.54426169809904
 21
-299.96832188000008
 31
0.0
  0
LINE
  8
DETAIL
  6
CONTINUOUS
 62
     5
 10
639.54426169809904
 20
-299.96832188000008
 30
0.0
 11
639.46030073239956
 21
-299.97973611520018
 31
0.0
  0
LINE
  8
DETAIL
  6
CONTINUOUS
 62
     5
 10
639.46030073239956
 20
-299.97973611520018
 30
0.0
 11
639.36989921379927
 21
-299.98860920740032
 31
0.0
  0
LINE
  8
DETAIL
  6
CONTINUOUS
 62
     5
 10
639.36989921379927
 20
-299.98860920740032
 30
0.0
 11
639.27332544319927
 21
-299.99493886580012
 31
0.0
  0
LINE
  8
DETAIL
  6
CONTINUOUS
 62
     5
 10
639.27332544319927
 20
-299.99493886580012
 30
0.0
 11
639.1708701969992
 21
-299.9987359257002
 31
0.0
  0
LINE
  8
DETAIL
  6
CONTINUOUS
 62
     5
 10
639.1708701969992
 20
-299.9987359257002
 30
0.0
 11
639.06274169979918
 21
-300.0
 31
0.0
  0
LINE
  8
DETAIL
  6
CONTINUOUS
 62
     5
 10
632.87636479149921
 20
638.39999999999986
 30
0.0
 11
632.83679013219898
 21
638.3973765575995
 31
0.0
  0
LINE
  8
DETAIL
  6
CONTINUOUS
 62
     5
 10
632.83679013219898
 20
638.3973765575995
 30
0.0
 11
632.80049982519893
 21
638.38955824349978
 31
0.0
  0
LINE
  8
DETAIL
  6
CONTINUOUS
 62
     5
 10
632.80049982519893
 20
638.38955824349978
 30
0.0
 11
632.76754366239948
 21
638.37663804539989
 31
0.0
  0
LINE
  8
DETAIL
  6
CONTINUOUS
 62
     5
 10
632.76754366239948
 20
638.37663804539989
 30
0.0
 11
632.73777226819948
 21
638.35871321689956
 31
0.0
  0
LINE
  8
DETAIL
  6
CONTINUOUS
 62
     5
 10
632.73777226819948
 20
638.35871321689956
 30
0.0
 11
632.71106791289913
 21
638.33588568319988
 31
0.0
  0
LINE
  8
DETAIL
  6
CONTINUOUS
 62
     5
 10
632.71106791289913
 20
638.33588568319988
 30
0.0
 11
632.68738545149915
 21
638.30827953709968
 31
0.0
  0
LINE
  8
DETAIL
  6
CONTINUOUS
 62
     5
 10
632.68738545149915
 20
638.30827953709968
 30
0.0
 11
632.66666168619929
 21
638.27604077319984
 31
0.0
  0
LINE
  8
DETAIL
  6
CONTINUOUS
 62
     5
 10
632.66666168619929
 20
638.27604077319984
 30
0.0
 11
632.64883304659918
 21
638.23927924419991
 31
0.0
  0
LINE
  8
DETAIL
  6
CONTINUOUS
 62
     5
 10
632.64883304659918
 20
638.23927924419991
 30
0.0
 11
632.64566692709923
 21
638.23059209159987
 31
0.0
  0
LINE
  8
DETAIL
  6
CONTINUOUS
 62
     5
 10
-638.40000000000111
 20
640.0
 30
0.0
 11
-299.66476151590092
 21
640.0
 31
0.0
  0
LINE
  8
DETAIL
  6
CONTINUOUS
 62
     5
 10
-299.66476151590092
 20
640.0
 30
0.0
 11
-290.3352384841009
 21
640.0
 31
0.0
  0
LINE
  8
DETAIL
  6
CONTINUOUS
 62
     5
 10
-290.3352384841009
 20
640.0
 30
0.0
 11
290.33523848409902
 21
639.99999999999977
 31
0.0
  0
LINE
  8
DETAIL
  6
CONTINUOUS
 62
     5
 10
290.33523848409902
 20
639.99999999999977
 30
0.0
 11
299.66476151589882
 21
639.99999999999977
 31
0.0
  0
LINE
  8
DETAIL
  6
CONTINUOUS
 62
     5
 10
299.66476151589882
 20
639.99999999999977
 30
0.0
 11
638.3999999999993
 21
639.99999999999977
 31
0.0
  0
LINE
  8
DETAIL
  6
CONTINUOUS
 62
     5
 10
-640.00000000000091
 20
638.39999999999986
 30
0.0
 11
-638.40000000000111
 21
638.39999999999986
 31
0.0
  0
LINE
  8
DETAIL
  6
CONTINUOUS
 62
     5
 10
-638.40000000000111
 20
638.39999999999986
 30
0.0
 11
-632.87636479150069
 21
638.39999999999986
 31
0.0
  0
LINE
  8
DETAIL
  6
CONTINUOUS
 62
     5
 10
-299.66476151590092
 20
638.39999999999986
 30
0.0
 11
-290.3352384841009
 21
638.39999999999986
 31
0.0
  0
LINE
  8
DETAIL
  6
CONTINUOUS
 62
     5
 10
290.33523848409902
 20
638.39999999999986
 30
0.0
 11
299.66476151589882
 21
638.39999999999986
 31
0.0
  0
LINE
  8
DETAIL
  6
CONTINUOUS
 62
     5
 10
632.87636479149921
 20
638.39999999999986
 30
0.0
 11
638.3999999999993
 21
638.39999999999986
 31
0.0
  0
LINE
  8
DETAIL
  6
CONTINUOUS
 62
     5
 10
639.9999999999992
 20
638.39999999999986
 30
0.0
 11
638.3999999999993
 21
638.39999999999986
 31
0.0
  0
LINE
  8
DETAIL
  6
CONTINUOUS
 62
     5
 10
638.3999999999993
 20
632.87636479149978
 30
0.0
 11
639.9999999999992
 21
632.87636479149978
 31
0.0
  0
LINE
  8
DETAIL
  6
CONTINUOUS
 62
     5
 10
-638.40000000000111
 20
632.87636479150001
 30
0.0
 11
-640.00000000000091
 21
632.87636479150001
 31
0.0
  0
LINE
  8
DETAIL
  6
CONTINUOUS
 62
     5
 10
639.06274169979918
 20
632.6000034148999
 30
0.0
 11
638.94133632619923
 21
632.60120036999979
 31
0.0
  0
LINE
  8
DETAIL
  6
CONTINUOUS
 62
     5
 10
638.94133632619923
 20
632.60120036999979
 30
0.0
 11
638.81429514689898
 21
632.60478699419991
 31
0.0
  0
LINE
  8
DETAIL
  6
CONTINUOUS
 62
     5
 10
638.81429514689898
 20
632.60478699419991
 30
0.0
 11
638.68174665279912
 21
632.61077601019952
 31
0.0
  0
LINE
  8
DETAIL
  6
CONTINUOUS
 62
     5
 10
638.68174665279912
 20
632.61077601019952
 30
0.0
 11
638.54379614209927
 21
632.61917663309987
 31
0.0
  0
LINE
  8
DETAIL
  6
CONTINUOUS
 62
     5
 10
638.54379614209927
 20
632.61917663309987
 30
0.0
 11
638.40103508899938
 21
632.62999514369949
 31
0.0
  0
LINE
  8
DETAIL
  6
CONTINUOUS
 62
     5
 10
638.40103508899938
 20
632.62999514369949
 30
0.0
 11
638.25408265579915
 21
632.64322550059978
 31
0.0
  0
LINE
  8
DETAIL
  6
CONTINUOUS
 62
     5
 10
638.25408265579915
 20
632.64322550059978
 30
0.0
 11
638.10313442079917
 21
632.65891388589989
 31
0.0
  0
LINE
  8
DETAIL
  6
CONTINUOUS
 62
     5
 10
638.10313442079917
 20
632.65891388589989
 30
0.0
 11
637.94840612329915
 21
632.67710156559951
 31
0.0
  0
LINE
  8
DETAIL
  6
CONTINUOUS
 62
     5
 10
637.94840612329915
 20
632.67710156559951
 30
0.0
 11
637.79045709939919
 21
632.69779724639989
 31
0.0
  0
LINE
  8
DETAIL
  6
CONTINUOUS
 62
     5
 10
637.79045709939919
 20
632.69779724639989
 30
0.0
 11
637.62984410779927
 21
632.72100557089982
 31
0.0
  0
LINE
  8
DETAIL
  6
CONTINUOUS
 62
     5
 10
637.62984410779927
 20
632.72100557089982
 30
0.0
 11
637.46687896569927
 21
632.74677999719995
 31
0.0
  0
LINE
  8
DETAIL
  6
CONTINUOUS
 62
     5
 10
637.46687896569927
 20
632.74677999719995
 30
0.0
 11
637.30188517299939
 21
632.77516171709976
 31
0.0
  0
LINE
  8
DETAIL
  6
CONTINUOUS
 62
     5
 10
637.30188517299939
 20
632.77516171709976
 30
0.0
 11
637.1354075427987
 21
632.80619217069989
 31
0.0
  0
LINE
  8
DETAIL
  6
CONTINUOUS
 62
     5
 10
637.1354075427987
 20
632.80619217069989
 30
0.0
 11
636.96796596039871
 21
632.83993342519989
 31
0.0
  0
LINE
  8
DETAIL
  6
CONTINUOUS
 62
     5
 10
636.96796596039871
 20
632.83993342519989
 30
0.0
 11
636.79999999999927
 21
632.87636479149978
 31
0.0
  0
LINE
  8
DETAIL
  6
CONTINUOUS
 62
     5
 10
-639.06274169980099
 20
632.60000341500006
 30
0.0
 11
-639.17795684530086
 21
632.60120037009995
 31
0.0
  0
LINE
  8
DETAIL
  6
CONTINUOUS
 62
     5
 10
-639.17795684530086
 20
632.60120037009995
 30
0.0
 11
-639.28648649480101
 21
632.60478699450016
 31
0.0
  0
LINE
  8
DETAIL
  6
CONTINUOUS
 62
     5
 10
-639.28648649480101
 20
632.60478699450016
 30
0.0
 11
-639.38824835820105
 21
632.61077601059981
 31
0.0
  0
LINE
  8
DETAIL
  6
CONTINUOUS
 62
     5
 10
-639.38824835820105
 20
632.61077601059981
 30
0.0
 11
-639.4831278458006
 21
632.61917663350005
 31
0.0
  0
LINE
  8
DETAIL
  6
CONTINUOUS
 62
     5
 10
-639.4831278458006
 20
632.61917663350005
 30
0.0
 11
-639.57068342810089
 21
632.62999514409989
 31
0.0
  0
LINE
  8
DETAIL
  6
CONTINUOUS
 62
     5
 10
-639.57068342810089
 20
632.62999514409989
 30
0.0
 11
-639.65055146330087
 21
632.64322550110001
 31
0.0
  0
LINE
  8
DETAIL
  6
CONTINUOUS
 62
     5
 10
-639.65055146330087
 20
632.64322550110001
 30
0.0
 11
-639.7226427588007
 21
632.6589138864997
 31
0.0
  0
LINE
  8
DETAIL
  6
CONTINUOUS
 62
     5
 10
-639.7226427588007
 20
632.6589138864997
 30
0.0
 11
-639.78683166340079
 21
632.67710156610008
 31
0.0
  0
LINE
  8
DETAIL
  6
CONTINUOUS
 62
     5
 10
-639.78683166340079
 20
632.67710156610008
 30
0.0
 11
-639.84285963190098
 21
632.69779724670002
 31
0.0
  0
LINE
  8
DETAIL
  6
CONTINUOUS
 62
     5
 10
-639.84285963190098
 20
632.69779724670002
 30
0.0
 11
-639.89052726260059
 21
632.7210055713997
 31
0.0
  0
LINE
  8
DETAIL
  6
CONTINUOUS
 62
     5
 10
-639.89052726260059
 20
632.7210055713997
 30
0.0
 11
-639.92973999700098
 21
632.74677999760002
 31
0.0
  0
LINE
  8
DETAIL
  6
CONTINUOUS
 62
     5
 10
-639.92973999700098
 20
632.74677999760002
 30
0.0
 11
-639.96039732870076
 21
632.7751617173999
 31
0.0
  0
LINE
  8
DETAIL
  6
CONTINUOUS
 62
     5
 10
-639.96039732870076
 20
632.7751617173999
 30
0.0
 11
-639.98237360800067
 21
632.80619217089998
 31
0.0
  0
LINE
  8
DETAIL
  6
CONTINUOUS
 62
     5
 10
-639.98237360800067
 20
632.80619217089998
 30
0.0
 11
-639.99558874640104
 21
632.83993342530005
 31
0.0
  0
LINE
  8
DETAIL
  6
CONTINUOUS
 62
     5
 10
-639.99558874640104
 20
632.83993342530005
 30
0.0
 11
-640.00000000000091
 21
632.87636479150001
 31
0.0
  0
LINE
  8
DETAIL
  6
CONTINUOUS
 62
     5
 10
-290.3352384841009
 20
638.39999999999986
 30
0.0
 11
-290.28650736300119
 21
638.39734337819971
 31
0.0
  0
LINE
  8
DETAIL
  6
CONTINUOUS
 62
     5
 10
-290.28650736300119
 20
638.39734337819971
 30
0.0
 11
-290.24197937110063
 21
638.38943596509989
 31
0.0
  0
LINE
  8
DETAIL
  6
CONTINUOUS
 62
     5
 10
-290.24197937110063
 20
638.38943596509989
 30
0.0
 11
-290.2017337539009
 21
638.37638412709998
 31
0.0
  0
LINE
  8
DETAIL
  6
CONTINUOUS
 62
     5
 10
-290.2017337539009
 20
638.37638412709998
 30
0.0
 11
-290.16553277470058
 21
638.35830796969969
 31
0.0
  0
LINE
  8
DETAIL
  6
CONTINUOUS
 62
     5
 10
-290.16553277470058
 20
638.35830796969969
 30
0.0
 11
-290.1331996664012
 21
638.33534673079998
 31
0.0
  0
LINE
  8
DETAIL
  6
CONTINUOUS
 62
     5
 10
-290.1331996664012
 20
638.33534673079998
 30
0.0
 11
-290.10463076570068
 21
638.30762985739989
 31
0.0
  0
LINE
  8
DETAIL
  6
CONTINUOUS
 62
     5
 10
-290.10463076570068
 20
638.30762985739989
 30
0.0
 11
-290.07969215500088
 21
638.27529542349998
 31
0.0
  0
LINE
  8
DETAIL
  6
CONTINUOUS
 62
     5
 10
-290.07969215500088
 20
638.27529542349998
 30
0.0
 11
-290.05829783030089
 21
638.23847652349991
 31
0.0
  0
LINE
  8
DETAIL
  6
CONTINUOUS
 62
     5
 10
-290.05829783030089
 20
638.23847652349991
 30
0.0
 11
-290.05496999970092
 21
638.23084811880005
 31
0.0
  0
LINE
  8
DETAIL
  6
CONTINUOUS
 62
     5
 10
-290.3352384841009
 20
640.0
 30
0.0
 11
-290.29335084490049
 21
639.99613050469998
 31
0.0
  0
LINE
  8
DETAIL
  6
CONTINUOUS
 62
     5
 10
-290.29335084490049
 20
639.99613050469998
 30
0.0
 11
-290.25444300720068
 21
639.98453516539985
 31
0.0
  0
LINE
  8
DETAIL
  6
CONTINUOUS
 62
     5
 10
-290.25444300720068
 20
639.98453516539985
 30
0.0
 11
-290.21855148630078
 21
639.96524848089985
 31
0.0
  0
LINE
  8
DETAIL
  6
CONTINUOUS
 62
     5
 10
-290.21855148630078
 20
639.96524848089985
 30
0.0
 11
-290.18556673680092
 21
639.93832029240002
 31
0.0
  0
LINE
  8
DETAIL
  6
CONTINUOUS
 62
     5
 10
-290.18556673680092
 20
639.93832029240002
 30
0.0
 11
-290.15539915570122
 21
639.9038102774
 31
0.0
  0
LINE
  8
DETAIL
  6
CONTINUOUS
 62
     5
 10
-290.15539915570122
 20
639.9038102774
 30
0.0
 11
-290.12802543030102
 21
639.8618211733999
 31
0.0
  0
LINE
  8
DETAIL
  6
CONTINUOUS
 62
     5
 10
-290.12802543030102
 20
639.8618211733999
 30
0.0
 11
-290.1034053034009
 21
639.81248996119996
 31
0.0
  0
LINE
  8
DETAIL
  6
CONTINUOUS
 62
     5
 10
-290.1034053034009
 20
639.81248996119996
 30
0.0
 11
-290.08150000470062
 21
639.75593138459999
 31
0.0
  0
LINE
  8
DETAIL
  6
CONTINUOUS
 62
     5
 10
-290.08150000470062
 20
639.75593138459999
 30
0.0
 11
-290.06227003360073
 21
639.69228474350007
 31
0.0
  0
LINE
  8
DETAIL
  6
CONTINUOUS
 62
     5
 10
-290.06227003360073
 20
639.69228474350007
 30
0.0
 11
-290.04567732400068
 21
639.62168632299995
 31
0.0
  0
LINE
  8
DETAIL
  6
CONTINUOUS
 62
     5
 10
-290.04567732400068
 20
639.62168632299995
 30
0.0
 11
-290.03167406220109
 21
639.54425849329994
 31
0.0
  0
LINE
  8
DETAIL
  6
CONTINUOUS
 62
     5
 10
-290.03167406220109
 20
639.54425849329994
 30
0.0
 11
-290.02024999100092
 21
639.46023545729997
 31
0.0
  0
LINE
  8
DETAIL
  6
CONTINUOUS
 62
     5
 10
-290.02024999100092
 20
639.46023545729997
 30
0.0
 11
-290.01138250740041
 21
639.36988453660001
 31
0.0
  0
LINE
  8
DETAIL
  6
CONTINUOUS
 62
     5
 10
-290.01138250740041
 20
639.36988453660001
 30
0.0
 11
-290.00506083600072
 21
639.2733793914997
 31
0.0
  0
LINE
  8
DETAIL
  6
CONTINUOUS
 62
     5
 10
-290.00506083600072
 20
639.2733793914997
 30
0.0
 11
-290.00126437810093
 21
639.17091249869986
 31
0.0
  0
LINE
  8
DETAIL
  6
CONTINUOUS
 62
     5
 10
-290.00126437810093
 20
639.17091249869986
 30
0.0
 11
-290.00000000000091
 21
639.0627416998002
 31
0.0
  0
LINE
  8
DETAIL
  6
CONTINUOUS
 62
     5
 10
638.3999999999993
 20
-632.87636479150012
 30
0.0
 11
638.39737655749923
 21
-632.8367901321003
 31
0.0
  0
LINE
  8
DETAIL
  6
CONTINUOUS
 62
     5
 10
638.39737655749923
 20
-632.8367901321003
 30
0.0
 11
638.38955824349921
 21
-632.80049982520006
 31
0.0
  0
LINE
  8
DETAIL
  6
CONTINUOUS
 62
     5
 10
638.38955824349921
 20
-632.80049982520006
 30
0.0
 11
638.37663804539898
 21
-632.76754366230011
 31
0.0
  0
LINE
  8
DETAIL
  6
CONTINUOUS
 62
     5
 10
638.37663804539898
 20
-632.76754366230011
 30
0.0
 11
638.3587132168991
 21
-632.73777226820027
 31
0.0
  0
LINE
  8
DETAIL
  6
CONTINUOUS
 62
     5
 10
638.3587132168991
 20
-632.73777226820027
 30
0.0
 11
638.33588568309926
 21
-632.71106791290026
 31
0.0
  0
LINE
  8
DETAIL
  6
CONTINUOUS
 62
     5
 10
638.33588568309926
 20
-632.71106791290026
 30
0.0
 11
638.30827953699941
 21
-632.68738545150018
 31
0.0
  0
LINE
  8
DETAIL
  6
CONTINUOUS
 62
     5
 10
638.30827953699941
 20
-632.68738545150018
 30
0.0
 11
638.27604077319927
 21
-632.66666168620009
 31
0.0
  0
LINE
  8
DETAIL
  6
CONTINUOUS
 62
     5
 10
638.27604077319927
 20
-632.66666168620009
 30
0.0
 11
638.23927924419922
 21
-632.64883304660043
 31
0.0
  0
LINE
  8
DETAIL
  6
CONTINUOUS
 62
     5
 10
638.23927924419922
 20
-632.64883304660043
 30
0.0
 11
638.23059209159919
 21
-632.64566692710014
 31
0.0
  0
LINE
  8
DETAIL
  6
CONTINUOUS
 62
     5
 10
639.9999999999992
 20
290.33523848419992
 30
0.0
 11
639.99613024159908
 21
290.2933491245999
 31
0.0
  0
LINE
  8
DETAIL
  6
CONTINUOUS
 62
     5
 10
639.99613024159908
 20
290.2933491245999
 30
0.0
 11
639.98453521419924
 21
290.25444168249987
 31
0.0
  0
LINE
  8
DETAIL
  6
CONTINUOUS
 62
     5
 10
639.98453521419924
 20
290.25444168249987
 30
0.0
 11
639.96525183579945
 21
290.21855367619969
 31
0.0
  0
LINE
  8
DETAIL
  6
CONTINUOUS
 62
     5
 10
639.96525183579945
 20
290.21855367619969
 30
0.0
 11
639.93832923999935
 21
290.18557255079992
 31
0.0
  0
LINE
  8
DETAIL
  6
CONTINUOUS
 62
     5
 10
639.93832923999935
 20
290.18557255079992
 30
0.0
 11
639.90382172119917
 21
290.15540450859982
 31
0.0
  0
LINE
  8
DETAIL
  6
CONTINUOUS
 62
     5
 10
639.90382172119917
 20
290.15540450859982
 30
0.0
 11
639.86183611179922
 21
290.12803079629998
 31
0.0
  0
LINE
  8
DETAIL
  6
CONTINUOUS
 62
     5
 10
639.86183611179922
 20
290.12803079629998
 30
0.0
 11
639.8125239944992
 21
290.10341742880001
 31
0.0
  0
LINE
  8
DETAIL
  6
CONTINUOUS
 62
     5
 10
639.8125239944992
 20
290.10341742880001
 30
0.0
 11
639.75597800819924
 21
290.08151630359981
 31
0.0
  0
LINE
  8
DETAIL
  6
CONTINUOUS
 62
     5
 10
639.75597800819924
 20
290.08151630359981
 30
0.0
 11
639.69228490439946
 21
290.0622752778998
 31
0.0
  0
LINE
  8
DETAIL
  6
CONTINUOUS
 62
     5
 10
639.69228490439946
 20
290.0622752778998
 30
0.0
 11
639.62163807269917
 21
290.04567248839982
 31
0.0
  0
LINE
  8
DETAIL
  6
CONTINUOUS
 62
     5
 10
639.62163807269917
 20
290.04567248839982
 30
0.0
 11
639.54426169809904
 21
290.03167811999992
 31
0.0
  0
LINE
  8
DETAIL
  6
CONTINUOUS
 62
     5
 10
639.54426169809904
 20
290.03167811999992
 30
0.0
 11
639.46030073239956
 21
290.02026388479982
 31
0.0
  0
LINE
  8
DETAIL
  6
CONTINUOUS
 62
     5
 10
639.46030073239956
 20
290.02026388479982
 30
0.0
 11
639.36989921379927
 21
290.01139079260008
 31
0.0
  0
LINE
  8
DETAIL
  6
CONTINUOUS
 62
     5
 10
639.36989921379927
 20
290.01139079260008
 30
0.0
 11
639.27332544319927
 21
290.00506113419988
 31
0.0
  0
LINE
  8
DETAIL
  6
CONTINUOUS
 62
     5
 10
639.27332544319927
 20
290.00506113419988
 30
0.0
 11
639.1708701969992
 21
290.0012640742998
 31
0.0
  0
LINE
  8
DETAIL
  6
CONTINUOUS
 62
     5
 10
639.1708701969992
 20
290.0012640742998
 30
0.0
 11
639.06274169979918
 21
289.99999999999977
 31
0.0
  0
LINE
  8
DETAIL
  6
CONTINUOUS
 62
     5
 10
639.9999999999992
 20
632.87636479149978
 30
0.0
 11
639.99558874639922
 21
632.83993342519989
 31
0.0
  0
LINE
  8
DETAIL
  6
CONTINUOUS
 62
     5
 10
639.99558874639922
 20
632.83993342519989
 30
0.0
 11
639.98237360789926
 21
632.8061921707997
 31
0.0
  0
LINE
  8
DETAIL
  6
CONTINUOUS
 62
     5
 10
639.98237360789926
 20
632.8061921707997
 30
0.0
 11
639.96039732839915
 21
632.77516171709976
 31
0.0
  0
LINE
  8
DETAIL
  6
CONTINUOUS
 62
     5
 10
639.96039732839915
 20
632.77516171709976
 30
0.0
 11
639.92973999649871
 21
632.74677999729988
 31
0.0
  0
LINE
  8
DETAIL
  6
CONTINUOUS
 62
     5
 10
639.92973999649871
 20
632.74677999729988
 30
0.0
 11
639.89052726209911
 21
632.72100557109979
 31
0.0
  0
LINE
  8
DETAIL
  6
CONTINUOUS
 62
     5
 10
639.89052726209911
 20
632.72100557109979
 30
0.0
 11
639.84285963119919
 21
632.6977972464997
 31
0.0
  0
LINE
  8
DETAIL
  6
CONTINUOUS
 62
     5
 10
639.84285963119919
 20
632.6977972464997
 30
0.0
 11
639.78683166219935
 21
632.67710156569979
 31
0.0
  0
LINE
  8
DETAIL
  6
CONTINUOUS
 62
     5
 10
639.78683166219935
 20
632.67710156569979
 30
0.0
 11
639.72264275689929
 21
632.65891388599948
 31
0.0
  0
LINE
  8
DETAIL
  6
CONTINUOUS
 62
     5
 10
639.72264275689929
 20
632.65891388599948
 30
0.0
 11
639.65055146109898
 21
632.64322550069983
 31
0.0
  0
LINE
  8
DETAIL
  6
CONTINUOUS
 62
     5
 10
639.65055146109898
 20
632.64322550069983
 30
0.0
 11
639.57068342559921
 21
632.62999514369949
 31
0.0
  0
LINE
  8
DETAIL
  6
CONTINUOUS
 62
     5
 10
639.57068342559921
 20
632.62999514369949
 30
0.0
 11
639.48312784159907
 21
632.61917663309987
 31
0.0
  0
LINE
  8
DETAIL
  6
CONTINUOUS
 62
     5
 10
639.48312784159907
 20
632.61917663309987
 30
0.0
 11
639.38824835209925
 21
632.61077601019952
 31
0.0
  0
LINE
  8
DETAIL
  6
CONTINUOUS
 62
     5
 10
639.38824835209925
 20
632.61077601019952
 30
0.0
 11
639.28648648869921
 21
632.60478699419991
 31
0.0
  0
LINE
  8
DETAIL
  6
CONTINUOUS
 62
     5
 10
639.28648648869921
 20
632.60478699419991
 30
0.0
 11
639.17795684049918
 21
632.60120036989952
 31
0.0
  0
LINE
  8
DETAIL
  6
CONTINUOUS
 62
     5
 10
639.17795684049918
 20
632.60120036989952
 30
0.0
 11
639.06274169979918
 21
632.6000034148999
 31
0.0
  0
LINE
  8
DETAIL
  6
CONTINUOUS
 62
     5
 10
-632.87636479150069
 20
640.0
 30
0.0
 11
-632.8399334252008
 21
639.99558874640002
 31
0.0
  0
LINE
  8
DETAIL
  6
CONTINUOUS
 62
     5
 10
-632.8399334252008
 20
639.99558874640002
 30
0.0
 11
-632.8061921707008
 21
639.98237360790006
 31
0.0
  0
LINE
  8
DETAIL
  6
CONTINUOUS
 62
     5
 10
-632.8061921707008
 20
639.98237360790006
 30
0.0
 11
-632.77516171710067
 21
639.96039732849999
 31
0.0
  0
LINE
  8
DETAIL
  6
CONTINUOUS
 62
     5
 10
-632.77516171710067
 20
639.96039732849999
 30
0.0
 11
-632.74677999730102
 21
639.92973999659989
 31
0.0
  0
LINE
  8
DETAIL
  6
CONTINUOUS
 62
     5
 10
-632.74677999730102
 20
639.92973999659989
 30
0.0
 11
-632.72100557100066
 21
639.89052726210002
 31
0.0
  0
LINE
  8
DETAIL
  6
CONTINUOUS
 62
     5
 10
-632.72100557100066
 20
639.89052726210002
 30
0.0
 11
-632.69779724640102
 21
639.8428596312998
 31
0.0
  0
LINE
  8
DETAIL
  6
CONTINUOUS
 62
     5
 10
-632.69779724640102
 20
639.8428596312998
 30
0.0
 11
-632.67710156570092
 21
639.78683166220003
 31
0.0
  0
LINE
  8
DETAIL
  6
CONTINUOUS
 62
     5
 10
-632.67710156570092
 20
639.78683166220003
 30
0.0
 11
-632.65891388600085
 21
639.72264275690009
 31
0.0
  0
LINE
  8
DETAIL
  6
CONTINUOUS
 62
     5
 10
-632.65891388600085
 20
639.72264275690009
 30
0.0
 11
-632.64322550070074
 21
639.65055146119994
 31
0.0
  0
LINE
  8
DETAIL
  6
CONTINUOUS
 62
     5
 10
-632.64322550070074
 20
639.65055146119994
 30
0.0
 11
-632.62999514370097
 21
639.57068342570017
 31
0.0
  0
LINE
  8
DETAIL
  6
CONTINUOUS
 62
     5
 10
-632.62999514370097
 20
639.57068342570017
 30
0.0
 11
-632.61917663300073
 21
639.48312784159998
 31
0.0
  0
LINE
  8
DETAIL
  6
CONTINUOUS
 62
     5
 10
-632.61917663300073
 20
639.48312784159998
 30
0.0
 11
-632.61077601020088
 21
639.38824835219998
 31
0.0
  0
LINE
  8
DETAIL
  6
CONTINUOUS
 62
     5
 10
-632.61077601020088
 20
639.38824835219998
 30
0.0
 11
-632.60478699420082
 21
639.28648648869989
 31
0.0
  0
LINE
  8
DETAIL
  6
CONTINUOUS
 62
     5
 10
-632.60478699420082
 20
639.28648648869989
 30
0.0
 11
-632.60120036990054
 21
639.1779568405002
 31
0.0
  0
LINE
  8
DETAIL
  6
CONTINUOUS
 62
     5
 10
-632.60120036990054
 20
639.1779568405002
 30
0.0
 11
-632.60000341490047
 21
639.0627416998002
 31
0.0
  0
LINE
  8
DETAIL
  6
CONTINUOUS
 62
     5
 10
638.23084981469947
 20
299.94502471559991
 30
0.0
 11
638.23851141019895
 21
299.94168110409993
 31
0.0
  0
LINE
  8
DETAIL
  6
CONTINUOUS
 62
     5
 10
638.23851141019895
 20
299.94168110409993
 30
0.0
 11
638.27532918219913
 21
299.92028362469972
 31
0.0
  0
LINE
  8
DETAIL
  6
CONTINUOUS
 62
     5
 10
638.27532918219913
 20
299.92028362469972
 30
0.0
 11
638.30766547359929
 21
299.89533941349993
 31
0.0
  0
LINE
  8
DETAIL
  6
CONTINUOUS
 62
     5
 10
638.30766547359929
 20
299.89533941349993
 30
0.0
 11
638.33538036409936
 21
299.86676238759969
 31
0.0
  0
LINE
  8
DETAIL
  6
CONTINUOUS
 62
     5
 10
638.33538036409936
 20
299.86676238759969
 30
0.0
 11
638.35833425149951
 21
299.83442702889988
 31
0.0
  0
LINE
  8
DETAIL
  6
CONTINUOUS
 62
     5
 10
638.35833425149951
 20
299.83442702889988
 30
0.0
 11
638.37639493479901
 21
299.79824440069979
 31
0.0
  0
LINE
  8
DETAIL
  6
CONTINUOUS
 62
     5
 10
638.37639493479901
 20
299.79824440069979
 30
0.0
 11
638.38943690279928
 21
299.75801867569982
 31
0.0
  0
LINE
  8
DETAIL
  6
CONTINUOUS
 62
     5
 10
638.38943690279928
 20
299.75801867569982
 30
0.0
 11
638.39734289679927
 21
299.71349619659992
 31
0.0
  0
LINE
  8
DETAIL
  6
CONTINUOUS
 62
     5
 10
638.39734289679927
 20
299.71349619659992
 30
0.0
 11
638.3999999999993
 21
299.66476151589961
 31
0.0
  0
LINE
  8
DETAIL
  6
CONTINUOUS
 62
     5
 10
299.94503000029908
 20
-638.23084811870012
 30
0.0
 11
299.94170216969911
 21
-638.2384765234001
 31
0.0
  0
LINE
  8
DETAIL
  6
CONTINUOUS
 62
     5
 10
299.94170216969911
 20
-638.2384765234001
 30
0.0
 11
299.92030784499912
 21
-638.27529542340028
 31
0.0
  0
LINE
  8
DETAIL
  6
CONTINUOUS
 62
     5
 10
299.92030784499912
 20
-638.27529542340028
 30
0.0
 11
299.89536923429932
 21
-638.30762985730018
 31
0.0
  0
LINE
  8
DETAIL
  6
CONTINUOUS
 62
     5
 10
299.89536923429932
 20
-638.30762985730018
 30
0.0
 11
299.86680033359931
 21
-638.3353467308001
 31
0.0
  0
LINE
  8
DETAIL
  6
CONTINUOUS
 62
     5
 10
299.86680033359931
 20
-638.3353467308001
 30
0.0
 11
299.83446722529942
 21
-638.35830796960011
 31
0.0
  0
LINE
  8
DETAIL
  6
CONTINUOUS
 62
     5
 10
299.83446722529942
 20
-638.35830796960011
 30
0.0
 11
299.79826624609882
 21
-638.3763841271001
 31
0.0
  0
LINE
  8
DETAIL
  6
CONTINUOUS
 62
     5
 10
299.79826624609882
 20
-638.3763841271001
 30
0.0
 11
299.75802062889937
 21
-638.3894359650003
 31
0.0
  0
LINE
  8
DETAIL
  6
CONTINUOUS
 62
     5
 10
299.75802062889937
 20
-638.3894359650003
 30
0.0
 11
299.71349263699881
 21
-638.39734337810012
 31
0.0
  0
LINE
  8
DETAIL
  6
CONTINUOUS
 62
     5
 10
299.71349263699881
 20
-638.39734337810012
 30
0.0
 11
299.66476151589882
 21
-638.40000000000032
 31
0.0
  0
LINE
  8
DETAIL
  6
CONTINUOUS
 62
     5
 10
-636.80000000000052
 20
290.33523848419992
 30
0.0
 11
-636.95732602620092
 21
290.29334912460013
 31
0.0
  0
LINE
  8
DETAIL
  6
CONTINUOUS
 62
     5
 10
-636.95732602620092
 20
290.29334912460013
 30
0.0
 11
-637.11422200640118
 21
290.2544416825001
 31
0.0
  0
LINE
  8
DETAIL
  6
CONTINUOUS
 62
     5
 10
-637.11422200640118
 20
290.2544416825001
 30
0.0
 11
-637.27029864510098
 21
290.21855367619992
 31
0.0
  0
LINE
  8
DETAIL
  6
CONTINUOUS
 62
     5
 10
-637.27029864510098
 20
290.21855367619992
 30
0.0
 11
-637.425211629101
 21
290.18557255079998
 31
0.0
  0
LINE
  8
DETAIL
  6
CONTINUOUS
 62
     5
 10
-637.425211629101
 20
290.18557255079998
 30
0.0
 11
-637.57864672540109
 21
290.15540450859982
 31
0.0
  0
LINE
  8
DETAIL
  6
CONTINUOUS
 62
     5
 10
-637.57864672540109
 20
290.15540450859982
 30
0.0
 11
-637.73013957240084
 21
290.12803079629998
 31
0.0
  0
LINE
  8
DETAIL
  6
CONTINUOUS
 62
     5
 10
-637.73013957240084
 20
290.12803079629998
 30
0.0
 11
-637.87921229720087
 21
290.10341742880001
 31
0.0
  0
LINE
  8
DETAIL
  6
CONTINUOUS
 62
     5
 10
-637.87921229720087
 20
290.10341742880001
 30
0.0
 11
-638.02564024710091
 21
290.08151630359981
 31
0.0
  0
LINE
  8
DETAIL
  6
CONTINUOUS
 62
     5
 10
-638.02564024710091
 20
290.08151630359981
 30
0.0
 11
-638.16919247440092
 21
290.06227527789991
 31
0.0
  0
LINE
  8
DETAIL
  6
CONTINUOUS
 62
     5
 10
-638.16919247440092
 20
290.06227527789991
 30
0.0
 11
-638.30942326290108
 21
290.04567248839999
 31
0.0
  0
LINE
  8
DETAIL
  6
CONTINUOUS
 62
     5
 10
-638.30942326290108
 20
290.04567248839999
 30
0.0
 11
-638.4459124315008
 21
290.03167812000021
 31
0.0
  0
LINE
  8
DETAIL
  6
CONTINUOUS
 62
     5
 10
-638.4459124315008
 20
290.03167812000021
 30
0.0
 11
-638.57842627430091
 21
290.02026388479999
 31
0.0
  0
LINE
  8
DETAIL
  6
CONTINUOUS
 62
     5
 10
-638.57842627430091
 20
290.02026388479999
 30
0.0
 11
-638.7067296691007
 21
290.01139079260008
 31
0.0
  0
LINE
  8
DETAIL
  6
CONTINUOUS
 62
     5
 10
-638.7067296691007
 20
290.01139079260008
 30
0.0
 11
-638.83043375960051
 21
290.00506113420022
 31
0.0
  0
LINE
  8
DETAIL
  6
CONTINUOUS
 62
     5
 10
-638.83043375960051
 20
290.00506113420022
 30
0.0
 11
-638.94917996190088
 21
290.00126407430002
 31
0.0
  0
LINE
  8
DETAIL
  6
CONTINUOUS
 62
     5
 10
-638.94917996190088
 20
290.00126407430002
 30
0.0
 11
-639.06274169980099
 21
289.99999999999989
 31
0.0
  0
LINE
  8
DETAIL
  6
CONTINUOUS
 62
     5
 10
290.33523848409902
 20
636.80000000000007
 30
0.0
 11
290.29335084479908
 21
636.95732068149994
 31
0.0
  0
LINE
  8
DETAIL
  6
CONTINUOUS
 62
     5
 10
290.29335084479908
 20
636.95732068149994
 30
0.0
 11
290.25444300719931
 21
637.1142225015999
 31
0.0
  0
LINE
  8
DETAIL
  6
CONTINUOUS
 62
     5
 10
290.25444300719931
 20
637.1142225015999
 30
0.0
 11
290.21855148629948
 21
637.27032122489982
 31
0.0
  0
LINE
  8
DETAIL
  6
CONTINUOUS
 62
     5
 10
290.21855148629948
 20
637.27032122489982
 30
0.0
 11
290.18556673669912
 21
637.42525654159977
 31
0.0
  0
LINE
  8
DETAIL
  6
CONTINUOUS
 62
     5
 10
290.18556673669912
 20
637.42525654159977
 30
0.0
 11
290.15539915569917
 21
637.57869234100008
 31
0.0
  0
LINE
  8
DETAIL
  6
CONTINUOUS
 62
     5
 10
290.15539915569917
 20
637.57869234100008
 30
0.0
 11
290.12802543019922
 21
637.73018874569971
 31
0.0
  0
LINE
  8
DETAIL
  6
CONTINUOUS
 62
     5
 10
290.12802543019922
 20
637.73018874569971
 30
0.0
 11
290.10340530329881
 21
637.87930729339951
 31
0.0
  0
LINE
  8
DETAIL
  6
CONTINUOUS
 62
     5
 10
290.10340530329881
 20
637.87930729339951
 30
0.0
 11
290.08150000469908
 21
638.02575268709984
 31
0.0
  0
LINE
  8
DETAIL
  6
CONTINUOUS
 62
     5
 10
290.08150000469908
 20
638.02575268709984
 30
0.0
 11
290.06227003359891
 21
638.16919281429978
 31
0.0
  0
LINE
  8
DETAIL
  6
CONTINUOUS
 62
     5
 10
290.06227003359891
 20
638.16919281429978
 30
0.0
 11
290.04567732399931
 21
638.3093330628999
 31
0.0
  0
LINE
  8
DETAIL
  6
CONTINUOUS
 62
     5
 10
290.04567732399931
 20
638.3093330628999
 30
0.0
 11
290.03167406209923
 21
638.4459177750997
 31
0.0
  0
LINE
  8
DETAIL
  6
CONTINUOUS
 62
     5
 10
290.03167406209923
 20
638.4459177750997
 30
0.0
 11
290.02024999099922
 21
638.57852391379981
 31
0.0
  0
LINE
  8
DETAIL
  6
CONTINUOUS
 62
     5
 10
290.02024999099922
 20
638.57852391379981
 30
0.0
 11
290.01138250739939
 21
638.70674945089991
 31
0.0
  0
LINE
  8
DETAIL
  6
CONTINUOUS
 62
     5
 10
290.01138250739939
 20
638.70674945089991
 30
0.0
 11
290.00506083599919
 21
638.83036804189987
 31
0.0
  0
LINE
  8
DETAIL
  6
CONTINUOUS
 62
     5
 10
290.00506083599919
 20
638.83036804189987
 30
0.0
 11
290.00126437809922
 21
638.9491332959999
 31
0.0
  0
LINE
  8
DETAIL
  6
CONTINUOUS
 62
     5
 10
290.00126437809922
 20
638.9491332959999
 30
0.0
 11
289.99999999999909
 21
639.06274169979952
 31
0.0
  0
LINE
  8
DETAIL
  6
CONTINUOUS
 62
     5
 10
632.64566692709923
 20
-638.23059209100029
 30
0.0
 11
632.64883304979912
 21
-638.23927925190014
 31
0.0
  0
LINE
  8
DETAIL
  6
CONTINUOUS
 62
     5
 10
632.64883304979912
 20
-638.23927925190014
 30
0.0
 11
632.66666168889924
 21
-638.27604077820013
 31
0.0
  0
LINE
  8
DETAIL
  6
CONTINUOUS
 62
     5
 10
632.66666168889924
 20
-638.27604077820013
 30
0.0
 11
632.68738545359929
 21
-638.30827953980042
 31
0.0
  0
LINE
  8
DETAIL
  6
CONTINUOUS
 62
     5
 10
632.68738545359929
 20
-638.30827953980042
 30
0.0
 11
632.71106791499926
 21
-638.33588568520008
 31
0.0
  0
LINE
  8
DETAIL
  6
CONTINUOUS
 62
     5
 10
632.71106791499926
 20
-638.33588568520008
 30
0.0
 11
632.73777227049925
 21
-638.35871321850027
 31
0.0
  0
LINE
  8
DETAIL
  6
CONTINUOUS
 62
     5
 10
632.73777227049925
 20
-638.35871321850027
 30
0.0
 11
632.76754366409921
 21
-638.37663804620001
 31
0.0
  0
LINE
  8
DETAIL
  6
CONTINUOUS
 62
     5
 10
632.76754366409921
 20
-638.37663804620001
 30
0.0
 11
632.80049982619914
 21
-638.38955824380014
 31
0.0
  0
LINE
  8
DETAIL
  6
CONTINUOUS
 62
     5
 10
632.80049982619914
 20
-638.38955824380014
 30
0.0
 11
632.83679013269921
 21
-638.39737655760018
 31
0.0
  0
LINE
  8
DETAIL
  6
CONTINUOUS
 62
     5
 10
632.83679013269921
 20
-638.39737655760018
 30
0.0
 11
632.87636479149921
 21
-638.40000000000032
 31
0.0
  0
LINE
  8
DETAIL
  6
CONTINUOUS
 62
     5
 10
299.66476151589882
 20
638.39999999999986
 30
0.0
 11
299.66476151589882
 21
639.99999999999977
 31
0.0
  0
LINE
  8
DETAIL
  6
CONTINUOUS
 62
     5
 10
299.66476151589882
 20
-638.40000000000032
 30
0.0
 11
299.66476151589882
 21
-640.00000000000011
 31
0.0
  0
LINE
  8
DETAIL
  6
CONTINUOUS
 62
     5
 10
290.33523848409902
 20
638.39999999999986
 30
0.0
 11
290.33523848409902
 21
639.99999999999977
 31
0.0
  0
LINE
  8
DETAIL
  6
CONTINUOUS
 62
     5
 10
290.33523848409902
 20
-638.40000000000032
 30
0.0
 11
290.33523848409902
 21
-640.00000000000011
 31
0.0
  0
LINE
  8
DETAIL
  6
CONTINUOUS
 62
     5
 10
289.99999999999909
 20
-639.06274169980043
 30
0.0
 11
290.00126437809922
 21
-638.94913329590008
 31
0.0
  0
LINE
  8
DETAIL
  6
CONTINUOUS
 62
     5
 10
290.00126437809922
 20
-638.94913329590008
 30
0.0
 11
290.00506083599919
 21
-638.8303680419001
 31
0.0
  0
LINE
  8
DETAIL
  6
CONTINUOUS
 62
     5
 10
290.00506083599919
 20
-638.8303680419001
 30
0.0
 11
290.01138250739939
 21
-638.70674945090013
 31
0.0
  0
LINE
  8
DETAIL
  6
CONTINUOUS
 62
     5
 10
290.01138250739939
 20
-638.70674945090013
 30
0.0
 11
290.02024999099922
 21
-638.57852391380004
 31
0.0
  0
LINE
  8
DETAIL
  6
CONTINUOUS
 62
     5
 10
290.02024999099922
 20
-638.57852391380004
 30
0.0
 11
290.03167406209923
 21
-638.44591777500011
 31
0.0
  0
LINE
  8
DETAIL
  6
CONTINUOUS
 62
     5
 10
290.03167406209923
 20
-638.44591777500011
 30
0.0
 11
290.04567732399931
 21
-638.30933306280031
 31
0.0
  0
LINE
  8
DETAIL
  6
CONTINUOUS
 62
     5
 10
290.04567732399931
 20
-638.30933306280031
 30
0.0
 11
290.06227003359891
 21
-638.16919281430012
 31
0.0
  0
LINE
  8
DETAIL
  6
CONTINUOUS
 62
     5
 10
290.06227003359891
 20
-638.16919281430012
 30
0.0
 11
290.08150000469908
 21
-638.02575268700002
 31
0.0
  0
LINE
  8
DETAIL
  6
CONTINUOUS
 62
     5
 10
290.08150000469908
 20
-638.02575268700002
 30
0.0
 11
290.10340530329881
 21
-637.87930729340007
 31
0.0
  0
LINE
  8
DETAIL
  6
CONTINUOUS
 62
     5
 10
290.10340530329881
 20
-637.87930729340007
 30
0.0
 11
290.12802543019922
 21
-637.73018874560012
 31
0.0
  0
LINE
  8
DETAIL
  6
CONTINUOUS
 62
     5
 10
290.12802543019922
 20
-637.73018874560012
 30
0.0
 11
290.15539915569917
 21
-637.57869234090003
 31
0.0
  0
LINE
  8
DETAIL
  6
CONTINUOUS
 62
     5
 10
290.15539915569917
 20
-637.57869234090003
 30
0.0
 11
290.18556673669912
 21
-637.42525654150018
 31
0.0
  0
LINE
  8
DETAIL
  6
CONTINUOUS
 62
     5
 10
290.18556673669912
 20
-637.42525654150018
 30
0.0
 11
290.21855148629948
 21
-637.2703212248
 31
0.0
  0
LINE
  8
DETAIL
  6
CONTINUOUS
 62
     5
 10
290.21855148629948
 20
-637.2703212248
 30
0.0
 11
290.25444300719931
 21
-637.11422250150054
 31
0.0
  0
LINE
  8
DETAIL
  6
CONTINUOUS
 62
     5
 10
290.25444300719931
 20
-637.11422250150054
 30
0.0
 11
290.29335084479908
 21
-636.95732068140012
 31
0.0
  0
LINE
  8
DETAIL
  6
CONTINUOUS
 62
     5
 10
290.29335084479908
 20
-636.95732068140012
 30
0.0
 11
290.33523848409902
 21
-636.8000000000003
 31
0.0
  0
LINE
  8
DETAIL
  6
CONTINUOUS
 62
     5
 10
299.99999999999909
 20
639.06274169979952
 30
0.0
 11
299.99873562189907
 21
638.9491332959999
 31
0.0
  0
LINE
  8
DETAIL
  6
CONTINUOUS
 62
     5
 10
299.99873562189907
 20
638.9491332959999
 30
0.0
 11
299.99493916399928
 21
638.83036804189987
 31
0.0
  0
LINE
  8
DETAIL
  6
CONTINUOUS
 62
     5
 10
299.99493916399928
 20
638.83036804189987
 30
0.0
 11
299.98861749259908
 21
638.70674945089991
 31
0.0
  0
LINE
  8
DETAIL
  6
CONTINUOUS
 62
     5
 10
299.98861749259908
 20
638.70674945089991
 30
0.0
 11
299.97975000899908
 21
638.57852391379981
 31
0.0
  0
LINE
  8
DETAIL
  6
CONTINUOUS
 62
     5
 10
299.97975000899908
 20
638.57852391379981
 30
0.0
 11
299.96832593779891
 21
638.4459177750997
 31
0.0
  0
LINE
  8
DETAIL
  6
CONTINUOUS
 62
     5
 10
299.96832593779891
 20
638.4459177750997
 30
0.0
 11
299.95432267599932
 21
638.3093330628999
 31
0.0
  0
LINE
  8
DETAIL
  6
CONTINUOUS
 62
     5
 10
299.95432267599932
 20
638.3093330628999
 30
0.0
 11
299.93772996639927
 21
638.16919281429978
 31
0.0
  0
LINE
  8
DETAIL
  6
CONTINUOUS
 62
     5
 10
299.93772996639927
 20
638.16919281429978
 30
0.0
 11
299.91849999529938
 21
638.02575268709984
 31
0.0
  0
LINE
  8
DETAIL
  6
CONTINUOUS
 62
     5
 10
299.91849999529938
 20
638.02575268709984
 30
0.0
 11
299.8965946965991
 21
637.87930729339951
 31
0.0
  0
LINE
  8
DETAIL
  6
CONTINUOUS
 62
     5
 10
299.8965946965991
 20
637.87930729339951
 30
0.0
 11
299.87197456969898
 21
637.73018874569971
 31
0.0
  0
LINE
  8
DETAIL
  6
CONTINUOUS
 62
     5
 10
299.87197456969898
 20
637.73018874569971
 30
0.0
 11
299.84460084429878
 21
637.57869234100008
 31
0.0
  0
LINE
  8
DETAIL
  6
CONTINUOUS
 62
     5
 10
299.84460084429878
 20
637.57869234100008
 30
0.0
 11
299.81443326319908
 21
637.42525654159977
 31
0.0
  0
LINE
  8
DETAIL
  6
CONTINUOUS
 62
     5
 10
299.81443326319908
 20
637.42525654159977
 30
0.0
 11
299.78144851369922
 21
637.27032122489982
 31
0.0
  0
LINE
  8
DETAIL
  6
CONTINUOUS
 62
     5
 10
299.78144851369922
 20
637.27032122489982
 30
0.0
 11
299.74555699279932
 21
637.1142225015999
 31
0.0
  0
LINE
  8
DETAIL
  6
CONTINUOUS
 62
     5
 10
299.74555699279932
 20
637.1142225015999
 30
0.0
 11
299.70664915509923
 21
636.95732068149994
 31
0.0
  0
LINE
  8
DETAIL
  6
CONTINUOUS
 62
     5
 10
299.70664915509923
 20
636.95732068149994
 30
0.0
 11
299.66476151589882
 21
636.80000000000007
 31
0.0
  0
LINE
  8
DETAIL
  6
CONTINUOUS
 62
     5
 10
299.99999999999909
 20
-639.06274169980043
 30
0.0
 11
299.99873562189907
 21
-639.17091249860027
 31
0.0
  0
LINE
  8
DETAIL
  6
CONTINUOUS
 62
     5
 10
299.99873562189907
 20
-639.17091249860027
 30
0.0
 11
299.99493916399928
 21
-639.27337939149993
 31
0.0
  0
LINE
  8
DETAIL
  6
CONTINUOUS
 62
     5
 10
299.99493916399928
 20
-639.27337939149993
 30
0.0
 11
299.98861749259908
 21
-639.36988453660013
 31
0.0
  0
LINE
  8
DETAIL
  6
CONTINUOUS
 62
     5
 10
299.98861749259908
 20
-639.36988453660013
 30
0.0
 11
299.97975000899908
 21
-639.46023545719993
 31
0.0
  0
LINE
  8
DETAIL
  6
CONTINUOUS
 62
     5
 10
299.97975000899908
 20
-639.46023545719993
 30
0.0
 11
299.96832593779891
 21
-639.54425849320012
 31
0.0
  0
LINE
  8
DETAIL
  6
CONTINUOUS
 62
     5
 10
299.96832593779891
 20
-639.54425849320012
 30
0.0
 11
299.95432267599932
 21
-639.62168632300018
 31
0.0
  0
LINE
  8
DETAIL
  6
CONTINUOUS
 62
     5
 10
299.95432267599932
 20
-639.62168632300018
 30
0.0
 11
299.93772996639927
 21
-639.6922847433998
 31
0.0
  0
LINE
  8
DETAIL
  6
CONTINUOUS
 62
     5
 10
299.93772996639927
 20
-639.6922847433998
 30
0.0
 11
299.91849999529938
 21
-639.75593138450029
 31
0.0
  0
LINE
  8
DETAIL
  6
CONTINUOUS
 62
     5
 10
299.91849999529938
 20
-639.75593138450029
 30
0.0
 11
299.8965946965991
 21
-639.81248996120019
 31
0.0
  0
LINE
  8
DETAIL
  6
CONTINUOUS
 62
     5
 10
299.8965946965991
 20
-639.81248996120019
 30
0.0
 11
299.87197456969898
 21
-639.86182117330009
 31
0.0
  0
LINE
  8
DETAIL
  6
CONTINUOUS
 62
     5
 10
299.87197456969898
 20
-639.86182117330009
 30
0.0
 11
299.84460084429878
 21
-639.90381027740011
 31
0.0
  0
LINE
  8
DETAIL
  6
CONTINUOUS
 62
     5
 10
299.84460084429878
 20
-639.90381027740011
 30
0.0
 11
299.81443326319908
 21
-639.93832029230043
 31
0.0
  0
LINE
  8
DETAIL
  6
CONTINUOUS
 62
     5
 10
299.81443326319908
 20
-639.93832029230043
 30
0.0
 11
299.78144851369922
 21
-639.96524848080026
 31
0.0
  0
LINE
  8
DETAIL
  6
CONTINUOUS
 62
     5
 10
299.78144851369922
 20
-639.96524848080026
 30
0.0
 11
299.74555699279932
 21
-639.98453516530003
 31
0.0
  0
LINE
  8
DETAIL
  6
CONTINUOUS
 62
     5
 10
299.74555699279932
 20
-639.98453516530003
 30
0.0
 11
299.70664915509923
 21
-639.9961305047002
 31
0.0
  0
LINE
  8
DETAIL
  6
CONTINUOUS
 62
     5
 10
299.70664915509923
 20
-639.9961305047002
 30
0.0
 11
299.66476151589882
 21
-640.00000000000011
 31
0.0
  0
LINE
  8
DETAIL
  6
CONTINUOUS
 62
     5
 10
-638.23059209100086
 20
-632.64566692709968
 30
0.0
 11
-638.23927925190083
 21
-632.6488330497998
 31
0.0
  0
LINE
  8
DETAIL
  6
CONTINUOUS
 62
     5
 10
-638.23927925190083
 20
-632.6488330497998
 30
0.0
 11
-638.2760407782007
 21
-632.66666168889969
 31
0.0
  0
LINE
  8
DETAIL
  6
CONTINUOUS
 62
     5
 10
-638.2760407782007
 20
-632.66666168889969
 30
0.0
 11
-638.30827953980099
 21
-632.68738545359997
 31
0.0
  0
LINE
  8
DETAIL
  6
CONTINUOUS
 62
     5
 10
-638.30827953980099
 20
-632.68738545359997
 30
0.0
 11
-638.33588568530047
 21
-632.71106791499972
 31
0.0
  0
LINE
  8
DETAIL
  6
CONTINUOUS
 62
     5
 10
-638.33588568530047
 20
-632.71106791499972
 30
0.0
 11
-638.35871321860077
 21
-632.73777227050027
 31
0.0
  0
LINE
  8
DETAIL
  6
CONTINUOUS
 62
     5
 10
-638.35871321860077
 20
-632.73777227050027
 30
0.0
 11
-638.37663804630085
 21
-632.7675436641
 31
0.0
  0
LINE
  8
DETAIL
  6
CONTINUOUS
 62
     5
 10
-638.37663804630085
 20
-632.7675436641
 30
0.0
 11
-638.38955824380082
 21
-632.80049982620017
 31
0.0
  0
LINE
  8
DETAIL
  6
CONTINUOUS
 62
     5
 10
-638.38955824380082
 20
-632.80049982620017
 30
0.0
 11
-638.39737655760098
 21
-632.83679013269989
 31
0.0
  0
LINE
  8
DETAIL
  6
CONTINUOUS
 62
     5
 10
-638.39737655760098
 20
-632.83679013269989
 30
0.0
 11
-638.40000000000111
 21
-632.87636479150001
 31
0.0
  0
LINE
  8
DETAIL
  6
CONTINUOUS
 62
     5
 10
638.3999999999993
 20
299.66476151589961
 30
0.0
 11
639.9999999999992
 21
299.66476151589961
 31
0.0
  0
LINE
  8
DETAIL
  6
CONTINUOUS
 62
     5
 10
-638.40000000000111
 20
299.66476151590001
 30
0.0
 11
-640.00000000000091
 21
299.66476151590001
 31
0.0
  0
LINE
  8
DETAIL
  6
CONTINUOUS
 62
     5
 10
638.3999999999993
 20
290.33523848419992
 30
0.0
 11
639.9999999999992
 21
290.33523848419992
 31
0.0
  0
LINE
  8
DETAIL
  6
CONTINUOUS
 62
     5
 10
-638.40000000000111
 20
290.33523848419992
 30
0.0
 11
-640.00000000000091
 21
290.33523848419992
 31
0.0
  0
LINE
  8
DETAIL
  6
CONTINUOUS
 62
     5
 10
639.06274169979918
 20
289.99999999999977
 30
0.0
 11
638.94917996189906
 21
290.0012640742998
 31
0.0
  0
LINE
  8
DETAIL
  6
CONTINUOUS
 62
     5
 10
638.94917996189906
 20
290.0012640742998
 30
0.0
 11
638.83043375959926
 21
290.00506113419988
 31
0.0
  0
LINE
  8
DETAIL
  6
CONTINUOUS
 62
     5
 10
638.83043375959926
 20
290.00506113419988
 30
0.0
 11
638.70672966909922
 21
290.01139079260008
 31
0.0
  0
LINE
  8
DETAIL
  6
CONTINUOUS
 62
     5
 10
638.70672966909922
 20
290.01139079260008
 30
0.0
 11
638.57842627429909
 21
290.02026388479982
 31
0.0
  0
LINE
  8
DETAIL
  6
CONTINUOUS
 62
     5
 10
638.57842627429909
 20
290.02026388479982
 30
0.0
 11
638.44591243149898
 21
290.03167811999992
 31
0.0
  0
LINE
  8
DETAIL
  6
CONTINUOUS
 62
     5
 10
638.44591243149898
 20
290.03167811999992
 30
0.0
 11
638.3094232627991
 21
290.04567248839982
 31
0.0
  0
LINE
  8
DETAIL
  6
CONTINUOUS
 62
     5
 10
638.3094232627991
 20
290.04567248839982
 30
0.0
 11
638.1691924743991
 21
290.0622752778998
 31
0.0
  0
LINE
  8
DETAIL
  6
CONTINUOUS
 62
     5
 10
638.1691924743991
 20
290.0622752778998
 30
0.0
 11
638.0256402470992
 21
290.08151630359981
 31
0.0
  0
LINE
  8
DETAIL
  6
CONTINUOUS
 62
     5
 10
638.0256402470992
 20
290.08151630359981
 30
0.0
 11
637.87921229719905
 21
290.10341742880001
 31
0.0
  0
LINE
  8
DETAIL
  6
CONTINUOUS
 62
     5
 10
637.87921229719905
 20
290.10341742880001
 30
0.0
 11
637.73013957239937
 21
290.12803079629998
 31
0.0
  0
LINE
  8
DETAIL
  6
CONTINUOUS
 62
     5
 10
637.73013957239937
 20
290.12803079629998
 30
0.0
 11
637.57864672539927
 21
290.15540450859982
 31
0.0
  0
LINE
  8
DETAIL
  6
CONTINUOUS
 62
     5
 10
637.57864672539927
 20
290.15540450859982
 30
0.0
 11
637.42521162909918
 21
290.18557255079992
 31
0.0
  0
LINE
  8
DETAIL
  6
CONTINUOUS
 62
     5
 10
637.42521162909918
 20
290.18557255079992
 30
0.0
 11
637.27029864509916
 21
290.21855367619969
 31
0.0
  0
LINE
  8
DETAIL
  6
CONTINUOUS
 62
     5
 10
637.27029864509916
 20
290.21855367619969
 30
0.0
 11
637.11422200639936
 21
290.25444168249987
 31
0.0
  0
LINE
  8
DETAIL
  6
CONTINUOUS
 62
     5
 10
637.11422200639936
 20
290.25444168249987
 30
0.0
 11
636.9573260261991
 21
290.2933491245999
 31
0.0
  0
LINE
  8
DETAIL
  6
CONTINUOUS
 62
     5
 10
636.9573260261991
 20
290.2933491245999
 30
0.0
 11
636.79999999999927
 21
290.33523848419992
 31
0.0
  0
LINE
  8
DETAIL
  6
CONTINUOUS
 62
     5
 10
-639.06274169980099
 20
299.99999999999989
 30
0.0
 11
-638.94917996190088
 21
299.99873592580002
 31
0.0
  0
LINE
  8
DETAIL
  6
CONTINUOUS
 62
     5
 10
-638.94917996190088
 20
299.99873592580002
 30
0.0
 11
-638.83043375960051
 21
299.99493886589988
 31
0.0
  0
LINE
  8
DETAIL
  6
CONTINUOUS
 62
     5
 10
-638.83043375960051
 20
299.99493886589988
 30
0.0
 11
-638.7067296691007
 21
299.98860920739992
 31
0.0
  0
LINE
  8
DETAIL
  6
CONTINUOUS
 62
     5
 10
-638.7067296691007
 20
299.98860920739992
 30
0.0
 11
-638.57842627430091
 21
299.97973611529977
 31
0.0
  0
LINE
  8
DETAIL
  6
CONTINUOUS
 62
     5
 10
-638.57842627430091
 20
299.97973611529977
 30
0.0
 11
-638.4459124315008
 21
299.96832187999962
 31
0.0
  0
LINE
  8
DETAIL
  6
CONTINUOUS
 62
     5
 10
-638.4459124315008
 20
299.96832187999962
 30
0.0
 11
-638.30942326290108
 21
299.95432751170011
 31
0.0
  0
LINE
  8
DETAIL
  6
CONTINUOUS
 62
     5
 10
-638.30942326290108
 20
299.95432751170011
 30
0.0
 11
-638.16919247440092
 21
299.93772472209992
 31
0.0
  0
LINE
  8
DETAIL
  6
CONTINUOUS
 62
     5
 10
-638.16919247440092
 20
299.93772472209992
 30
0.0
 11
-638.02564024710091
 21
299.91848369639979
 31
0.0
  0
LINE
  8
DETAIL
  6
CONTINUOUS
 62
     5
 10
-638.02564024710091
 20
299.91848369639979
 30
0.0
 11
-637.87921229720087
 21
299.89658257130009
 31
0.0
  0
LINE
  8
DETAIL
  6
CONTINUOUS
 62
     5
 10
-637.87921229720087
 20
299.89658257130009
 30
0.0
 11
-637.73013957240084
 21
299.87196920370002
 31
0.0
  0
LINE
  8
DETAIL
  6
CONTINUOUS
 62
     5
 10
-637.73013957240084
 20
299.87196920370002
 30
0.0
 11
-637.57864672540109
 21
299.84459549149977
 31
0.0
  0
LINE
  8
DETAIL
  6
CONTINUOUS
 62
     5
 10
-637.57864672540109
 20
299.84459549149977
 30
0.0
 11
-637.425211629101
 21
299.81442744930001
 31
0.0
  0
LINE
  8
DETAIL
  6
CONTINUOUS
 62
     5
 10
-637.425211629101
 20
299.81442744930001
 30
0.0
 11
-637.27029864510098
 21
299.7814463238999
 31
0.0
  0
LINE
  8
DETAIL
  6
CONTINUOUS
 62
     5
 10
-637.27029864510098
 20
299.7814463238999
 30
0.0
 11
-637.11422200640118
 21
299.74555831759989
 31
0.0
  0
LINE
  8
DETAIL
  6
CONTINUOUS
 62
     5
 10
-637.11422200640118
 20
299.74555831759989
 30
0.0
 11
-636.95732602620092
 21
299.70665087549992
 31
0.0
  0
LINE
  8
DETAIL
  6
CONTINUOUS
 62
     5
 10
-636.95732602620092
 20
299.70665087549992
 30
0.0
 11
-636.80000000000052
 21
299.66476151590001
 31
0.0
  0
LINE
  8
DETAIL
  6
CONTINUOUS
 62
     5
 10
639.06274169979918
 20
299.99999999999977
 30
0.0
 11
639.1708701969992
 21
299.99873592579979
 31
0.0
  0
LINE
  8
DETAIL
  6
CONTINUOUS
 62
     5
 10
639.1708701969992
 20
299.99873592579979
 30
0.0
 11
639.27332544319927
 21
299.99493886589988
 31
0.0
  0
LINE
  8
DETAIL
  6
CONTINUOUS
 62
     5
 10
639.27332544319927
 20
299.99493886589988
 30
0.0
 11
639.36989921379927
 21
299.9886092073998
 31
0.0
  0
LINE
  8
DETAIL
  6
CONTINUOUS
 62
     5
 10
639.36989921379927
 20
299.9886092073998
 30
0.0
 11
639.46030073239956
 21
299.97973611529977
 31
0.0
  0
LINE
  8
DETAIL
  6
CONTINUOUS
 62
     5
 10
639.46030073239956
 20
299.97973611529977
 30
0.0
 11
639.54426169809904
 21
299.96832187999962
 31
0.0
  0
LINE
  8
DETAIL
  6
CONTINUOUS
 62
     5
 10
639.54426169809904
 20
299.96832187999962
 30
0.0
 11
639.62163807269917
 21
299.95432751169977
 31
0.0
  0
LINE
  8
DETAIL
  6
CONTINUOUS
 62
     5
 10
639.62163807269917
 20
299.95432751169977
 30
0.0
 11
639.69228490439946
 21
299.93772472209992
 31
0.0
  0
LINE
  8
DETAIL
  6
CONTINUOUS
 62
     5
 10
639.69228490439946
 20
299.93772472209992
 30
0.0
 11
639.75597800819924
 21
299.91848369639979
 31
0.0
  0
LINE
  8
DETAIL
  6
CONTINUOUS
 62
     5
 10
639.75597800819924
 20
299.91848369639979
 30
0.0
 11
639.8125239944992
 21
299.89658257129992
 31
0.0
  0
LINE
  8
DETAIL
  6
CONTINUOUS
 62
     5
 10
639.8125239944992
 20
299.89658257129992
 30
0.0
 11
639.86183611179922
 21
299.87196920369968
 31
0.0
  0
LINE
  8
DETAIL
  6
CONTINUOUS
 62
     5
 10
639.86183611179922
 20
299.87196920369968
 30
0.0
 11
639.90382172119917
 21
299.84459549149977
 31
0.0
  0
LINE
  8
DETAIL
  6
CONTINUOUS
 62
     5
 10
639.90382172119917
 20
299.84459549149977
 30
0.0
 11
639.93832923999935
 21
299.81442744930001
 31
0.0
  0
LINE
  8
DETAIL
  6
CONTINUOUS
 62
     5
 10
639.93832923999935
 20
299.81442744930001
 30
0.0
 11
639.96525183579945
 21
299.7814463238999
 31
0.0
  0
LINE
  8
DETAIL
  6
CONTINUOUS
 62
     5
 10
639.96525183579945
 20
299.7814463238999
 30
0.0
 11
639.98453521419924
 21
299.74555831759989
 31
0.0
  0
LINE
  8
DETAIL
  6
CONTINUOUS
 62
     5
 10
639.98453521419924
 20
299.74555831759989
 30
0.0
 11
639.99613024159908
 21
299.70665087549992
 31
0.0
  0
LINE
  8
DETAIL
  6
CONTINUOUS
 62
     5
 10
639.99613024159908
 20
299.70665087549992
 30
0.0
 11
639.9999999999992
 21
299.66476151589961
 31
0.0
  0
LINE
  8
DETAIL
  6
CONTINUOUS
 62
     5
 10
-639.06274169980099
 20
289.99999999999989
 30
0.0
 11
-639.17087019710073
 21
290.00126407430002
 31
0.0
  0
LINE
  8
DETAIL
  6
CONTINUOUS
 62
     5
 10
-639.17087019710073
 20
290.00126407430002
 30
0.0
 11
-639.27332544320109
 21
290.00506113420022
 31
0.0
  0
LINE
  8
DETAIL
  6
CONTINUOUS
 62
     5
 10
-639.27332544320109
 20
290.00506113420022
 30
0.0
 11
-639.36989921380109
 21
290.01139079260008
 31
0.0
  0
LINE
  8
DETAIL
  6
CONTINUOUS
 62
     5
 10
-639.36989921380109
 20
290.01139079260008
 30
0.0
 11
-639.46030073240081
 21
290.02026388479999
 31
0.0
  0
LINE
  8
DETAIL
  6
CONTINUOUS
 62
     5
 10
-639.46030073240081
 20
290.02026388479999
 30
0.0
 11
-639.54426169810085
 21
290.03167812000021
 31
0.0
  0
LINE
  8
DETAIL
  6
CONTINUOUS
 62
     5
 10
-639.54426169810085
 20
290.03167812000021
 30
0.0
 11
-639.62163807270053
 21
290.04567248839999
 31
0.0
  0
LINE
  8
DETAIL
  6
CONTINUOUS
 62
     5
 10
-639.62163807270053
 20
290.04567248839999
 30
0.0
 11
-639.69228490440082
 21
290.06227527789991
 31
0.0
  0
LINE
  8
DETAIL
  6
CONTINUOUS
 62
     5
 10
-639.69228490440082
 20
290.06227527789991
 30
0.0
 11
-639.75597800820105
 21
290.08151630359981
 31
0.0
  0
LINE
  8
DETAIL
  6
CONTINUOUS
 62
     5
 10
-639.75597800820105
 20
290.08151630359981
 30
0.0
 11
-639.81252399450102
 21
290.10341742880001
 31
0.0
  0
LINE
  8
DETAIL
  6
CONTINUOUS
 62
     5
 10
-639.81252399450102
 20
290.10341742880001
 30
0.0
 11
-639.86183611190052
 21
290.12803079629998
 31
0.0
  0
LINE
  8
DETAIL
  6
CONTINUOUS
 62
     5
 10
-639.86183611190052
 20
290.12803079629998
 30
0.0
 11
-639.90382172120098
 21
290.15540450859982
 31
0.0
  0
LINE
  8
DETAIL
  6
CONTINUOUS
 62
     5
 10
-639.90382172120098
 20
290.15540450859982
 30
0.0
 11
-639.93832924000071
 21
290.18557255079998
 31
0.0
  0
LINE
  8
DETAIL
  6
CONTINUOUS
 62
     5
 10
-639.93832924000071
 20
290.18557255079998
 30
0.0
 11
-639.96525183590074
 21
290.21855367619992
 31
0.0
  0
LINE
  8
DETAIL
  6
CONTINUOUS
 62
     5
 10
-639.96525183590074
 20
290.21855367619992
 30
0.0
 11
-639.98453521420106
 21
290.2544416825001
 31
0.0
  0
LINE
  8
DETAIL
  6
CONTINUOUS
 62
     5
 10
-639.98453521420106
 20
290.2544416825001
 30
0.0
 11
-639.99613024160089
 21
290.29334912460013
 31
0.0
  0
LINE
  8
DETAIL
  6
CONTINUOUS
 62
     5
 10
-639.99613024160089
 20
290.29334912460013
 30
0.0
 11
-640.00000000000091
 21
290.33523848419992
 31
0.0
  0
LINE
  8
DETAIL
  6
CONTINUOUS
 62
     5
 10
289.99999999999909
 20
639.06274169979952
 30
0.0
 11
290.00126437809922
 21
639.17091249869986
 31
0.0
  0
LINE
  8
DETAIL
  6
CONTINUOUS
 62
     5
 10
290.00126437809922
 20
639.17091249869986
 30
0.0
 11
290.00506083599919
 21
639.2733793914997
 31
0.0
  0
LINE
  8
DETAIL
  6
CONTINUOUS
 62
     5
 10
290.00506083599919
 20
639.2733793914997
 30
0.0
 11
290.01138250739939
 21
639.36988453659978
 31
0.0
  0
LINE
  8
DETAIL
  6
CONTINUOUS
 62
     5
 10
290.01138250739939
 20
639.36988453659978
 30
0.0
 11
290.02024999099922
 21
639.46023545729997
 31
0.0
  0
LINE
  8
DETAIL
  6
CONTINUOUS
 62
     5
 10
290.02024999099922
 20
639.46023545729997
 30
0.0
 11
290.03167406209923
 21
639.54425849329994
 31
0.0
  0
LINE
  8
DETAIL
  6
CONTINUOUS
 62
     5
 10
290.03167406209923
 20
639.54425849329994
 30
0.0
 11
290.04567732399931
 21
639.62168632299995
 31
0.0
  0
LINE
  8
DETAIL
  6
CONTINUOUS
 62
     5
 10
290.04567732399931
 20
639.62168632299995
 30
0.0
 11
290.06227003359891
 21
639.69228474350007
 31
0.0
  0
LINE
  8
DETAIL
  6
CONTINUOUS
 62
     5
 10
290.06227003359891
 20
639.69228474350007
 30
0.0
 11
290.08150000469908
 21
639.75593138459976
 31
0.0
  0
LINE
  8
DETAIL
  6
CONTINUOUS
 62
     5
 10
290.08150000469908
 20
639.75593138459976
 30
0.0
 11
290.10340530329881
 21
639.81248996119996
 31
0.0
  0
LINE
  8
DETAIL
  6
CONTINUOUS
 62
     5
 10
290.10340530329881
 20
639.81248996119996
 30
0.0
 11
290.12802543019922
 21
639.8618211733999
 31
0.0
  0
LINE
  8
DETAIL
  6
CONTINUOUS
 62
     5
 10
290.12802543019922
 20
639.8618211733999
 30
0.0
 11
290.15539915569917
 21
639.90381027739977
 31
0.0
  0
LINE
  8
DETAIL
  6
CONTINUOUS
 62
     5
 10
290.15539915569917
 20
639.90381027739977
 30
0.0
 11
290.18556673669912
 21
639.93832029239979
 31
0.0
  0
LINE
  8
DETAIL
  6
CONTINUOUS
 62
     5
 10
290.18556673669912
 20
639.93832029239979
 30
0.0
 11
290.21855148629948
 21
639.96524848089985
 31
0.0
  0
LINE
  8
DETAIL
  6
CONTINUOUS
 62
     5
 10
290.21855148629948
 20
639.96524848089985
 30
0.0
 11
290.25444300719931
 21
639.98453516539985
 31
0.0
  0
LINE
  8
DETAIL
  6
CONTINUOUS
 62
     5
 10
290.25444300719931
 20
639.98453516539985
 30
0.0
 11
290.29335084479908
 21
639.99613050469975
 31
0.0
  0
LINE
  8
DETAIL
  6
CONTINUOUS
 62
     5
 10
290.29335084479908
 20
639.99613050469975
 30
0.0
 11
290.33523848409902
 21
639.99999999999977
 31
0.0
  0
LINE
  8
DETAIL
  6
CONTINUOUS
 62
     5
 10
73.582051330099603
 20
127.38752641949991
 30
0.0
 11
74.33078473939895
 21
127.2710559828998
 31
0.0
  0
LINE
  8
DETAIL
  6
CONTINUOUS
 62
     5
 10
74.33078473939895
 20
127.2710559828998
 30
0.0
 11
75.072538011799224
 21
127.1686139039998
 31
0.0
  0
LINE
  8
DETAIL
  6
CONTINUOUS
 62
     5
 10
75.072538011799224
 20
127.1686139039998
 30
0.0
 11
75.806451100299427
 21
127.0797188963999
 31
0.0
  0
LINE
  8
DETAIL
  6
CONTINUOUS
 62
     5
 10
75.806451100299427
 20
127.0797188963999
 30
0.0
 11
76.533798250999098
 21
127.00366291889991
 31
0.0
  0
LINE
  8
DETAIL
  6
CONTINUOUS
 62
     5
 10
76.533798250999098
 20
127.00366291889991
 30
0.0
 11
77.255125582499204
 21
126.9399080780998
 31
0.0
  0
LINE
  8
DETAIL
  6
CONTINUOUS
 62
     5
 10
77.255125582499204
 20
126.9399080780998
 30
0.0
 11
77.971948449398951
 21
126.88788591869979
 31
0.0
  0
LINE
  8
DETAIL
  6
CONTINUOUS
 62
     5
 10
77.971948449398951
 20
126.88788591869979
 30
0.0
 11
78.685815854599241
 21
126.8471531053999
 31
0.0
  0
LINE
  8
DETAIL
  6
CONTINUOUS
 62
     5
 10
78.685815854599241
 20
126.8471531053999
 30
0.0
 11
79.397318992799228
 21
126.81737715029981
 31
0.0
  0
LINE
  8
DETAIL
  6
CONTINUOUS
 62
     5
 10
79.397318992799228
 20
126.81737715029981
 30
0.0
 11
80.106995975798782
 21
126.79828791199979
 31
0.0
  0
LINE
  8
DETAIL
  6
CONTINUOUS
 62
     5
 10
74.169605090798996
 20
127.0396999315999
 30
0.0
 11
72.993968715099072
 21
127.2620753654999
 31
0.0
  0
LINE
  8
DETAIL
  6
CONTINUOUS
 62
     5
 10
72.993968715099072
 20
127.2620753654999
 30
0.0
 11
71.826355783199233
 21
127.5162638233999
 31
0.0
  0
LINE
  8
DETAIL
  6
CONTINUOUS
 62
     5
 10
71.826355783199233
 20
127.5162638233999
 30
0.0
 11
70.66645376409906
 21
127.80234098999981
 31
0.0
  0
LINE
  8
DETAIL
  6
CONTINUOUS
 62
     5
 10
70.66645376409906
 20
127.80234098999981
 30
0.0
 11
69.515200250899397
 21
128.12007981109991
 31
0.0
  0
LINE
  8
DETAIL
  6
CONTINUOUS
 62
     5
 10
69.515200250899397
 20
128.12007981109991
 30
0.0
 11
68.372878983298961
 21
128.46946690849981
 31
0.0
  0
LINE
  8
DETAIL
  6
CONTINUOUS
 62
     5
 10
68.372878983298961
 20
128.46946690849981
 30
0.0
 11
67.241138990299078
 21
128.84993693919981
 31
0.0
  0
LINE
  8
DETAIL
  6
CONTINUOUS
 62
     5
 10
67.241138990299078
 20
128.84993693919981
 30
0.0
 11
66.121309187099087
 21
129.2611380213998
 31
0.0
  0
LINE
  8
DETAIL
  6
CONTINUOUS
 62
     5
 10
66.121309187099087
 20
129.2611380213998
 30
0.0
 11
65.01463365509926
 21
129.70241639299979
 31
0.0
  0
LINE
  8
DETAIL
  6
CONTINUOUS
 62
     5
 10
65.01463365509926
 20
129.70241639299979
 30
0.0
 11
63.923010328999233
 21
130.1729046158998
 31
0.0
  0
LINE
  8
DETAIL
  6
CONTINUOUS
 62
     5
 10
63.923010328999233
 20
130.1729046158998
 30
0.0
 11
62.845806563998849
 21
130.6728918361998
 31
0.0
  0
LINE
  8
DETAIL
  6
CONTINUOUS
 62
     5
 10
42.393897184799243
 20
138.66418961469981
 30
0.0
 11
41.324776670899148
 21
138.9884018933999
 31
0.0
  0
LINE
  8
DETAIL
  6
CONTINUOUS
 62
     5
 10
41.324776670899148
 20
138.9884018933999
 30
0.0
 11
40.26127147339912
 21
139.30571425999969
 31
0.0
  0
LINE
  8
DETAIL
  6
CONTINUOUS
 62
     5
 10
40.26127147339912
 20
139.30571425999969
 30
0.0
 11
39.204306338398958
 21
139.61603089669981
 31
0.0
  0
LINE
  8
DETAIL
  6
CONTINUOUS
 62
     5
 10
39.204306338398958
 20
139.61603089669981
 30
0.0
 11
38.151079083098921
 21
139.92034510009981
 31
0.0
  0
LINE
  8
DETAIL
  6
CONTINUOUS
 62
     5
 10
38.151079083098921
 20
139.92034510009981
 30
0.0
 11
37.102146837999037
 21
140.2186552848998
 31
0.0
  0
LINE
  8
DETAIL
  6
CONTINUOUS
 62
     5
 10
37.102146837999037
 20
140.2186552848998
 30
0.0
 11
36.048712331399663
 21
140.51357347289991
 31
0.0
  0
LINE
  8
DETAIL
  6
CONTINUOUS
 62
     5
 10
62.849792702599188
 20
130.68157814080001
 30
0.0
 11
63.382969791098731
 21
130.43690358119991
 31
0.0
  0
LINE
  8
DETAIL
  6
CONTINUOUS
 62
     5
 10
63.382969791098731
 20
130.43690358119991
 30
0.0
 11
64.472886913499224
 21
129.97320409539989
 31
0.0
  0
LINE
  8
DETAIL
  6
CONTINUOUS
 62
     5
 10
64.472886913499224
 20
129.97320409539989
 30
0.0
 11
65.577122208099354
 21
129.53942491049969
 31
0.0
  0
LINE
  8
DETAIL
  6
CONTINUOUS
 62
     5
 10
65.577122208099354
 20
129.53942491049969
 30
0.0
 11
66.693685669899423
 21
129.13639449429979
 31
0.0
  0
LINE
  8
DETAIL
  6
CONTINUOUS
 62
     5
 10
66.693685669899423
 20
129.13639449429979
 30
0.0
 11
67.821264952499405
 21
128.76474595329989
 31
0.0
  0
LINE
  8
DETAIL
  6
CONTINUOUS
 62
     5
 10
67.821264952499405
 20
128.76474595329989
 30
0.0
 11
68.958490414999233
 21
128.42478921629981
 31
0.0
  0
LINE
  8
DETAIL
  6
CONTINUOUS
 62
     5
 10
68.958490414999233
 20
128.42478921629981
 30
0.0
 11
70.10367526419941
 21
128.11705052839989
 31
0.0
  0
LINE
  8
DETAIL
  6
CONTINUOUS
 62
     5
 10
70.10367526419941
 20
128.11705052839989
 30
0.0
 11
71.256458610298978
 21
127.8415140468999
 31
0.0
  0
LINE
  8
DETAIL
  6
CONTINUOUS
 62
     5
 10
71.256458610298978
 20
127.8415140468999
 30
0.0
 11
72.415801904699038
 21
127.5983592904997
 31
0.0
  0
LINE
  8
DETAIL
  6
CONTINUOUS
 62
     5
 10
72.415801904699038
 20
127.5983592904997
 30
0.0
 11
73.582051330099603
 21
127.38752641949991
 31
0.0
  0
LINE
  8
DETAIL
  6
CONTINUOUS
 62
     5
 10
74.169605090798996
 20
127.0396999315999
 30
0.0
 11
74.606115909999062
 21
126.3643660076998
 31
0.0
  0
LINE
  8
DETAIL
  6
CONTINUOUS
 62
     5
 10
79.818273316099294
 20
-121.1555295790001
 30
0.0
 11
80.771540541299146
 21
-120.4453999512002
 31
0.0
  0
LINE
  8
DETAIL
  6
CONTINUOUS
 62
     5
 10
80.771540541299146
 20
-120.4453999512002
 30
0.0
 11
81.743145496198849
 21
-119.7625074051001
 31
0.0
  0
LINE
  8
DETAIL
  6
CONTINUOUS
 62
     5
 10
118.82096239869909
 20
-85.670449937300177
 30
0.0
 11
119.82535513689891
 21
-84.591416014400124
 31
0.0
  0
LINE
  8
DETAIL
  6
CONTINUOUS
 62
     5
 10
119.82535513689891
 20
-84.591416014400124
 30
0.0
 11
120.8769577075991
 21
-83.464947344000151
 31
0.0
  0
LINE
  8
DETAIL
  6
CONTINUOUS
 62
     5
 10
636.79999999999927
 20
299.66476151589961
 30
0.0
 11
636.9573260261991
 21
299.70665087549992
 31
0.0
  0
LINE
  8
DETAIL
  6
CONTINUOUS
 62
     5
 10
636.9573260261991
 20
299.70665087549992
 30
0.0
 11
637.11422200639936
 21
299.74555831759989
 31
0.0
  0
LINE
  8
DETAIL
  6
CONTINUOUS
 62
     5
 10
637.11422200639936
 20
299.74555831759989
 30
0.0
 11
637.27029864509916
 21
299.7814463238999
 31
0.0
  0
LINE
  8
DETAIL
  6
CONTINUOUS
 62
     5
 10
637.27029864509916
 20
299.7814463238999
 30
0.0
 11
637.42521162909918
 21
299.81442744930001
 31
0.0
  0
LINE
  8
DETAIL
  6
CONTINUOUS
 62
     5
 10
637.42521162909918
 20
299.81442744930001
 30
0.0
 11
637.57864672539927
 21
299.84459549149977
 31
0.0
  0
LINE
  8
DETAIL
  6
CONTINUOUS
 62
     5
 10
637.57864672539927
 20
299.84459549149977
 30
0.0
 11
637.73013957239937
 21
299.87196920369968
 31
0.0
  0
LINE
  8
DETAIL
  6
CONTINUOUS
 62
     5
 10
637.73013957239937
 20
299.87196920369968
 30
0.0
 11
637.87921229719905
 21
299.89658257129992
 31
0.0
  0
LINE
  8
DETAIL
  6
CONTINUOUS
 62
     5
 10
637.87921229719905
 20
299.89658257129992
 30
0.0
 11
638.0256402470992
 21
299.91848369639979
 31
0.0
  0
LINE
  8
DETAIL
  6
CONTINUOUS
 62
     5
 10
638.0256402470992
 20
299.91848369639979
 30
0.0
 11
638.1691924743991
 21
299.93772472209992
 31
0.0
  0
LINE
  8
DETAIL
  6
CONTINUOUS
 62
     5
 10
638.1691924743991
 20
299.93772472209992
 30
0.0
 11
638.3094232627991
 21
299.95432751169977
 31
0.0
  0
LINE
  8
DETAIL
  6
CONTINUOUS
 62
     5
 10
638.3094232627991
 20
299.95432751169977
 30
0.0
 11
638.44591243149898
 21
299.96832187999962
 31
0.0
  0
LINE
  8
DETAIL
  6
CONTINUOUS
 62
     5
 10
638.44591243149898
 20
299.96832187999962
 30
0.0
 11
638.57842627429909
 21
299.97973611529977
 31
0.0
  0
LINE
  8
DETAIL
  6
CONTINUOUS
 62
     5
 10
638.57842627429909
 20
299.97973611529977
 30
0.0
 11
638.70672966909922
 21
299.9886092073998
 31
0.0
  0
LINE
  8
DETAIL
  6
CONTINUOUS
 62
     5
 10
638.70672966909922
 20
299.9886092073998
 30
0.0
 11
638.83043375959926
 21
299.99493886589988
 31
0.0
  0
LINE
  8
DETAIL
  6
CONTINUOUS
 62
     5
 10
638.83043375959926
 20
299.99493886589988
 30
0.0
 11
638.94917996189906
 21
299.99873592579979
 31
0.0
  0
LINE
  8
DETAIL
  6
CONTINUOUS
 62
     5
 10
638.94917996189906
 20
299.99873592579979
 30
0.0
 11
639.06274169979918
 21
299.99999999999977
 31
0.0
  0
LINE
  8
DETAIL
  6
CONTINUOUS
 62
     5
 10
75.537127346199213
 20
126.8257213381999
 30
0.0
 11
74.85878045409936
 21
126.9267991995998
 31
0.0
  0
LINE
  8
DETAIL
  6
CONTINUOUS
 62
     5
 10
74.85878045409936
 20
126.9267991995998
 30
0.0
 11
74.169605090798996
 21
127.0396999315999
 31
0.0
  0
LINE
  8
DETAIL
  6
CONTINUOUS
 62
     5
 10
299.66476151589882
 20
-636.8000000000003
 30
0.0
 11
299.70664915509923
 21
-636.95732068140012
 31
0.0
  0
LINE
  8
DETAIL
  6
CONTINUOUS
 62
     5
 10
299.70664915509923
 20
-636.95732068140012
 30
0.0
 11
299.74555699279932
 21
-637.11422250150054
 31
0.0
  0
LINE
  8
DETAIL
  6
CONTINUOUS
 62
     5
 10
299.74555699279932
 20
-637.11422250150054
 30
0.0
 11
299.78144851369922
 21
-637.2703212248
 31
0.0
  0
LINE
  8
DETAIL
  6
CONTINUOUS
 62
     5
 10
299.78144851369922
 20
-637.2703212248
 30
0.0
 11
299.81443326319908
 21
-637.42525654150018
 31
0.0
  0
LINE
  8
DETAIL
  6
CONTINUOUS
 62
     5
 10
299.81443326319908
 20
-637.42525654150018
 30
0.0
 11
299.84460084429878
 21
-637.57869234090003
 31
0.0
  0
LINE
  8
DETAIL
  6
CONTINUOUS
 62
     5
 10
299.84460084429878
 20
-637.57869234090003
 30
0.0
 11
299.87197456969898
 21
-637.73018874560012
 31
0.0
  0
LINE
  8
DETAIL
  6
CONTINUOUS
 62
     5
 10
299.87197456969898
 20
-637.73018874560012
 30
0.0
 11
299.8965946965991
 21
-637.87930729340007
 31
0.0
  0
LINE
  8
DETAIL
  6
CONTINUOUS
 62
     5
 10
299.8965946965991
 20
-637.87930729340007
 30
0.0
 11
299.91849999529938
 21
-638.02575268700002
 31
0.0
  0
LINE
  8
DETAIL
  6
CONTINUOUS
 62
     5
 10
299.91849999529938
 20
-638.02575268700002
 30
0.0
 11
299.93772996639927
 21
-638.16919281430012
 31
0.0
  0
LINE
  8
DETAIL
  6
CONTINUOUS
 62
     5
 10
299.93772996639927
 20
-638.16919281430012
 30
0.0
 11
299.95432267599932
 21
-638.30933306280031
 31
0.0
  0
LINE
  8
DETAIL
  6
CONTINUOUS
 62
     5
 10
299.95432267599932
 20
-638.30933306280031
 30
0.0
 11
299.96832593779891
 21
-638.44591777500011
 31
0.0
  0
LINE
  8
DETAIL
  6
CONTINUOUS
 62
     5
 10
299.96832593779891
 20
-638.44591777500011
 30
0.0
 11
299.97975000899908
 21
-638.57852391380004
 31
0.0
  0
LINE
  8
DETAIL
  6
CONTINUOUS
 62
     5
 10
299.97975000899908
 20
-638.57852391380004
 30
0.0
 11
299.98861749259908
 21
-638.70674945090013
 31
0.0
  0
LINE
  8
DETAIL
  6
CONTINUOUS
 62
     5
 10
299.98861749259908
 20
-638.70674945090013
 30
0.0
 11
299.99493916399928
 21
-638.8303680419001
 31
0.0
  0
LINE
  8
DETAIL
  6
CONTINUOUS
 62
     5
 10
299.99493916399928
 20
-638.8303680419001
 30
0.0
 11
299.99873562189907
 21
-638.94913329590008
 31
0.0
  0
LINE
  8
DETAIL
  6
CONTINUOUS
 62
     5
 10
299.99873562189907
 20
-638.94913329590008
 30
0.0
 11
299.99999999999909
 21
-639.06274169980043
 31
0.0
  0
LINE
  8
DETAIL
  6
CONTINUOUS
 62
     5
 10
98.88976220909899
 20
-106.0462867348002
 30
0.0
 11
99.705096041999241
 21
-105.2825096959002
 31
0.0
  0
LINE
  8
DETAIL
  6
CONTINUOUS
 62
     5
 10
99.705096041999241
 20
-105.2825096959002
 30
0.0
 11
100.511646770799
 21
-104.5201456990002
 31
0.0
  0
LINE
  8
DETAIL
  6
CONTINUOUS
 62
     5
 10
100.511646770799
 20
-104.5201456990002
 30
0.0
 11
101.3088690548993
 21
-103.7599476739001
 31
0.0
  0
LINE
  8
DETAIL
  6
CONTINUOUS
 62
     5
 10
101.3088690548993
 20
-103.7599476739001
 30
0.0
 11
102.09902416079881
 21
-102.9999855488002
 31
0.0
  0
LINE
  8
DETAIL
  6
CONTINUOUS
 62
     5
 10
102.09902416079881
 20
-102.9999855488002
 30
0.0
 11
102.8818321202989
 21
-102.2407410473002
 31
0.0
  0
LINE
  8
DETAIL
  6
CONTINUOUS
 62
     5
 10
102.8818321202989
 20
-102.2407410473002
 30
0.0
 11
103.66395362409909
 21
-101.4759015421001
 31
0.0
  0
LINE
  8
DETAIL
  6
CONTINUOUS
 62
     5
 10
103.66395362409909
 20
-101.4759015421001
 30
0.0
 11
104.4530861637995
 21
-100.6979309754001
 31
0.0
  0
LINE
  8
DETAIL
  6
CONTINUOUS
 62
     5
 10
104.4530861637995
 20
-100.6979309754001
 30
0.0
 11
105.24435590479931
 21
-99.911611954700106
 31
0.0
  0
LINE
  8
DETAIL
  6
CONTINUOUS
 62
     5
 10
105.24435590479931
 20
-99.911611954700106
 30
0.0
 11
106.0351827792993
 21
-99.119596500900229
 31
0.0
  0
LINE
  8
DETAIL
  6
CONTINUOUS
 62
     5
 10
106.0351827792993
 20
-99.119596500900229
 30
0.0
 11
106.82696890179891
 21
-98.320605540900146
 31
0.0
  0
LINE
  8
DETAIL
  6
CONTINUOUS
 62
     5
 10
106.82696890179891
 20
-98.320605540900146
 30
0.0
 11
107.6203641017992
 21
-97.514110675700167
 31
0.0
  0
LINE
  8
DETAIL
  6
CONTINUOUS
 62
     5
 10
107.6203641017992
 20
-97.514110675700167
 30
0.0
 11
108.41499437459881
 21
-96.700644979200078
 31
0.0
  0
LINE
  8
DETAIL
  6
CONTINUOUS
 62
     5
 10
108.41499437459881
 20
-96.700644979200078
 30
0.0
 11
109.20765492839929
 21
-95.883710424000114
 31
0.0
  0
LINE
  8
DETAIL
  6
CONTINUOUS
 62
     5
 10
109.20765492839929
 20
-95.883710424000114
 30
0.0
 11
110.00762566889939
 21
-95.053935908600124
 31
0.0
  0
LINE
  8
DETAIL
  6
CONTINUOUS
 62
     5
 10
110.00762566889939
 20
-95.053935908600124
 30
0.0
 11
110.8241639025991
 21
-94.201775601800136
 31
0.0
  0
LINE
  8
DETAIL
  6
CONTINUOUS
 62
     5
 10
110.8241639025991
 20
-94.201775601800136
 30
0.0
 11
111.6523440976989
 21
-93.332448696300162
 31
0.0
  0
LINE
  8
DETAIL
  6
CONTINUOUS
 62
     5
 10
111.6523440976989
 20
-93.332448696300162
 30
0.0
 11
112.48797097999891
 21
-92.450592682700176
 31
0.0
  0
LINE
  8
DETAIL
  6
CONTINUOUS
 62
     5
 10
112.48797097999891
 20
-92.450592682700176
 30
0.0
 11
113.3386906273991
 21
-91.548423864000171
 31
0.0
  0
LINE
  8
DETAIL
  6
CONTINUOUS
 62
     5
 10
113.3386906273991
 20
-91.548423864000171
 30
0.0
 11
114.21244073919929
 21
-90.617794221200157
 31
0.0
  0
LINE
  8
DETAIL
  6
CONTINUOUS
 62
     5
 10
114.21244073919929
 20
-90.617794221200157
 30
0.0
 11
115.1029565578992
 21
-89.665767151800196
 31
0.0
  0
LINE
  8
DETAIL
  6
CONTINUOUS
 62
     5
 10
115.1029565578992
 20
-89.665767151800196
 30
0.0
 11
116.00554409419971
 21
-88.69796223600008
 31
0.0
  0
LINE
  8
DETAIL
  6
CONTINUOUS
 62
     5
 10
116.00554409419971
 20
-88.69796223600008
 30
0.0
 11
116.9246439692988
 21
-87.71037286800015
 31
0.0
  0
LINE
  8
DETAIL
  6
CONTINUOUS
 62
     5
 10
116.9246439692988
 20
-87.71037286800015
 30
0.0
 11
118.82096239869909
 21
-85.670449937300177
 31
0.0
  0
LINE
  8
DETAIL
  6
CONTINUOUS
 62
     5
 10
81.748674796199339
 20
-119.7703023931002
 30
0.0
 11
81.270203848799156
 21
-120.10970117010019
 31
0.0
  0
LINE
  8
DETAIL
  6
CONTINUOUS
 62
     5
 10
81.270203848799156
 20
-120.10970117010019
 30
0.0
 11
80.323681194999153
 21
-120.8217375932002
 31
0.0
  0
LINE
  8
DETAIL
  6
CONTINUOUS
 62
     5
 10
80.323681194999153
 20
-120.8217375932002
 30
0.0
 11
79.395911165899179
 21
-121.56113326810021
 31
0.0
  0
LINE
  8
DETAIL
  6
CONTINUOUS
 62
     5
 10
-147.71529519660089
 20
-26.83342117020004
 30
0.0
 11
-147.78792425660089
 21
-26.852642622200051
 31
0.0
  0
LINE
  8
DETAIL
  6
CONTINUOUS
 62
     5
 10
-147.78792425660089
 20
-26.852642622200051
 30
0.0
 11
-147.9610975087007
 21
-26.908817585299971
 31
0.0
  0
LINE
  8
DETAIL
  6
CONTINUOUS
 62
     5
 10
-147.9610975087007
 20
-26.908817585299971
 30
0.0
 11
-148.133412282401
 21
-26.979426339900101
 31
0.0
  0
LINE
  8
DETAIL
  6
CONTINUOUS
 62
     5
 10
-148.133412282401
 20
-26.979426339900101
 30
0.0
 11
-148.3032166457005
 21
-27.064140446100051
 31
0.0
  0
LINE
  8
DETAIL
  6
CONTINUOUS
 62
     5
 10
-148.3032166457005
 20
-27.064140446100051
 30
0.0
 11
-148.46884863060089
 21
-27.162603687000111
 31
0.0
  0
LINE
  8
DETAIL
  6
CONTINUOUS
 62
     5
 10
-148.46884863060089
 20
-27.162603687000111
 30
0.0
 11
-148.6288614158006
 21
-27.27457896470003
 31
0.0
  0
LINE
  8
DETAIL
  6
CONTINUOUS
 62
     5
 10
-148.6288614158006
 20
-27.27457896470003
 30
0.0
 11
-148.7819867024009
 21
-27.400025593500001
 31
0.0
  0
LINE
  8
DETAIL
  6
CONTINUOUS
 62
     5
 10
-148.7819867024009
 20
-27.400025593500001
 30
0.0
 11
-148.92611750610061
 21
-27.538183783300038
 31
0.0
  0
LINE
  8
DETAIL
  6
CONTINUOUS
 62
     5
 10
-148.92611750610061
 20
-27.538183783300038
 30
0.0
 11
-149.0594675491011
 21
-27.68828757990013
 31
0.0
  0
LINE
  8
DETAIL
  6
CONTINUOUS
 62
     5
 10
-149.0594675491011
 20
-27.68828757990013
 30
0.0
 11
-149.1805247953007
 21
-27.849604299000021
 31
0.0
  0
LINE
  8
DETAIL
  6
CONTINUOUS
 62
     5
 10
-149.1805247953007
 20
-27.849604299000021
 30
0.0
 11
-149.2879558747008
 21
-28.02094173230012
 31
0.0
  0
LINE
  8
DETAIL
  6
CONTINUOUS
 62
     5
 10
-149.2879558747008
 20
-28.02094173230012
 30
0.0
 11
-149.38099250650069
 21
-28.200411717300089
 31
0.0
  0
LINE
  8
DETAIL
  6
CONTINUOUS
 62
     5
 10
-149.38099250650069
 20
-28.200411717300089
 30
0.0
 11
-149.45891969140121
 21
-28.385706632099978
 31
0.0
  0
LINE
  8
DETAIL
  6
CONTINUOUS
 62
     5
 10
-149.45891969140121
 20
-28.385706632099978
 30
0.0
 11
-149.52154930940119
 21
-28.57561169810003
 31
0.0
  0
LINE
  8
DETAIL
  6
CONTINUOUS
 62
     5
 10
-149.52154930940119
 20
-28.57561169810003
 30
0.0
 11
-149.56853403810049
 21
-28.768757952000101
 31
0.0
  0
LINE
  8
DETAIL
  6
CONTINUOUS
 62
     5
 10
-149.56853403810049
 20
-28.768757952000101
 30
0.0
 11
-149.59974590930051
 21
-28.964123842300062
 31
0.0
  0
LINE
  8
DETAIL
  6
CONTINUOUS
 62
     5
 10
-149.59974590930051
 20
-28.964123842300062
 30
0.0
 11
-149.61543004640089
 21
-29.160632274500131
 31
0.0
  0
LINE
  8
DETAIL
  6
CONTINUOUS
 62
     5
 10
-149.61543004640089
 20
-29.160632274500131
 30
0.0
 11
-149.6157821677007
 21
-29.357205089500091
 31
0.0
  0
LINE
  8
DETAIL
  6
CONTINUOUS
 62
     5
 10
-149.6157821677007
 20
-29.357205089500091
 30
0.0
 11
-149.60087921520059
 21
-29.552864905799989
 31
0.0
  0
LINE
  8
DETAIL
  6
CONTINUOUS
 62
     5
 10
-149.60087921520059
 20
-29.552864905799989
 30
0.0
 11
-149.57069318820081
 21
-29.746534377900041
 31
0.0
  0
LINE
  8
DETAIL
  6
CONTINUOUS
 62
     5
 10
-149.57069318820081
 20
-29.746534377900041
 30
0.0
 11
-149.5252112697008
 21
-29.937195173800092
 31
0.0
  0
LINE
  8
DETAIL
  6
CONTINUOUS
 62
     5
 10
-149.5252112697008
 20
-29.937195173800092
 30
0.0
 11
-149.4648201583004
 21
-30.123900712300038
 31
0.0
  0
LINE
  8
DETAIL
  6
CONTINUOUS
 62
     5
 10
-149.4648201583004
 20
-30.123900712300038
 30
0.0
 11
-149.38996134770059
 21
-30.30566536750008
 31
0.0
  0
LINE
  8
DETAIL
  6
CONTINUOUS
 62
     5
 10
-149.38996134770059
 20
-30.30566536750008
 30
0.0
 11
-149.3009444246008
 21
-30.48155253840002
 31
0.0
  0
LINE
  8
DETAIL
  6
CONTINUOUS
 62
     5
 10
-149.3009444246008
 20
-30.48155253840002
 30
0.0
 11
-149.19800837910091
 21
-30.650490553700021
 31
0.0
  0
LINE
  8
DETAIL
  6
CONTINUOUS
 62
     5
 10
-149.19800837910091
 20
-30.650490553700021
 30
0.0
 11
-149.0813371440008
 21
-30.811383491699981
 31
0.0
  0
LINE
  8
DETAIL
  6
CONTINUOUS
 62
     5
 10
-149.0813371440008
 20
-30.811383491699981
 30
0.0
 11
-148.9514302230009
 21
-30.9633231506001
 31
0.0
  0
LINE
  8
DETAIL
  6
CONTINUOUS
 62
     5
 10
-148.9514302230009
 20
-30.9633231506001
 30
0.0
 11
-148.80913299570059
 21
-31.105189525800021
 31
0.0
  0
LINE
  8
DETAIL
  6
CONTINUOUS
 62
     5
 10
-148.80913299570059
 20
-31.105189525800021
 30
0.0
 11
-148.65509274360059
 21
-31.235939518700089
 31
0.0
  0
LINE
  8
DETAIL
  6
CONTINUOUS
 62
     5
 10
-148.65509274360059
 20
-31.235939518700089
 30
0.0
 11
-148.4908302592012
 21
-31.353741649700051
 31
0.0
  0
LINE
  8
DETAIL
  6
CONTINUOUS
 62
     5
 10
-148.4908302592012
 20
-31.353741649700051
 30
0.0
 11
-148.3177629057009
 21
-31.45713338749999
 31
0.0
  0
LINE
  8
DETAIL
  6
CONTINUOUS
 62
     5
 10
-148.3177629057009
 20
-31.45713338749999
 30
0.0
 11
-148.13755759350079
 21
-31.545489460400059
 31
0.0
  0
LINE
  8
DETAIL
  6
CONTINUOUS
 62
     5
 10
-148.13755759350079
 20
-31.545489460400059
 30
0.0
 11
-147.95186168000049
 21
-31.61871281599997
 31
0.0
  0
LINE
  8
DETAIL
  6
CONTINUOUS
 62
     5
 10
-147.95186168000049
 20
-31.61871281599997
 30
0.0
 11
-147.7626069454009
 21
-31.676768352000071
 31
0.0
  0
LINE
  8
DETAIL
  6
CONTINUOUS
 62
     5
 10
-147.7626069454009
 20
-31.676768352000071
 30
0.0
 11
-147.5720167898007
 21
-31.719748592600009
 31
0.0
  0
LINE
  8
DETAIL
  6
CONTINUOUS
 62
     5
 10
-147.5720167898007
 20
-31.719748592600009
 30
0.0
 11
-147.38126781910071
 21
-31.748091756300031
 31
0.0
  0
LINE
  8
DETAIL
  6
CONTINUOUS
 62
     5
 10
-147.38126781910071
 20
-31.748091756300031
 30
0.0
 11
-147.1917840535007
 21
-31.762119928100109
 31
0.0
  0
LINE
  8
DETAIL
  6
CONTINUOUS
 62
     5
 10
-147.1917840535007
 20
-31.762119928100109
 30
0.0
 11
-147.00521736060091
 21
-31.76212564970001
 31
0.0
  0
LINE
  8
DETAIL
  6
CONTINUOUS
 62
     5
 10
-147.00521736060091
 20
-31.76212564970001
 30
0.0
 11
-146.82320182280091
 21
-31.748417163600038
 31
0.0
  0
LINE
  8
DETAIL
  6
CONTINUOUS
 62
     5
 10
-146.82320182280091
 20
-31.748417163600038
 30
0.0
 11
-146.73984358650071
 21
-31.737347572200061
 31
0.0
  0
LINE
  8
DETAIL
  6
CONTINUOUS
 62
     5
 10
-146.45784781730069
 20
-27.603172674100051
 30
0.0
 11
-146.55055222350069
 21
-27.626609647900061
 31
0.0
  0
LINE
  8
DETAIL
  6
CONTINUOUS
 62
     5
 10
-146.55055222350069
 20
-27.626609647900061
 30
0.0
 11
-146.64554416380091
 21
-27.657381069200031
 31
0.0
  0
LINE
  8
DETAIL
  6
CONTINUOUS
 62
     5
 10
-146.64554416380091
 20
-27.657381069200031
 30
0.0
 11
-146.74171778360051
 21
-27.695971849500101
 31
0.0
  0
LINE
  8
DETAIL
  6
CONTINUOUS
 62
     5
 10
-146.74171778360051
 20
-27.695971849500101
 30
0.0
 11
-146.83952975470081
 21
-27.743548483000041
 31
0.0
  0
LINE
  8
DETAIL
  6
CONTINUOUS
 62
     5
 10
-146.83952975470081
 20
-27.743548483000041
 30
0.0
 11
-146.9394114018005
 21
-27.801736592800019
 31
0.0
  0
LINE
  8
DETAIL
  6
CONTINUOUS
 62
     5
 10
-146.9394114018005
 20
-27.801736592800019
 30
0.0
 11
-147.03875500970119
 21
-27.870566983999989
 31
0.0
  0
LINE
  8
DETAIL
  6
CONTINUOUS
 62
     5
 10
-147.03875500970119
 20
-27.870566983999989
 30
0.0
 11
-147.13565953790109
 21
-27.950089764900099
 31
0.0
  0
LINE
  8
DETAIL
  6
CONTINUOUS
 62
     5
 10
-147.13565953790109
 20
-27.950089764900099
 30
0.0
 11
-147.22833800150059
 21
-28.040152012100069
 31
0.0
  0
LINE
  8
DETAIL
  6
CONTINUOUS
 62
     5
 10
-147.22833800150059
 20
-28.040152012100069
 30
0.0
 11
-147.3152166813006
 21
-28.140585503000011
 31
0.0
  0
LINE
  8
DETAIL
  6
CONTINUOUS
 62
     5
 10
-147.3152166813006
 20
-28.140585503000011
 30
0.0
 11
-147.39388550330071
 21
-28.24983527180007
 31
0.0
  0
LINE
  8
DETAIL
  6
CONTINUOUS
 62
     5
 10
-147.39388550330071
 20
-28.24983527180007
 30
0.0
 11
-147.4623811683006
 21
-28.365881991800059
 31
0.0
  0
LINE
  8
DETAIL
  6
CONTINUOUS
 62
     5
 10
-147.4623811683006
 20
-28.365881991800059
 30
0.0
 11
-147.52010673320089
 21
-28.48772336260004
 31
0.0
  0
LINE
  8
DETAIL
  6
CONTINUOUS
 62
     5
 10
-147.52010673320089
 20
-28.48772336260004
 30
0.0
 11
-147.56641525560099
 21
-28.613583499400079
 31
0.0
  0
LINE
  8
DETAIL
  6
CONTINUOUS
 62
     5
 10
-147.56641525560099
 20
-28.613583499400079
 30
0.0
 11
-147.60127640220071
 21
-28.742947600900042
 31
0.0
  0
LINE
  8
DETAIL
  6
CONTINUOUS
 62
     5
 10
-147.60127640220071
 20
-28.742947600900042
 30
0.0
 11
-147.624504289101
 21
-28.875412114400088
 31
0.0
  0
LINE
  8
DETAIL
  6
CONTINUOUS
 62
     5
 10
-147.624504289101
 20
-28.875412114400088
 30
0.0
 11
-147.6357522368007
 21
-29.00887018230004
 31
0.0
  0
LINE
  8
DETAIL
  6
CONTINUOUS
 62
     5
 10
-147.6357522368007
 20
-29.00887018230004
 30
0.0
 11
-147.63515101530081
 21
-29.141757072400079
 31
0.0
  0
LINE
  8
DETAIL
  6
CONTINUOUS
 62
     5
 10
-147.63515101530081
 20
-29.141757072400079
 30
0.0
 11
-147.62311141580079
 21
-29.272017072500031
 31
0.0
  0
LINE
  8
DETAIL
  6
CONTINUOUS
 62
     5
 10
-147.62311141580079
 20
-29.272017072500031
 30
0.0
 11
-147.6003742213006
 21
-29.397917875200061
 31
0.0
  0
LINE
  8
DETAIL
  6
CONTINUOUS
 62
     5
 10
-147.6003742213006
 20
-29.397917875200061
 30
0.0
 11
-147.56815468900081
 21
-29.517546156500089
 31
0.0
  0
LINE
  8
DETAIL
  6
CONTINUOUS
 62
     5
 10
-147.56815468900081
 20
-29.517546156500089
 30
0.0
 11
-147.5282884024009
 21
-29.62891753950009
 31
0.0
  0
LINE
  8
DETAIL
  6
CONTINUOUS
 62
     5
 10
-147.5282884024009
 20
-29.62891753950009
 30
0.0
 11
-147.48219206290099
 21
-29.73200167010009
 31
0.0
  0
LINE
  8
DETAIL
  6
CONTINUOUS
 62
     5
 10
-147.48219206290099
 20
-29.73200167010009
 30
0.0
 11
-147.4313875018006
 21
-29.826421487600101
 31
0.0
  0
LINE
  8
DETAIL
  6
CONTINUOUS
 62
     5
 10
-147.4313875018006
 20
-29.826421487600101
 30
0.0
 11
-147.37715805010069
 21
-29.912291148100049
 31
0.0
  0
LINE
  8
DETAIL
  6
CONTINUOUS
 62
     5
 10
-147.37715805010069
 20
-29.912291148100049
 30
0.0
 11
-147.3208482520013
 21
-29.98965421570005
 31
0.0
  0
LINE
  8
DETAIL
  6
CONTINUOUS
 62
     5
 10
-147.3208482520013
 20
-29.98965421570005
 30
0.0
 11
-147.26338505000061
 21
-30.059120962400129
 31
0.0
  0
LINE
  8
DETAIL
  6
CONTINUOUS
 62
     5
 10
-147.26338505000061
 20
-30.059120962400129
 30
0.0
 11
-147.20575211150069
 21
-30.121068386800061
 31
0.0
  0
LINE
  8
DETAIL
  6
CONTINUOUS
 62
     5
 10
-147.20575211150069
 20
-30.121068386800061
 30
0.0
 11
-147.1482132567007
 21
-30.17647830340001
 31
0.0
  0
LINE
  8
DETAIL
  6
CONTINUOUS
 62
     5
 10
-147.1482132567007
 20
-30.17647830340001
 30
0.0
 11
-147.09101007180109
 21
-30.226087559100051
 31
0.0
  0
LINE
  8
DETAIL
  6
CONTINUOUS
 62
     5
 10
-147.09101007180109
 20
-30.226087559100051
 30
0.0
 11
-147.03408506890079
 21
-30.270687915500051
 31
0.0
  0
LINE
  8
DETAIL
  6
CONTINUOUS
 62
     5
 10
-147.03408506890079
 20
-30.270687915500051
 30
0.0
 11
-146.97722400120071
 21
-30.31098700370001
 31
0.0
  0
LINE
  8
DETAIL
  6
CONTINUOUS
 62
     5
 10
-146.97722400120071
 20
-30.31098700370001
 30
0.0
 11
-146.920306417901
 21
-30.34748703690002
 31
0.0
  0
LINE
  8
DETAIL
  6
CONTINUOUS
 62
     5
 10
-146.920306417901
 20
-30.34748703690002
 30
0.0
 11
-146.86309246340079
 21
-30.380660315400061
 31
0.0
  0
LINE
  8
DETAIL
  6
CONTINUOUS
 62
     5
 10
-146.86309246340079
 20
-30.380660315400061
 30
0.0
 11
-146.80525922710061
 21
-30.410896630100069
 31
0.0
  0
LINE
  8
DETAIL
  6
CONTINUOUS
 62
     5
 10
-146.80525922710061
 20
-30.410896630100069
 30
0.0
 11
-146.74619887460079
 21
-30.43859533400008
 31
0.0
  0
LINE
  8
DETAIL
  6
CONTINUOUS
 62
     5
 10
-146.74619887460079
 20
-30.43859533400008
 30
0.0
 11
-146.6861021355007
 21
-30.463686389400099
 31
0.0
  0
LINE
  8
DETAIL
  6
CONTINUOUS
 62
     5
 10
-146.6861021355007
 20
-30.463686389400099
 30
0.0
 11
-146.62486119430099
 21
-30.486218435299971
 31
0.0
  0
LINE
  8
DETAIL
  6
CONTINUOUS
 62
     5
 10
-146.62486119430099
 20
-30.486218435299971
 30
0.0
 11
-146.5626717222008
 21
-30.506109067400079
 31
0.0
  0
LINE
  8
DETAIL
  6
CONTINUOUS
 62
     5
 10
-146.5626717222008
 20
-30.506109067400079
 30
0.0
 11
-146.4996761995007
 21
-30.523307390900069
 31
0.0
  0
LINE
  8
DETAIL
  6
CONTINUOUS
 62
     5
 10
-146.4996761995007
 20
-30.523307390900069
 30
0.0
 11
-146.43592278910091
 21
-30.537789714000041
 31
0.0
  0
LINE
  8
DETAIL
  6
CONTINUOUS
 62
     5
 10
-146.43592278910091
 20
-30.537789714000041
 30
0.0
 11
-146.37152978540101
 21
-30.549512278200041
 31
0.0
  0
LINE
  8
DETAIL
  6
CONTINUOUS
 62
     5
 10
-146.37152978540101
 20
-30.549512278200041
 30
0.0
 11
-146.30640886900071
 21
-30.558459407200079
 31
0.0
  0
LINE
  8
DETAIL
  6
CONTINUOUS
 62
     5
 10
-146.30640886900071
 20
-30.558459407200079
 30
0.0
 11
-146.24089545780089
 21
-30.564553350999969
 31
0.0
  0
LINE
  8
DETAIL
  6
CONTINUOUS
 62
     5
 10
-146.24089545780089
 20
-30.564553350999969
 30
0.0
 11
-146.17379869240079
 21
-30.5678000109001
 31
0.0
  0
LINE
  8
DETAIL
  6
CONTINUOUS
 62
     5
 10
-146.17379869240079
 20
-30.5678000109001
 30
0.0
 11
-146.1042775907008
 21
-30.56797934890005
 31
0.0
  0
LINE
  8
DETAIL
  6
CONTINUOUS
 62
     5
 10
-146.1042775907008
 20
-30.56797934890005
 30
0.0
 11
-146.03148109760059
 21
-30.564686747200081
 31
0.0
  0
LINE
  8
DETAIL
  6
CONTINUOUS
 62
     5
 10
-146.03148109760059
 20
-30.564686747200081
 30
0.0
 11
-145.9541012241007
 21
-30.55725172669997
 31
0.0
  0
LINE
  8
DETAIL
  6
CONTINUOUS
 62
     5
 10
-145.9541012241007
 20
-30.55725172669997
 30
0.0
 11
-145.87268483720069
 21
-30.544985633500001
 31
0.0
  0
LINE
  8
DETAIL
  6
CONTINUOUS
 62
     5
 10
-142.71617077890099
 20
-25.598718218700011
 30
0.0
 11
-147.71529519660089
 21
-26.83342117020004
 31
0.0
  0
LINE
  8
DETAIL
  6
CONTINUOUS
 62
     5
 10
-142.509312174001
 20
-26.738595471300069
 30
0.0
 11
-146.45784781730069
 21
-27.603172674100051
 31
0.0
  0
LINE
  8
DETAIL
  6
CONTINUOUS
 62
     5
 10
-149.9540346585008
 20
-7.3231425176001039
 30
0.0
 11
-150.02855126990059
 21
-7.3327195327000254
 31
0.0
  0
LINE
  8
DETAIL
  6
CONTINUOUS
 62
     5
 10
-150.02855126990059
 20
-7.3327195327000254
 30
0.0
 11
-150.20757530480111
 21
-7.3658102660000404
 31
0.0
  0
LINE
  8
DETAIL
  6
CONTINUOUS
 62
     5
 10
-150.20757530480111
 20
-7.3658102660000404
 30
0.0
 11
-150.38763219360041
 21
-7.4133233617000087
 31
0.0
  0
LINE
  8
DETAIL
  6
CONTINUOUS
 62
     5
 10
-150.38763219360041
 20
-7.4133233617000087
 30
0.0
 11
-150.5670412667009
 21
-7.4751488100000643
 31
0.0
  0
LINE
  8
DETAIL
  6
CONTINUOUS
 62
     5
 10
-150.5670412667009
 20
-7.4751488100000643
 30
0.0
 11
-150.744108278901
 21
-7.5511503720000519
 31
0.0
  0
LINE
  8
DETAIL
  6
CONTINUOUS
 62
     5
 10
-150.744108278901
 20
-7.5511503720000519
 30
0.0
 11
-150.91736783920081
 21
-7.6412818260999984
 31
0.0
  0
LINE
  8
DETAIL
  6
CONTINUOUS
 62
     5
 10
-150.91736783920081
 20
-7.6412818260999984
 30
0.0
 11
-151.08555718850079
 21
-7.7456683809999731
 31
0.0
  0
LINE
  8
DETAIL
  6
CONTINUOUS
 62
     5
 10
-151.08555718850079
 20
-7.7456683809999731
 30
0.0
 11
-151.2464881957012
 21
-7.863831763300027
 31
0.0
  0
LINE
  8
DETAIL
  6
CONTINUOUS
 62
     5
 10
-151.2464881957012
 20
-7.863831763300027
 30
0.0
 11
-151.39828988750119
 21
-7.9952457278000111
 31
0.0
  0
LINE
  8
DETAIL
  6
CONTINUOUS
 62
     5
 10
-151.39828988750119
 20
-7.9952457278000111
 30
0.0
 11
-151.53936752930079
 21
-8.1393812186000787
 31
0.0
  0
LINE
  8
DETAIL
  6
CONTINUOUS
 62
     5
 10
-151.53936752930079
 20
-8.1393812186000787
 30
0.0
 11
-151.6682435437005
 21
-8.2952302667000595
 31
0.0
  0
LINE
  8
DETAIL
  6
CONTINUOUS
 62
     5
 10
-151.6682435437005
 20
-8.2952302667000595
 30
0.0
 11
-151.78390976800071
 21
-8.4610211438000533
 31
0.0
  0
LINE
  8
DETAIL
  6
CONTINUOUS
 62
     5
 10
-151.78390976800071
 20
-8.4610211438000533
 30
0.0
 11
-151.8853561147007
 21
-8.6345592962001092
 31
0.0
  0
LINE
  8
DETAIL
  6
CONTINUOUS
 62
     5
 10
-151.8853561147007
 20
-8.6345592962001092
 30
0.0
 11
-151.9722375128008
 21
-8.8146648924999909
 31
0.0
  0
LINE
  8
DETAIL
  6
CONTINUOUS
 62
     5
 10
-151.9722375128008
 20
-8.8146648924999909
 30
0.0
 11
-152.04403092560099
 21
-9.000026015699973
 31
0.0
  0
LINE
  8
DETAIL
  6
CONTINUOUS
 62
     5
 10
-152.04403092560099
 20
-9.000026015699973
 30
0.0
 11
-152.1004761407012
 21
-9.1896465570000601
 31
0.0
  0
LINE
  8
DETAIL
  6
CONTINUOUS
 62
     5
 10
-152.1004761407012
 20
-9.1896465570000601
 30
0.0
 11
-152.1416755952005
 21
-9.382426641600091
 31
0.0
  0
LINE
  8
DETAIL
  6
CONTINUOUS
 62
     5
 10
-152.1416755952005
 20
-9.382426641600091
 30
0.0
 11
-152.1676826052007
 21
-9.5772717879000311
 31
0.0
  0
LINE
  8
DETAIL
  6
CONTINUOUS
 62
     5
 10
-152.1676826052007
 20
-9.5772717879000311
 30
0.0
 11
-152.1784458802008
 21
-9.7732029330001069
 31
0.0
  0
LINE
  8
DETAIL
  6
CONTINUOUS
 62
     5
 10
-152.1784458802008
 20
-9.7732029330001069
 30
0.0
 11
-152.17379703760071
 21
-9.9691556031000346
 31
0.0
  0
LINE
  8
DETAIL
  6
CONTINUOUS
 62
     5
 10
-152.17379703760071
 20
-9.9691556031000346
 30
0.0
 11
-152.15359045100101
 21
-10.164121851000001
 31
0.0
  0
LINE
  8
DETAIL
  6
CONTINUOUS
 62
     5
 10
-152.15359045100101
 20
-10.164121851000001
 30
0.0
 11
-152.11808595690081
 21
-10.35711271959997
 31
0.0
  0
LINE
  8
DETAIL
  6
CONTINUOUS
 62
     5
 10
-152.11808595690081
 20
-10.35711271959997
 30
0.0
 11
-152.06759262220109
 21
-10.5470933885
 31
0.0
  0
LINE
  8
DETAIL
  6
CONTINUOUS
 62
     5
 10
-152.06759262220109
 20
-10.5470933885
 30
0.0
 11
-152.0022951338004
 21
-10.733094860300071
 31
0.0
  0
LINE
  8
DETAIL
  6
CONTINUOUS
 62
     5
 10
-152.0022951338004
 20
-10.733094860300071
 30
0.0
 11
-151.92229055630099
 21
-10.91402343760001
 31
0.0
  0
LINE
  8
DETAIL
  6
CONTINUOUS
 62
     5
 10
-151.92229055630099
 20
-10.91402343760001
 30
0.0
 11
-151.827618202401
 21
-11.088768566200089
 31
0.0
  0
LINE
  8
DETAIL
  6
CONTINUOUS
 62
     5
 10
-151.827618202401
 20
-11.088768566200089
 30
0.0
 11
-151.7186547582009
 21
-11.25636461600004
 31
0.0
  0
LINE
  8
DETAIL
  6
CONTINUOUS
 62
     5
 10
-151.7186547582009
 20
-11.25636461600004
 30
0.0
 11
-151.5960921812007
 21
-11.41559082000003
 31
0.0
  0
LINE
  8
DETAIL
  6
CONTINUOUS
 62
     5
 10
-151.5960921812007
 20
-11.41559082000003
 30
0.0
 11
-151.46043606340069
 21
-11.56532851610007
 31
0.0
  0
LINE
  8
DETAIL
  6
CONTINUOUS
 62
     5
 10
-151.46043606340069
 20
-11.56532851610007
 30
0.0
 11
-151.31295513100119
 21
-11.70356339010004
 31
0.0
  0
LINE
  8
DETAIL
  6
CONTINUOUS
 62
     5
 10
-151.31295513100119
 20
-11.70356339010004
 30
0.0
 11
-151.15486372260099
 21
-11.82866041990007
 31
0.0
  0
LINE
  8
DETAIL
  6
CONTINUOUS
 62
     5
 10
-151.15486372260099
 20
-11.82866041990007
 30
0.0
 11
-150.98773287350099
 21
-11.939782107600079
 31
0.0
  0
LINE
  8
DETAIL
  6
CONTINUOUS
 62
     5
 10
-150.98773287350099
 20
-11.939782107600079
 30
0.0
 11
-150.81318318010111
 21
-12.036617207700029
 31
0.0
  0
LINE
  8
DETAIL
  6
CONTINUOUS
 62
     5
 10
-150.81318318010111
 20
-12.036617207700029
 30
0.0
 11
-150.6331253141006
 21
-12.11887877039999
 31
0.0
  0
LINE
  8
DETAIL
  6
CONTINUOUS
 62
     5
 10
-150.6331253141006
 20
-12.11887877039999
 30
0.0
 11
-150.44977573080089
 21
-12.18636831640003
 31
0.0
  0
LINE
  8
DETAIL
  6
CONTINUOUS
 62
     5
 10
-150.44977573080089
 20
-12.18636831640003
 30
0.0
 11
-150.2643581692009
 21
-12.23936673720004
 31
0.0
  0
LINE
  8
DETAIL
  6
CONTINUOUS
 62
     5
 10
-150.2643581692009
 20
-12.23936673720004
 30
0.0
 11
-150.07832650740059
 21
-12.2780074904
 31
0.0
  0
LINE
  8
DETAIL
  6
CONTINUOUS
 62
     5
 10
-150.07832650740059
 20
-12.2780074904
 30
0.0
 11
-149.89335666510121
 21
-12.30236500320007
 31
0.0
  0
LINE
  8
DETAIL
  6
CONTINUOUS
 62
     5
 10
-149.89335666510121
 20
-12.30236500320007
 30
0.0
 11
-149.7111089790005
 21
-12.31253159010009
 31
0.0
  0
LINE
  8
DETAIL
  6
CONTINUOUS
 62
     5
 10
-149.7111089790005
 20
-12.31253159010009
 30
0.0
 11
-149.6270190124005
 21
-12.312437133800129
 31
0.0
  0
LINE
  8
DETAIL
  6
CONTINUOUS
 62
     5
 10
-148.80781764870059
 20
-8.2504385089999914
 30
0.0
 11
-148.90279862580061
 21
-8.2615762021000592
 31
0.0
  0
LINE
  8
DETAIL
  6
CONTINUOUS
 62
     5
 10
-148.90279862580061
 20
-8.2615762021000592
 30
0.0
 11
-149.00100611830069
 21
-8.2796887404000472
 31
0.0
  0
LINE
  8
DETAIL
  6
CONTINUOUS
 62
     5
 10
-149.00100611830069
 20
-8.2796887404000472
 30
0.0
 11
-149.1014068932009
 21
-8.3054016101000343
 31
0.0
  0
LINE
  8
DETAIL
  6
CONTINUOUS
 62
     5
 10
-149.1014068932009
 20
-8.3054016101000343
 30
0.0
 11
-149.20460527790101
 21
-8.3398119772000427
 31
0.0
  0
LINE
  8
DETAIL
  6
CONTINUOUS
 62
     5
 10
-149.20460527790101
 20
-8.3398119772000427
 30
0.0
 11
-149.31124040010079
 21
-8.3844754740000553
 31
0.0
  0
LINE
  8
DETAIL
  6
CONTINUOUS
 62
     5
 10
-149.31124040010079
 20
-8.3844754740000553
 30
0.0
 11
-149.41873039720079
 21
-8.439763122600084
 31
0.0
  0
LINE
  8
DETAIL
  6
CONTINUOUS
 62
     5
 10
-149.41873039720079
 20
-8.439763122600084
 30
0.0
 11
-149.5251965731008
 21
-8.5059728124999765
 31
0.0
  0
LINE
  8
DETAIL
  6
CONTINUOUS
 62
     5
 10
-149.5251965731008
 20
-8.5059728124999765
 30
0.0
 11
-149.62884633760089
 21
-8.5831858446000524
 31
0.0
  0
LINE
  8
DETAIL
  6
CONTINUOUS
 62
     5
 10
-149.62884633760089
 20
-8.5831858446000524
 30
0.0
 11
-149.72809684910089
 21
-8.6714405646999921
 31
0.0
  0
LINE
  8
DETAIL
  6
CONTINUOUS
 62
     5
 10
-149.72809684910089
 20
-8.6714405646999921
 30
0.0
 11
-149.82035466400069
 21
-8.7695087984001248
 31
0.0
  0
LINE
  8
DETAIL
  6
CONTINUOUS
 62
     5
 10
-149.82035466400069
 20
-8.7695087984001248
 30
0.0
 11
-149.90340879130051
 21
-8.8756427634000374
 31
0.0
  0
LINE
  8
DETAIL
  6
CONTINUOUS
 62
     5
 10
-149.90340879130051
 20
-8.8756427634000374
 30
0.0
 11
-149.9765382738004
 21
-8.9889275899000722
 31
0.0
  0
LINE
  8
DETAIL
  6
CONTINUOUS
 62
     5
 10
-149.9765382738004
 20
-8.9889275899000722
 30
0.0
 11
-150.038870811301
 21
-9.1076883411000154
 31
0.0
  0
LINE
  8
DETAIL
  6
CONTINUOUS
 62
     5
 10
-150.038870811301
 20
-9.1076883411000154
 30
0.0
 11
-150.09030807440101
 21
-9.2314170034001108
 31
0.0
  0
LINE
  8
DETAIL
  6
CONTINUOUS
 62
     5
 10
-150.09030807440101
 20
-9.2314170034001108
 30
0.0
 11
-150.1306127568005
 21
-9.3597366978000309
 31
0.0
  0
LINE
  8
DETAIL
  6
CONTINUOUS
 62
     5
 10
-150.1306127568005
 20
-9.3597366978000309
 30
0.0
 11
-150.1591666181007
 21
-9.4906029724000973
 31
0.0
  0
LINE
  8
DETAIL
  6
CONTINUOUS
 62
     5
 10
-150.1591666181007
 20
-9.4906029724000973
 30
0.0
 11
-150.17589546090079
 21
-9.6224467020999782
 31
0.0
  0
LINE
  8
DETAIL
  6
CONTINUOUS
 62
     5
 10
-150.17589546090079
 20
-9.6224467020999782
 30
0.0
 11
-150.18093883530079
 21
-9.7531748537001022
 31
0.0
  0
LINE
  8
DETAIL
  6
CONTINUOUS
 62
     5
 10
-150.18093883530079
 20
-9.7531748537001022
 30
0.0
 11
-150.1748060685008
 21
-9.8809717320999653
 31
0.0
  0
LINE
  8
DETAIL
  6
CONTINUOUS
 62
     5
 10
-150.1748060685008
 20
-9.8809717320999653
 30
0.0
 11
-150.1584537779008
 21
-10.003782648700049
 31
0.0
  0
LINE
  8
DETAIL
  6
CONTINUOUS
 62
     5
 10
-150.1584537779008
 20
-10.003782648700049
 30
0.0
 11
-150.133444011401
 21
-10.119400904700001
 31
0.0
  0
LINE
  8
DETAIL
  6
CONTINUOUS
 62
     5
 10
-150.133444011401
 20
-10.119400904700001
 30
0.0
 11
-150.10117770340091
 21
-10.227612767499981
 31
0.0
  0
LINE
  8
DETAIL
  6
CONTINUOUS
 62
     5
 10
-150.10117770340091
 20
-10.227612767499981
 30
0.0
 11
-150.06311444210041
 21
-10.32784720720008
 31
0.0
  0
LINE
  8
DETAIL
  6
CONTINUOUS
 62
     5
 10
-150.06311444210041
 20
-10.32784720720008
 30
0.0
 11
-150.02054183310071
 21
-10.420049728499979
 31
0.0
  0
LINE
  8
DETAIL
  6
CONTINUOUS
 62
     5
 10
-150.02054183310071
 20
-10.420049728499979
 30
0.0
 11
-149.974799265201
 21
-10.504087901500039
 31
0.0
  0
LINE
  8
DETAIL
  6
CONTINUOUS
 62
     5
 10
-149.974799265201
 20
-10.504087901500039
 30
0.0
 11
-149.92688483030091
 21
-10.58044724889999
 31
0.0
  0
LINE
  8
DETAIL
  6
CONTINUOUS
 62
     5
 10
-149.92688483030091
 20
-10.58044724889999
 30
0.0
 11
-149.87782234640099
 21
-10.64937415880013
 31
0.0
  0
LINE
  8
DETAIL
  6
CONTINUOUS
 62
     5
 10
-149.87782234640099
 20
-10.64937415880013
 30
0.0
 11
-149.82800087930079
 21
-10.711808068000099
 31
0.0
  0
LINE
  8
DETAIL
  6
CONTINUOUS
 62
     5
 10
-149.82800087930079
 20
-10.711808068000099
 30
0.0
 11
-149.77775514320089
 21
-10.76844870380012
 31
0.0
  0
LINE
  8
DETAIL
  6
CONTINUOUS
 62
     5
 10
-149.77775514320089
 20
-10.76844870380012
 30
0.0
 11
-149.7271313990004
 21
-10.82008809870001
 31
0.0
  0
LINE
  8
DETAIL
  6
CONTINUOUS
 62
     5
 10
-149.7271313990004
 20
-10.82008809870001
 30
0.0
 11
-149.67600956190111
 21
-10.867455439600009
 31
0.0
  0
LINE
  8
DETAIL
  6
CONTINUOUS
 62
     5
 10
-149.67600956190111
 20
-10.867455439600009
 30
0.0
 11
-149.62433513200079
 21
-10.911064745500081
 31
0.0
  0
LINE
  8
DETAIL
  6
CONTINUOUS
 62
     5
 10
-149.62433513200079
 20
-10.911064745500081
 30
0.0
 11
-149.57193097480101
 21
-10.9514159094
 31
0.0
  0
LINE
  8
DETAIL
  6
CONTINUOUS
 62
     5
 10
-149.57193097480101
 20
-10.9514159094
 30
0.0
 11
-149.51852826790079
 21
-10.988936698600011
 31
0.0
  0
LINE
  8
DETAIL
  6
CONTINUOUS
 62
     5
 10
-149.51852826790079
 20
-10.988936698600011
 30
0.0
 11
-149.46357653310091
 21
-11.02410193770004
 31
0.0
  0
LINE
  8
DETAIL
  6
CONTINUOUS
 62
     5
 10
-149.46357653310091
 20
-11.02410193770004
 30
0.0
 11
-149.407256465101
 21
-11.056816677000031
 31
0.0
  0
LINE
  8
DETAIL
  6
CONTINUOUS
 62
     5
 10
-149.407256465101
 20
-11.056816677000031
 30
0.0
 11
-149.3494687177008
 21
-11.087142482600029
 31
0.0
  0
LINE
  8
DETAIL
  6
CONTINUOUS
 62
     5
 10
-149.3494687177008
 20
-11.087142482600029
 30
0.0
 11
-149.29039569410091
 21
-11.114972612700059
 31
0.0
  0
LINE
  8
DETAIL
  6
CONTINUOUS
 62
     5
 10
-149.29039569410091
 20
-11.114972612700059
 30
0.0
 11
-149.2301708476007
 21
-11.14023844220003
 31
0.0
  0
LINE
  8
DETAIL
  6
CONTINUOUS
 62
     5
 10
-149.2301708476007
 20
-11.14023844220003
 30
0.0
 11
-149.16884080030101
 21
-11.1629092961
 31
0.0
  0
LINE
  8
DETAIL
  6
CONTINUOUS
 62
     5
 10
-149.16884080030101
 20
-11.1629092961
 30
0.0
 11
-149.1065153998006
 21
-11.18292694450008
 31
0.0
  0
LINE
  8
DETAIL
  6
CONTINUOUS
 62
     5
 10
-149.1065153998006
 20
-11.18292694450008
 30
0.0
 11
-149.04311550540109
 21
-11.200284537300041
 31
0.0
  0
LINE
  8
DETAIL
  6
CONTINUOUS
 62
     5
 10
-149.04311550540109
 20
-11.200284537300041
 30
0.0
 11
-148.97897574470059
 21
-11.21486003990003
 31
0.0
  0
LINE
  8
DETAIL
  6
CONTINUOUS
 62
     5
 10
-148.97897574470059
 20
-11.21486003990003
 30
0.0
 11
-148.91291188480091
 21
-11.226818116900059
 31
0.0
  0
LINE
  8
DETAIL
  6
CONTINUOUS
 62
     5
 10
-148.91291188480091
 20
-11.226818116900059
 30
0.0
 11
-148.844064532901
 21
-11.236052324900131
 31
0.0
  0
LINE
  8
DETAIL
  6
CONTINUOUS
 62
     5
 10
-148.844064532901
 20
-11.236052324900131
 30
0.0
 11
-148.77152626610041
 21
-11.242276250200121
 31
0.0
  0
LINE
  8
DETAIL
  6
CONTINUOUS
 62
     5
 10
-148.77152626610041
 20
-11.242276250200121
 30
0.0
 11
-148.69390089440091
 21
-11.24499770910006
 31
0.0
  0
LINE
  8
DETAIL
  6
CONTINUOUS
 62
     5
 10
-148.69390089440091
 20
-11.24499770910006
 30
0.0
 11
-148.61164446280051
 21
-11.243462946399969
 31
0.0
  0
LINE
  8
DETAIL
  6
CONTINUOUS
 62
     5
 10
-145.1862361710009
 20
-6.7905826495000383
 30
0.0
 11
-149.9540346585008
 21
-7.3231425176001039
 31
0.0
  0
LINE
  8
DETAIL
  6
CONTINUOUS
 62
     5
 10
-144.9823883428007
 20
-7.9258024027001284
 30
0.0
 11
-148.80781764870059
 21
-8.2504385089999914
 31
0.0
  0
LINE
  8
DETAIL
  6
CONTINUOUS
 62
     5
 10
-638.23084981480099
 20
290.05497528439992
 30
0.0
 11
-638.23851141020077
 21
290.0583188958999
 31
0.0
  0
LINE
  8
DETAIL
  6
CONTINUOUS
 62
     5
 10
-638.23851141020077
 20
290.0583188958999
 30
0.0
 11
-638.27532918230099
 21
290.07971637539981
 31
0.0
  0
LINE
  8
DETAIL
  6
CONTINUOUS
 62
     5
 10
-638.27532918230099
 20
290.07971637539981
 30
0.0
 11
-638.30766547360054
 21
290.10466058650007
 31
0.0
  0
LINE
  8
DETAIL
  6
CONTINUOUS
 62
     5
 10
-638.30766547360054
 20
290.10466058650007
 30
0.0
 11
-638.33538036410084
 21
290.1332376124999
 31
0.0
  0
LINE
  8
DETAIL
  6
CONTINUOUS
 62
     5
 10
-638.33538036410084
 20
290.1332376124999
 30
0.0
 11
-638.35833425150076
 21
290.16557297119988
 31
0.0
  0
LINE
  8
DETAIL
  6
CONTINUOUS
 62
     5
 10
-638.35833425150076
 20
290.16557297119988
 30
0.0
 11
-638.37639493480083
 21
290.20175559929999
 31
0.0
  0
LINE
  8
DETAIL
  6
CONTINUOUS
 62
     5
 10
-638.37639493480083
 20
290.20175559929999
 30
0.0
 11
-638.38943690280087
 21
290.24198132439977
 31
0.0
  0
LINE
  8
DETAIL
  6
CONTINUOUS
 62
     5
 10
-638.38943690280087
 20
290.24198132439977
 30
0.0
 11
-638.39734289680052
 21
290.28650380339991
 31
0.0
  0
LINE
  8
DETAIL
  6
CONTINUOUS
 62
     5
 10
-638.39734289680052
 20
290.28650380339991
 30
0.0
 11
-638.40000000000111
 21
290.33523848419992
 31
0.0
  0
LINE
  8
DETAIL
  6
CONTINUOUS
 62
     5
 10
14.999999999999091
 20
8.6602540378999038
 30
0.0
 11
-0.0000000000009095
 21
17.32050807569988
 31
0.0
  0
LINE
  8
DETAIL
  6
CONTINUOUS
 62
     5
 10
-349.21592703700122
 20
391.99588729879991
 30
0.0
 11
-342.21401945450089
 21
384.99397971640002
 31
0.0
  0
LINE
  8
DETAIL
  6
CONTINUOUS
 62
     5
 10
391.99588729909919
 20
-349.21592703729988
 30
0.0
 11
123.4824416674992
 21
-80.702481405700155
 31
0.0
  0
LINE
  8
DETAIL
  6
CONTINUOUS
 62
     5
 10
14.999999999999091
 20
-8.6602540378000867
 30
0.0
 11
14.999999999999091
 21
8.6602540378999038
 31
0.0
  0
LINE
  8
DETAIL
  6
CONTINUOUS
 62
     5
 10
-15.000000000000909
 20
8.6602540378999038
 30
0.0
 11
-15.000000000000909
 21
-8.6602540378000867
 31
0.0
  0
LINE
  8
DETAIL
  6
CONTINUOUS
 62
     5
 10
31.737347572199269
 20
146.73984358649989
 30
0.0
 11
31.747383204099151
 21
146.8142998197998
 31
0.0
  0
LINE
  8
DETAIL
  6
CONTINUOUS
 62
     5
 10
31.747383204099151
 20
146.8142998197998
 30
0.0
 11
31.761754839999409
 21
146.9957882706999
 31
0.0
  0
LINE
  8
DETAIL
  6
CONTINUOUS
 62
     5
 10
31.761754839999409
 20
146.9957882706999
 30
0.0
 11
31.76246286579908
 21
147.18200716379991
 31
0.0
  0
LINE
  8
DETAIL
  6
CONTINUOUS
 62
     5
 10
31.76246286579908
 20
147.18200716379991
 30
0.0
 11
31.749178553598991
 21
147.3713046244998
 31
0.0
  0
LINE
  8
DETAIL
  6
CONTINUOUS
 62
     5
 10
31.749178553598991
 20
147.3713046244998
 30
0.0
 11
31.72159499699956
 21
147.5620088762999
 31
0.0
  0
LINE
  8
DETAIL
  6
CONTINUOUS
 62
     5
 10
31.72159499699956
 20
147.5620088762999
 30
0.0
 11
31.679377571699209
 21
147.75269249709979
 31
0.0
  0
LINE
  8
DETAIL
  6
CONTINUOUS
 62
     5
 10
31.679377571699209
 20
147.75269249709979
 30
0.0
 11
31.622078509199131
 21
147.94216816169981
 31
0.0
  0
LINE
  8
DETAIL
  6
CONTINUOUS
 62
     5
 10
31.622078509199131
 20
147.94216816169981
 30
0.0
 11
31.54959345609905
 21
148.12819851159969
 31
0.0
  0
LINE
  8
DETAIL
  6
CONTINUOUS
 62
     5
 10
31.54959345609905
 20
148.12819851159969
 30
0.0
 11
31.461946482799249
 21
148.30884012299981
 31
0.0
  0
LINE
  8
DETAIL
  6
CONTINUOUS
 62
     5
 10
31.461946482799249
 20
148.30884012299981
 30
0.0
 11
31.35923587029902
 21
148.48241567079981
 31
0.0
  0
LINE
  8
DETAIL
  6
CONTINUOUS
 62
     5
 10
31.35923587029902
 20
148.48241567079981
 30
0.0
 11
31.24205281669947
 21
148.64723704329981
 31
0.0
  0
LINE
  8
DETAIL
  6
CONTINUOUS
 62
     5
 10
31.24205281669947
 20
148.64723704329981
 30
0.0
 11
31.11184774839921
 21
148.8018718730998
 31
0.0
  0
LINE
  8
DETAIL
  6
CONTINUOUS
 62
     5
 10
31.11184774839921
 20
148.8018718730998
 30
0.0
 11
30.970479011799402
 21
148.9447764981999
 31
0.0
  0
LINE
  8
DETAIL
  6
CONTINUOUS
 62
     5
 10
30.970479011799402
 20
148.9447764981999
 30
0.0
 11
30.818996925399009
 21
149.0753122428998
 31
0.0
  0
LINE
  8
DETAIL
  6
CONTINUOUS
 62
     5
 10
30.818996925399009
 20
149.0753122428998
 30
0.0
 11
30.65853333189898
 21
149.19263434349969
 31
0.0
  0
LINE
  8
DETAIL
  6
CONTINUOUS
 62
     5
 10
30.65853333189898
 20
149.19263434349969
 30
0.0
 11
30.48998305049918
 21
149.29623364189979
 31
0.0
  0
LINE
  8
DETAIL
  6
CONTINUOUS
 62
     5
 10
30.48998305049918
 20
149.29623364189979
 30
0.0
 11
30.314434991399139
 21
149.3859244164999
 31
0.0
  0
LINE
  8
DETAIL
  6
CONTINUOUS
 62
     5
 10
30.314434991399139
 20
149.3859244164999
 30
0.0
 11
30.13296014199932
 21
149.4614748936998
 31
0.0
  0
LINE
  8
DETAIL
  6
CONTINUOUS
 62
     5
 10
30.13296014199932
 20
149.4614748936998
 30
0.0
 11
29.94649092939926
 21
149.52258213099981
 31
0.0
  0
LINE
  8
DETAIL
  6
CONTINUOUS
 62
     5
 10
29.94649092939926
 20
149.52258213099981
 30
0.0
 11
29.756011975598991
 21
149.56880797679989
 31
0.0
  0
LINE
  8
DETAIL
  6
CONTINUOUS
 62
     5
 10
29.756011975598991
 20
149.56880797679989
 30
0.0
 11
29.56245919189951
 21
149.59975089099979
 31
0.0
  0
LINE
  8
DETAIL
  6
CONTINUOUS
 62
     5
 10
29.56245919189951
 20
149.59975089099979
 30
0.0
 11
29.366855088499509
 21
149.61540589559991
 31
0.0
  0
LINE
  8
DETAIL
  6
CONTINUOUS
 62
     5
 10
29.366855088499509
 20
149.61540589559991
 30
0.0
 11
29.170279217199099
 21
149.61580369479981
 31
0.0
  0
LINE
  8
DETAIL
  6
CONTINUOUS
 62
     5
 10
29.170279217199099
 20
149.61580369479981
 30
0.0
 11
28.97371535829916
 21
149.6008718876999
 31
0.0
  0
LINE
  8
DETAIL
  6
CONTINUOUS
 62
     5
 10
28.97371535829916
 20
149.6008718876999
 30
0.0
 11
28.77824506449906
 21
149.5704211616999
 31
0.0
  0
LINE
  8
DETAIL
  6
CONTINUOUS
 62
     5
 10
28.77824506449906
 20
149.5704211616999
 30
0.0
 11
28.584951223499051
 21
149.52420205729979
 31
0.0
  0
LINE
  8
DETAIL
  6
CONTINUOUS
 62
     5
 10
28.584951223499051
 20
149.52420205729979
 30
0.0
 11
28.394864055999282
 21
149.46232850199979
 31
0.0
  0
LINE
  8
DETAIL
  6
CONTINUOUS
 62
     5
 10
28.394864055999282
 20
149.46232850199979
 30
0.0
 11
28.209341824199331
 21
149.3851529176998
 31
0.0
  0
LINE
  8
DETAIL
  6
CONTINUOUS
 62
     5
 10
28.209341824199331
 20
149.3851529176998
 30
0.0
 11
28.02959592949901
 21
149.2928741375998
 31
0.0
  0
LINE
  8
DETAIL
  6
CONTINUOUS
 62
     5
 10
28.02959592949901
 20
149.2928741375998
 30
0.0
 11
27.857900420499391
 21
149.18619631409979
 31
0.0
  0
LINE
  8
DETAIL
  6
CONTINUOUS
 62
     5
 10
27.857900420499391
 20
149.18619631409979
 30
0.0
 11
27.696148901199191
 21
149.0658692335999
 31
0.0
  0
LINE
  8
DETAIL
  6
CONTINUOUS
 62
     5
 10
27.696148901199191
 20
149.0658692335999
 30
0.0
 11
27.545556946499349
 21
148.9331936391998
 31
0.0
  0
LINE
  8
DETAIL
  6
CONTINUOUS
 62
     5
 10
27.545556946499349
 20
148.9331936391998
 30
0.0
 11
27.40684463739899
 21
148.78965435049989
 31
0.0
  0
LINE
  8
DETAIL
  6
CONTINUOUS
 62
     5
 10
27.40684463739899
 20
148.78965435049989
 30
0.0
 11
27.280783664598861
 21
148.63702266659979
 31
0.0
  0
LINE
  8
DETAIL
  6
CONTINUOUS
 62
     5
 10
27.280783664598861
 20
148.63702266659979
 30
0.0
 11
27.168139404999241
 21
148.47738814869979
 31
0.0
  0
LINE
  8
DETAIL
  6
CONTINUOUS
 62
     5
 10
27.168139404999241
 20
148.47738814869979
 30
0.0
 11
27.068957265399149
 21
148.3120055379998
 31
0.0
  0
LINE
  8
DETAIL
  6
CONTINUOUS
 62
     5
 10
27.068957265399149
 20
148.3120055379998
 30
0.0
 11
26.983484626799051
 21
148.1423137141999
 31
0.0
  0
LINE
  8
DETAIL
  6
CONTINUOUS
 62
     5
 10
26.983484626799051
 20
148.1423137141999
 30
0.0
 11
26.912083358199201
 21
147.96995075469991
 31
0.0
  0
LINE
  8
DETAIL
  6
CONTINUOUS
 62
     5
 10
26.912083358199201
 20
147.96995075469991
 30
0.0
 11
26.855094017299049
 21
147.79654431419979
 31
0.0
  0
LINE
  8
DETAIL
  6
CONTINUOUS
 62
     5
 10
26.855094017299049
 20
147.79654431419979
 30
0.0
 11
26.833421170199021
 21
147.71529519659981
 31
0.0
  0
LINE
  8
DETAIL
  6
CONTINUOUS
 62
     5
 10
30.544985633498982
 20
145.87268483719981
 30
0.0
 11
30.5589305025992
 21
145.96837467089969
 31
0.0
  0
LINE
  8
DETAIL
  6
CONTINUOUS
 62
     5
 10
30.5589305025992
 20
145.96837467089969
 30
0.0
 11
30.56683408149911
 21
146.06910154079989
 31
0.0
  0
LINE
  8
DETAIL
  6
CONTINUOUS
 62
     5
 10
30.56683408149911
 20
146.06910154079989
 30
0.0
 11
30.567793705698929
 21
146.17404153829989
 31
0.0
  0
LINE
  8
DETAIL
  6
CONTINUOUS
 62
     5
 10
30.567793705698929
 20
146.17404153829989
 30
0.0
 11
30.56087411409953
 21
146.2839614640998
 31
0.0
  0
LINE
  8
DETAIL
  6
CONTINUOUS
 62
     5
 10
30.56087411409953
 20
146.2839614640998
 30
0.0
 11
30.544722552899199
 21
146.39979133749989
 31
0.0
  0
LINE
  8
DETAIL
  6
CONTINUOUS
 62
     5
 10
30.544722552899199
 20
146.39979133749989
 30
0.0
 11
30.518317137399212
 21
146.51909112349969
 31
0.0
  0
LINE
  8
DETAIL
  6
CONTINUOUS
 62
     5
 10
30.518317137399212
 20
146.51909112349969
 30
0.0
 11
30.480893394699251
 21
146.6400902131999
 31
0.0
  0
LINE
  8
DETAIL
  6
CONTINUOUS
 62
     5
 10
30.480893394699251
 20
146.6400902131999
 30
0.0
 11
30.431961112799399
 21
146.76096230579989
 31
0.0
  0
LINE
  8
DETAIL
  6
CONTINUOUS
 62
     5
 10
30.431961112799399
 20
146.76096230579989
 30
0.0
 11
30.37117688549915
 21
146.88005180499991
 31
0.0
  0
LINE
  8
DETAIL
  6
CONTINUOUS
 62
     5
 10
30.37117688549915
 20
146.88005180499991
 30
0.0
 11
30.299064759999059
 21
146.99464674719979
 31
0.0
  0
LINE
  8
DETAIL
  6
CONTINUOUS
 62
     5
 10
30.299064759999059
 20
146.99464674719979
 30
0.0
 11
30.216643010498959
 21
147.1023618144998
 31
0.0
  0
LINE
  8
DETAIL
  6
CONTINUOUS
 62
     5
 10
30.216643010498959
 20
147.1023618144998
 30
0.0
 11
30.124968800399071
 21
147.20189834939981
 31
0.0
  0
LINE
  8
DETAIL
  6
CONTINUOUS
 62
     5
 10
30.124968800399071
 20
147.20189834939981
 30
0.0
 11
30.025448787198911
 21
147.29211680019989
 31
0.0
  0
LINE
  8
DETAIL
  6
CONTINUOUS
 62
     5
 10
30.025448787198911
 20
147.29211680019989
 30
0.0
 11
29.91986910369906
 21
147.37197016339979
 31
0.0
  0
LINE
  8
DETAIL
  6
CONTINUOUS
 62
     5
 10
29.91986910369906
 20
147.37197016339979
 30
0.0
 11
29.810021054599019
 21
147.4408439288998
 31
0.0
  0
LINE
  8
DETAIL
  6
CONTINUOUS
 62
     5
 10
29.810021054599019
 20
147.4408439288998
 30
0.0
 11
29.69827304309911
 21
147.49830112219979
 31
0.0
  0
LINE
  8
DETAIL
  6
CONTINUOUS
 62
     5
 10
29.69827304309911
 20
147.49830112219979
 30
0.0
 11
29.58736536329889
 21
147.5443213266999
 31
0.0
  0
LINE
  8
DETAIL
  6
CONTINUOUS
 62
     5
 10
29.58736536329889
 20
147.5443213266999
 30
0.0
 11
29.478401413299249
 21
147.5798707681999
 31
0.0
  0
LINE
  8
DETAIL
  6
CONTINUOUS
 62
     5
 10
29.478401413299249
 20
147.5798707681999
 30
0.0
 11
29.372845230199349
 21
147.6057978085999
 31
0.0
  0
LINE
  8
DETAIL
  6
CONTINUOUS
 62
     5
 10
29.372845230199349
 20
147.6057978085999
 30
0.0
 11
29.271481525899159
 21
147.6231844845999
 31
0.0
  0
LINE
  8
DETAIL
  6
CONTINUOUS
 62
     5
 10
29.271481525899159
 20
147.6231844845999
 30
0.0
 11
29.175391850399141
 21
147.63313615099989
 31
0.0
  0
LINE
  8
DETAIL
  6
CONTINUOUS
 62
     5
 10
29.175391850399141
 20
147.63313615099989
 30
0.0
 11
29.084260558799539
 21
147.6368501163999
 31
0.0
  0
LINE
  8
DETAIL
  6
CONTINUOUS
 62
     5
 10
29.084260558799539
 20
147.6368501163999
 30
0.0
 11
28.997902787599291
 21
147.6352779188999
 31
0.0
  0
LINE
  8
DETAIL
  6
CONTINUOUS
 62
     5
 10
28.997902787599291
 20
147.6352779188999
 30
0.0
 11
28.916201473599362
 21
147.62921482209981
 31
0.0
  0
LINE
  8
DETAIL
  6
CONTINUOUS
 62
     5
 10
28.916201473599362
 20
147.62921482209981
 30
0.0
 11
28.838746659199391
 21
147.61929980669979
 31
0.0
  0
LINE
  8
DETAIL
  6
CONTINUOUS
 62
     5
 10
28.838746659199391
 20
147.61929980669979
 30
0.0
 11
28.765775964298879
 21
147.6061601420999
 31
0.0
  0
LINE
  8
DETAIL
  6
CONTINUOUS
 62
     5
 10
28.765775964298879
 20
147.6061601420999
 30
0.0
 11
28.697554498398858
 21
147.59045046979989
 31
0.0
  0
LINE
  8
DETAIL
  6
CONTINUOUS
 62
     5
 10
28.697554498398858
 20
147.59045046979989
 30
0.0
 11
28.633292445999359
 21
147.5725334787999
 31
0.0
  0
LINE
  8
DETAIL
  6
CONTINUOUS
 62
     5
 10
28.633292445999359
 20
147.5725334787999
 30
0.0
 11
28.57279549769919
 21
147.55279944009979
 31
0.0
  0
LINE
  8
DETAIL
  6
CONTINUOUS
 62
     5
 10
28.57279549769919
 20
147.55279944009979
 30
0.0
 11
28.514469691599519
 21
147.53102783919991
 31
0.0
  0
LINE
  8
DETAIL
  6
CONTINUOUS
 62
     5
 10
28.514469691599519
 20
147.53102783919991
 30
0.0
 11
28.456758234099201
 21
147.50670054609989
 31
0.0
  0
LINE
  8
DETAIL
  6
CONTINUOUS
 62
     5
 10
28.456758234099201
 20
147.50670054609989
 30
0.0
 11
28.399665433598781
 21
147.4797522623999
 31
0.0
  0
LINE
  8
DETAIL
  6
CONTINUOUS
 62
     5
 10
28.399665433598781
 20
147.4797522623999
 30
0.0
 11
28.342354946099022
 21
147.44962834649979
 31
0.0
  0
LINE
  8
DETAIL
  6
CONTINUOUS
 62
     5
 10
28.342354946099022
 20
147.44962834649979
 30
0.0
 11
28.28600713259948
 21
147.41678240579981
 31
0.0
  0
LINE
  8
DETAIL
  6
CONTINUOUS
 62
     5
 10
28.28600713259948
 20
147.41678240579981
 30
0.0
 11
28.231404023499181
 21
147.38164336939991
 31
0.0
  0
LINE
  8
DETAIL
  6
CONTINUOUS
 62
     5
 10
28.231404023499181
 20
147.38164336939991
 30
0.0
 11
28.178647318499319
 21
147.34433951339969
 31
0.0
  0
LINE
  8
DETAIL
  6
CONTINUOUS
 62
     5
 10
28.178647318499319
 20
147.34433951339969
 30
0.0
 11
28.128151880699079
 21
147.30527688859979
 31
0.0
  0
LINE
  8
DETAIL
  6
CONTINUOUS
 62
     5
 10
28.128151880699079
 20
147.30527688859979
 30
0.0
 11
28.079603235599279
 21
147.26432160219991
 31
0.0
  0
LINE
  8
DETAIL
  6
CONTINUOUS
 62
     5
 10
28.079603235599279
 20
147.26432160219991
 30
0.0
 11
28.03286544059938
 21
147.22140666009969
 31
0.0
  0
LINE
  8
DETAIL
  6
CONTINUOUS
 62
     5
 10
28.03286544059938
 20
147.22140666009969
 30
0.0
 11
27.987922046098902
 21
147.17652775819991
 31
0.0
  0
LINE
  8
DETAIL
  6
CONTINUOUS
 62
     5
 10
27.987922046098902
 20
147.17652775819991
 30
0.0
 11
27.944721680399201
 21
147.12961065099989
 31
0.0
  0
LINE
  8
DETAIL
  6
CONTINUOUS
 62
     5
 10
27.944721680399201
 20
147.12961065099989
 30
0.0
 11
27.903326428398941
 21
147.0806696385998
 31
0.0
  0
LINE
  8
DETAIL
  6
CONTINUOUS
 62
     5
 10
27.903326428398941
 20
147.0806696385998
 30
0.0
 11
27.86375306039918
 21
147.02964328259989
 31
0.0
  0
LINE
  8
DETAIL
  6
CONTINUOUS
 62
     5
 10
27.86375306039918
 20
147.02964328259989
 30
0.0
 11
27.826151781599041
 21
146.97662418469989
 31
0.0
  0
LINE
  8
DETAIL
  6
CONTINUOUS
 62
     5
 10
27.826151781599041
 20
146.97662418469989
 30
0.0
 11
27.790648886299099
 21
146.92168571239981
 31
0.0
  0
LINE
  8
DETAIL
  6
CONTINUOUS
 62
     5
 10
27.790648886299099
 20
146.92168571239981
 30
0.0
 11
27.757330520199051
 21
146.86483946379991
 31
0.0
  0
LINE
  8
DETAIL
  6
CONTINUOUS
 62
     5
 10
27.757330520199051
 20
146.86483946379991
 30
0.0
 11
27.726483026899128
 21
146.80647872859981
 31
0.0
  0
LINE
  8
DETAIL
  6
CONTINUOUS
 62
     5
 10
27.726483026899128
 20
146.80647872859981
 30
0.0
 11
27.697660666799042
 21
146.74552266239979
 31
0.0
  0
LINE
  8
DETAIL
  6
CONTINUOUS
 62
     5
 10
27.697660666799042
 20
146.74552266239979
 30
0.0
 11
27.670780887899131
 21
146.68118713369969
 31
0.0
  0
LINE
  8
DETAIL
  6
CONTINUOUS
 62
     5
 10
27.670780887899131
 20
146.68118713369969
 30
0.0
 11
27.645873576699159
 21
146.6124948184999
 31
0.0
  0
LINE
  8
DETAIL
  6
CONTINUOUS
 62
     5
 10
27.645873576699159
 20
146.6124948184999
 30
0.0
 11
27.623054059499282
 21
146.53796631639989
 31
0.0
  0
LINE
  8
DETAIL
  6
CONTINUOUS
 62
     5
 10
27.623054059499282
 20
146.53796631639989
 30
0.0
 11
27.603172674099369
 21
146.45784781739991
 31
0.0
  0
LINE
  8
DETAIL
  6
CONTINUOUS
 62
     5
 10
30.997958424399261
 20
141.8661186790998
 30
0.0
 11
31.737347572199269
 21
146.73984358649989
 31
0.0
  0
LINE
  8
DETAIL
  6
CONTINUOUS
 62
     5
 10
29.879147406599259
 20
142.15324881999979
 30
0.0
 11
30.544985633498982
 21
145.87268483719981
 31
0.0
  0
LINE
  8
DETAIL
  6
CONTINUOUS
 62
     5
 10
27.603172674099369
 20
146.45784781739991
 30
0.0
 11
26.827632349299169
 21
142.9159447859999
 31
0.0
  0
LINE
  8
DETAIL
  6
CONTINUOUS
 62
     5
 10
26.833421170199021
 20
147.71529519659981
 30
0.0
 11
25.71509161459926
 21
143.18734895529991
 31
0.0
  0
LINE
  8
DETAIL
  6
CONTINUOUS
 62
     5
 10
50.619223194399183
 20
141.3419087528998
 30
0.0
 11
50.638891458699163
 21
141.41441808989981
 31
0.0
  0
LINE
  8
DETAIL
  6
CONTINUOUS
 62
     5
 10
50.638891458699163
 20
141.41441808989981
 30
0.0
 11
50.676829139699286
 21
141.5924780070998
 31
0.0
  0
LINE
  8
DETAIL
  6
CONTINUOUS
 62
     5
 10
50.676829139699286
 20
141.5924780070998
 30
0.0
 11
50.701837551298922
 21
141.77701135579991
 31
0.0
  0
LINE
  8
DETAIL
  6
CONTINUOUS
 62
     5
 10
50.701837551298922
 20
141.77701135579991
 30
0.0
 11
50.713375164898927
 21
141.9664233011998
 31
0.0
  0
LINE
  8
DETAIL
  6
CONTINUOUS
 62
     5
 10
50.713375164898927
 20
141.9664233011998
 30
0.0
 11
50.710919489299158
 21
142.15909642829979
 31
0.0
  0
LINE
  8
DETAIL
  6
CONTINUOUS
 62
     5
 10
50.710919489299158
 20
142.15909642829979
 30
0.0
 11
50.693952446898948
 21
142.35365920399991
 31
0.0
  0
LINE
  8
DETAIL
  6
CONTINUOUS
 62
     5
 10
50.693952446898948
 20
142.35365920399991
 30
0.0
 11
50.661875122899353
 21
142.54899290659981
 31
0.0
  0
LINE
  8
DETAIL
  6
CONTINUOUS
 62
     5
 10
50.661875122899353
 20
142.54899290659981
 30
0.0
 11
50.614292022599329
 21
142.7428929389998
 31
0.0
  0
LINE
  8
DETAIL
  6
CONTINUOUS
 62
     5
 10
50.614292022599329
 20
142.7428929389998
 30
0.0
 11
50.550973342998986
 21
142.9334293619998
 31
0.0
  0
LINE
  8
DETAIL
  6
CONTINUOUS
 62
     5
 10
50.550973342998986
 20
142.9334293619998
 30
0.0
 11
50.471797589399102
 21
143.11892637209991
 31
0.0
  0
LINE
  8
DETAIL
  6
CONTINUOUS
 62
     5
 10
50.471797589399102
 20
143.11892637209991
 30
0.0
 11
50.377130559199031
 21
143.2976331326999
 31
0.0
  0
LINE
  8
DETAIL
  6
CONTINUOUS
 62
     5
 10
50.377130559199031
 20
143.2976331326999
 30
0.0
 11
50.268223308798952
 21
143.4679402118
 31
0.0
  0
LINE
  8
DETAIL
  6
CONTINUOUS
 62
     5
 10
50.268223308798952
 20
143.4679402118
 30
0.0
 11
50.146716797898989
 21
143.62807459099989
 31
0.0
  0
LINE
  8
DETAIL
  6
CONTINUOUS
 62
     5
 10
50.146716797898989
 20
143.62807459099989
 30
0.0
 11
50.013568995499099
 21
143.7772659641999
 31
0.0
  0
LINE
  8
DETAIL
  6
CONTINUOUS
 62
     5
 10
50.013568995499099
 20
143.7772659641999
 30
0.0
 11
49.869791797299513
 21
143.91452905979989
 31
0.0
  0
LINE
  8
DETAIL
  6
CONTINUOUS
 62
     5
 10
49.869791797299513
 20
143.91452905979989
 30
0.0
 11
49.71620590889961
 21
144.03924227829989
 31
0.0
  0
LINE
  8
DETAIL
  6
CONTINUOUS
 62
     5
 10
49.71620590889961
 20
144.03924227829989
 30
0.0
 11
49.553866682998887
 21
144.15107935549989
 31
0.0
  0
LINE
  8
DETAIL
  6
CONTINUOUS
 62
     5
 10
49.553866682998887
 20
144.15107935549989
 30
0.0
 11
49.38380569219953
 21
144.24967070909969
 31
0.0
  0
LINE
  8
DETAIL
  6
CONTINUOUS
 62
     5
 10
49.38380569219953
 20
144.24967070909969
 30
0.0
 11
49.206907844499263
 21
144.33459428169979
 31
0.0
  0
LINE
  8
DETAIL
  6
CONTINUOUS
 62
     5
 10
49.206907844499263
 20
144.33459428169979
 30
0.0
 11
49.024092148299133
 21
144.40528715159991
 31
0.0
  0
LINE
  8
DETAIL
  6
CONTINUOUS
 62
     5
 10
49.024092148299133
 20
144.40528715159991
 30
0.0
 11
48.836234096299449
 21
144.46122905269979
 31
0.0
  0
LINE
  8
DETAIL
  6
CONTINUOUS
 62
     5
 10
48.836234096299449
 20
144.46122905269979
 30
0.0
 11
48.64434680119939
 21
144.5022815854
 31
0.0
  0
LINE
  8
DETAIL
  6
CONTINUOUS
 62
     5
 10
48.64434680119939
 20
144.5022815854
 30
0.0
 11
48.44950458699941
 21
144.52833428129969
 31
0.0
  0
LINE
  8
DETAIL
  6
CONTINUOUS
 62
     5
 10
48.44950458699941
 20
144.52833428129969
 30
0.0
 11
48.25267336719935
 21
144.53918694989989
 31
0.0
  0
LINE
  8
DETAIL
  6
CONTINUOUS
 62
     5
 10
48.25267336719935
 20
144.53918694989989
 30
0.0
 11
48.054900731499401
 21
144.53451072719989
 31
0.0
  0
LINE
  8
DETAIL
  6
CONTINUOUS
 62
     5
 10
48.054900731499401
 20
144.53451072719989
 30
0.0
 11
47.857227742399118
 21
144.51391694269981
 31
0.0
  0
LINE
  8
DETAIL
  6
CONTINUOUS
 62
     5
 10
47.857227742399118
 20
144.51391694269981
 30
0.0
 11
47.660690677499133
 21
144.47738407839989
 31
0.0
  0
LINE
  8
DETAIL
  6
CONTINUOUS
 62
     5
 10
47.660690677499133
 20
144.47738407839989
 30
0.0
 11
47.466682178899653
 21
144.42508425239981
 31
0.0
  0
LINE
  8
DETAIL
  6
CONTINUOUS
 62
     5
 10
47.466682178899653
 20
144.42508425239981
 30
0.0
 11
47.276429237399043
 21
144.35705647729981
 31
0.0
  0
LINE
  8
DETAIL
  6
CONTINUOUS
 62
     5
 10
47.276429237399043
 20
144.35705647729981
 30
0.0
 11
47.09227835729962
 21
144.27370205839969
 31
0.0
  0
LINE
  8
DETAIL
  6
CONTINUOUS
 62
     5
 10
47.09227835729962
 20
144.27370205839969
 30
0.0
 11
46.916204808999282
 21
144.17551720259991
 31
0.0
  0
LINE
  8
DETAIL
  6
CONTINUOUS
 62
     5
 10
46.916204808999282
 20
144.17551720259991
 30
0.0
 11
46.749583549099043
 21
144.06363286079991
 31
0.0
  0
LINE
  8
DETAIL
  6
CONTINUOUS
 62
     5
 10
46.749583549099043
 20
144.06363286079991
 30
0.0
 11
46.593322306299342
 21
143.9394271600998
 31
0.0
  0
LINE
  8
DETAIL
  6
CONTINUOUS
 62
     5
 10
46.593322306299342
 20
143.9394271600998
 30
0.0
 11
46.448417370099378
 21
143.80455552019981
 31
0.0
  0
LINE
  8
DETAIL
  6
CONTINUOUS
 62
     5
 10
46.448417370099378
 20
143.80455552019981
 30
0.0
 11
46.31590031199903
 21
143.66098972399979
 31
0.0
  0
LINE
  8
DETAIL
  6
CONTINUOUS
 62
     5
 10
46.31590031199903
 20
143.66098972399979
 30
0.0
 11
46.195979926898872
 21
143.50996785149979
 31
0.0
  0
LINE
  8
DETAIL
  6
CONTINUOUS
 62
     5
 10
46.195979926898872
 20
143.50996785149979
 30
0.0
 11
46.089089290999247
 21
143.3528841827999
 31
0.0
  0
LINE
  8
DETAIL
  6
CONTINUOUS
 62
     5
 10
46.089089290999247
 20
143.3528841827999
 30
0.0
 11
45.995800989398958
 21
143.19131554799981
 31
0.0
  0
LINE
  8
DETAIL
  6
CONTINUOUS
 62
     5
 10
45.995800989398958
 20
143.19131554799981
 30
0.0
 11
45.916665117799312
 21
143.0268312252999
 31
0.0
  0
LINE
  8
DETAIL
  6
CONTINUOUS
 62
     5
 10
45.916665117799312
 20
143.0268312252999
 30
0.0
 11
45.884572546999152
 21
142.9491060793998
 31
0.0
  0
LINE
  8
DETAIL
  6
CONTINUOUS
 62
     5
 10
49.323875147799299
 20
140.6378031304998
 30
0.0
 11
49.349930336199122
 21
140.72980598819979
 31
0.0
  0
LINE
  8
DETAIL
  6
CONTINUOUS
 62
     5
 10
49.349930336199122
 20
140.72980598819979
 30
0.0
 11
49.370777473799542
 21
140.8274571321999
 31
0.0
  0
LINE
  8
DETAIL
  6
CONTINUOUS
 62
     5
 10
49.370777473799542
 20
140.8274571321999
 30
0.0
 11
49.385443687599043
 21
140.93004132039979
 31
0.0
  0
LINE
  8
DETAIL
  6
CONTINUOUS
 62
     5
 10
49.385443687599043
 20
140.93004132039979
 30
0.0
 11
49.393147099899117
 21
141.0385372887998
 31
0.0
  0
LINE
  8
DETAIL
  6
CONTINUOUS
 62
     5
 10
49.393147099899117
 20
141.0385372887998
 30
0.0
 11
49.392695542199363
 21
141.15413138749969
 31
0.0
  0
LINE
  8
DETAIL
  6
CONTINUOUS
 62
     5
 10
49.392695542199363
 20
141.15413138749969
 30
0.0
 11
49.382758478799133
 21
141.2745806711998
 31
0.0
  0
LINE
  8
DETAIL
  6
CONTINUOUS
 62
     5
 10
49.382758478799133
 20
141.2745806711998
 30
0.0
 11
49.36234199439923
 21
141.39826384489979
 31
0.0
  0
LINE
  8
DETAIL
  6
CONTINUOUS
 62
     5
 10
49.36234199439923
 20
141.39826384489979
 30
0.0
 11
49.330685032299243
 21
141.52355687229991
 31
0.0
  0
LINE
  8
DETAIL
  6
CONTINUOUS
 62
     5
 10
49.330685032299243
 20
141.52355687229991
 30
0.0
 11
49.28714641769875
 21
141.64901276159981
 31
0.0
  0
LINE
  8
DETAIL
  6
CONTINUOUS
 62
     5
 10
49.28714641769875
 20
141.64901276159981
 30
0.0
 11
49.2318677534995
 21
141.77176684429989
 31
0.0
  0
LINE
  8
DETAIL
  6
CONTINUOUS
 62
     5
 10
49.2318677534995
 20
141.77176684429989
 30
0.0
 11
49.165616178399432
 21
141.88910919019989
 31
0.0
  0
LINE
  8
DETAIL
  6
CONTINUOUS
 62
     5
 10
49.165616178399432
 20
141.88910919019989
 30
0.0
 11
49.08896123859904
 21
142.00002168129981
 31
0.0
  0
LINE
  8
DETAIL
  6
CONTINUOUS
 62
     5
 10
49.08896123859904
 20
142.00002168129981
 30
0.0
 11
49.003117423899312
 21
142.10305610649991
 31
0.0
  0
LINE
  8
DETAIL
  6
CONTINUOUS
 62
     5
 10
49.003117423899312
 20
142.10305610649991
 30
0.0
 11
48.908515399099088
 21
142.19792879580001
 31
0.0
  0
LINE
  8
DETAIL
  6
CONTINUOUS
 62
     5
 10
48.908515399099088
 20
142.19792879580001
 30
0.0
 11
48.805411708699467
 21
142.28427699269969
 31
0.0
  0
LINE
  8
DETAIL
  6
CONTINUOUS
 62
     5
 10
48.805411708699467
 20
142.28427699269969
 30
0.0
 11
48.695457605399497
 21
142.36074703499969
 31
0.0
  0
LINE
  8
DETAIL
  6
CONTINUOUS
 62
     5
 10
48.695457605399497
 20
142.36074703499969
 30
0.0
 11
48.580073571999492
 21
142.4266698070999
 31
0.0
  0
LINE
  8
DETAIL
  6
CONTINUOUS
 62
     5
 10
48.580073571999492
 20
142.4266698070999
 30
0.0
 11
48.461245303099084
 21
142.48137320799981
 31
0.0
  0
LINE
  8
DETAIL
  6
CONTINUOUS
 62
     5
 10
48.461245303099084
 20
142.48137320799981
 30
0.0
 11
48.340843412299357
 21
142.52463262139989
 31
0.0
  0
LINE
  8
DETAIL
  6
CONTINUOUS
 62
     5
 10
48.340843412299357
 20
142.52463262139989
 30
0.0
 11
48.221132515599493
 21
142.5565438284998
 31
0.0
  0
LINE
  8
DETAIL
  6
CONTINUOUS
 62
     5
 10
48.221132515599493
 20
142.5565438284998
 30
0.0
 11
48.104748925299191
 21
142.57770430309981
 31
0.0
  0
LINE
  8
DETAIL
  6
CONTINUOUS
 62
     5
 10
48.104748925299191
 20
142.57770430309981
 30
0.0
 11
47.992427279799358
 21
142.5893257673998
 31
0.0
  0
LINE
  8
DETAIL
  6
CONTINUOUS
 62
     5
 10
47.992427279799358
 20
142.5893257673998
 30
0.0
 11
47.885255038699142
 21
142.59253763559991
 31
0.0
  0
LINE
  8
DETAIL
  6
CONTINUOUS
 62
     5
 10
47.885255038699142
 20
142.59253763559991
 30
0.0
 11
47.783775005399548
 21
142.58850838299989
 31
0.0
  0
LINE
  8
DETAIL
  6
CONTINUOUS
 62
     5
 10
47.783775005399548
 20
142.58850838299989
 30
0.0
 11
47.688621724399127
 21
142.57842420119979
 31
0.0
  0
LINE
  8
DETAIL
  6
CONTINUOUS
 62
     5
 10
47.688621724399127
 20
142.57842420119979
 30
0.0
 11
47.599730156099213
 21
142.56339298179981
 31
0.0
  0
LINE
  8
DETAIL
  6
CONTINUOUS
 62
     5
 10
47.599730156099213
 20
142.56339298179981
 30
0.0
 11
47.517265643598883
 21
142.54445510519989
 31
0.0
  0
LINE
  8
DETAIL
  6
CONTINUOUS
 62
     5
 10
47.517265643598883
 20
142.54445510519989
 30
0.0
 11
47.440509820899017
 21
142.52232995349979
 31
0.0
  0
LINE
  8
DETAIL
  6
CONTINUOUS
 62
     5
 10
47.440509820899017
 20
142.52232995349979
 30
0.0
 11
47.368945352699029
 21
142.4975951699999
 31
0.0
  0
LINE
  8
DETAIL
  6
CONTINUOUS
 62
     5
 10
47.368945352699029
 20
142.4975951699999
 30
0.0
 11
47.301857809598907
 21
142.47059684959979
 31
0.0
  0
LINE
  8
DETAIL
  6
CONTINUOUS
 62
     5
 10
47.301857809598907
 20
142.47059684959979
 30
0.0
 11
47.238527241599513
 21
142.4415032645999
 31
0.0
  0
LINE
  8
DETAIL
  6
CONTINUOUS
 62
     5
 10
47.238527241599513
 20
142.4415032645999
 30
0.0
 11
47.178458493899598
 21
142.41046120819991
 31
0.0
  0
LINE
  8
DETAIL
  6
CONTINUOUS
 62
     5
 10
47.178458493899598
 20
142.41046120819991
 30
0.0
 11
47.121122614799333
 21
142.37749910939991
 31
0.0
  0
LINE
  8
DETAIL
  6
CONTINUOUS
 62
     5
 10
47.121122614799333
 20
142.37749910939991
 30
0.0
 11
47.066020579999083
 21
142.3425322148999
 31
0.0
  0
LINE
  8
DETAIL
  6
CONTINUOUS
 62
     5
 10
47.066020579999083
 20
142.3425322148999
 30
0.0
 11
47.012502622499142
 21
142.3052338011999
 31
0.0
  0
LINE
  8
DETAIL
  6
CONTINUOUS
 62
     5
 10
47.012502622499142
 20
142.3052338011999
 30
0.0
 11
46.960724761599522
 21
142.26573402619991
 31
0.0
  0
LINE
  8
DETAIL
  6
CONTINUOUS
 62
     5
 10
46.960724761599522
 20
142.26573402619991
 30
0.0
 11
46.910590966799191
 21
142.2239638382998
 31
0.0
  0
LINE
  8
DETAIL
  6
CONTINUOUS
 62
     5
 10
46.910590966799191
 20
142.2239638382998
 30
0.0
 11
46.862270438099131
 21
142.1800514916998
 31
0.0
  0
LINE
  8
DETAIL
  6
CONTINUOUS
 62
     5
 10
46.862270438099131
 20
142.1800514916998
 30
0.0
 11
46.81587849169955
 21
142.1340949304998
 31
0.0
  0
LINE
  8
DETAIL
  6
CONTINUOUS
 62
     5
 10
46.81587849169955
 20
142.1340949304998
 30
0.0
 11
46.771459726799087
 21
142.08612401900001
 31
0.0
  0
LINE
  8
DETAIL
  6
CONTINUOUS
 62
     5
 10
46.771459726799087
 20
142.08612401900001
 30
0.0
 11
46.729111186498812
 21
142.0362193240999
 31
0.0
  0
LINE
  8
DETAIL
  6
CONTINUOUS
 62
     5
 10
46.729111186498812
 20
142.0362193240999
 30
0.0
 11
46.68880228729904
 21
141.98429652059991
 31
0.0
  0
LINE
  8
DETAIL
  6
CONTINUOUS
 62
     5
 10
46.68880228729904
 20
141.98429652059991
 30
0.0
 11
46.650768071499442
 21
141.93060721419991
 31
0.0
  0
LINE
  8
DETAIL
  6
CONTINUOUS
 62
     5
 10
46.650768071499442
 20
141.93060721419991
 30
0.0
 11
46.614407998899424
 21
141.8741230407999
 31
0.0
  0
LINE
  8
DETAIL
  6
CONTINUOUS
 62
     5
 10
46.614407998899424
 20
141.8741230407999
 30
0.0
 11
46.579492136799217
 21
141.81400566959991
 31
0.0
  0
LINE
  8
DETAIL
  6
CONTINUOUS
 62
     5
 10
46.579492136799217
 20
141.81400566959991
 30
0.0
 11
46.545945366999149
 21
141.7493157563998
 31
0.0
  0
LINE
  8
DETAIL
  6
CONTINUOUS
 62
     5
 10
46.545945366999149
 20
141.7493157563998
 30
0.0
 11
46.513694346899229
 21
141.67858530989989
 31
0.0
  0
LINE
  8
DETAIL
  6
CONTINUOUS
 62
     5
 10
46.513694346899229
 20
141.67858530989989
 30
0.0
 11
46.483608901699426
 21
141.6019436039999
 31
0.0
  0
LINE
  8
DETAIL
  6
CONTINUOUS
 62
     5
 10
49.188945108099233
 20
136.39518853599989
 30
0.0
 11
50.619223194399183
 21
141.3419087528998
 31
0.0
  0
LINE
  8
DETAIL
  6
CONTINUOUS
 62
     5
 10
48.098353146799127
 20
136.7859823526999
 30
0.0
 11
49.323875147799299
 21
140.6378031304998
 31
0.0
  0
LINE
  8
DETAIL
  6
CONTINUOUS
 62
     5
 10
46.483608901699426
 20
141.6019436039999
 30
0.0
 11
45.112057116099088
 21
137.80285288900001
 31
0.0
  0
LINE
  8
DETAIL
  6
CONTINUOUS
 62
     5
 10
45.884572546999152
 20
142.9491060793998
 30
0.0
 11
44.013347003298797
 21
138.16778819159981
 31
0.0
  0
LINE
  8
DETAIL
  6
CONTINUOUS
 62
     5
 10
68.634989873499308
 20
133.52557467309981
 30
0.0
 11
68.66395424069924
 21
133.5948964590998
 31
0.0
  0
LINE
  8
DETAIL
  6
CONTINUOUS
 62
     5
 10
68.66395424069924
 20
133.5948964590998
 30
0.0
 11
68.724808842499442
 21
133.7664811878999
 31
0.0
  0
LINE
  8
DETAIL
  6
CONTINUOUS
 62
     5
 10
68.724808842499442
 20
133.7664811878999
 30
0.0
 11
68.77368973899911
 21
133.9461715754999
 31
0.0
  0
LINE
  8
DETAIL
  6
CONTINUOUS
 62
     5
 10
68.77368973899911
 20
133.9461715754999
 30
0.0
 11
68.809851866799363
 21
134.13245711469989
 31
0.0
  0
LINE
  8
DETAIL
  6
CONTINUOUS
 62
     5
 10
68.809851866799363
 20
134.13245711469989
 30
0.0
 11
68.832566089499323
 21
134.32380242639991
 31
0.0
  0
LINE
  8
DETAIL
  6
CONTINUOUS
 62
     5
 10
68.832566089499323
 20
134.32380242639991
 30
0.0
 11
68.841139740698964
 21
134.5189153340998
 31
0.0
  0
LINE
  8
DETAIL
  6
CONTINUOUS
 62
     5
 10
68.841139740698964
 20
134.5189153340998
 30
0.0
 11
68.834833006999361
 21
134.7167648606999
 31
0.0
  0
LINE
  8
DETAIL
  6
CONTINUOUS
 62
     5
 10
68.834833006999361
 20
134.7167648606999
 30
0.0
 11
68.812966019699161
 21
134.9152168923998
 31
0.0
  0
LINE
  8
DETAIL
  6
CONTINUOUS
 62
     5
 10
68.812966019699161
 20
134.9152168923998
 30
0.0
 11
68.775059033899197
 21
135.1123879960999
 31
0.0
  0
LINE
  8
DETAIL
  6
CONTINUOUS
 62
     5
 10
68.775059033899197
 20
135.1123879960999
 30
0.0
 11
68.720772858199325
 21
135.30663256309981
 31
0.0
  0
LINE
  8
DETAIL
  6
CONTINUOUS
 62
     5
 10
68.720772858199325
 20
135.30663256309981
 30
0.0
 11
68.650241630599339
 21
135.4961669895998
 31
0.0
  0
LINE
  8
DETAIL
  6
CONTINUOUS
 62
     5
 10
68.650241630599339
 20
135.4961669895998
 30
0.0
 11
68.564495631399041
 21
135.67923231669999
 31
0.0
  0
LINE
  8
DETAIL
  6
CONTINUOUS
 62
     5
 10
68.564495631399041
 20
135.67923231669999
 30
0.0
 11
68.464930356299192
 21
135.85385650629979
 31
0.0
  0
LINE
  8
DETAIL
  6
CONTINUOUS
 62
     5
 10
68.464930356299192
 20
135.85385650629979
 30
0.0
 11
68.35239503359935
 21
136.01915080229981
 31
0.0
  0
LINE
  8
DETAIL
  6
CONTINUOUS
 62
     5
 10
68.35239503359935
 20
136.01915080229981
 30
0.0
 11
68.227764298499096
 21
136.17400628319979
 31
0.0
  0
LINE
  8
DETAIL
  6
CONTINUOUS
 62
     5
 10
68.227764298499096
 20
136.17400628319979
 30
0.0
 11
68.091770700199049
 21
136.31769954409981
 31
0.0
  0
LINE
  8
DETAIL
  6
CONTINUOUS
 62
     5
 10
68.091770700199049
 20
136.31769954409981
 30
0.0
 11
67.945417976799035
 21
136.44976936059979
 31
0.0
  0
LINE
  8
DETAIL
  6
CONTINUOUS
 62
     5
 10
67.945417976799035
 20
136.44976936059979
 30
0.0
 11
67.789680635299192
 21
136.56971466499991
 31
0.0
  0
LINE
  8
DETAIL
  6
CONTINUOUS
 62
     5
 10
67.789680635299192
 20
136.56971466499991
 30
0.0
 11
67.625380923799185
 21
136.67700150719989
 31
0.0
  0
LINE
  8
DETAIL
  6
CONTINUOUS
 62
     5
 10
67.625380923799185
 20
136.67700150719989
 30
0.0
 11
67.453356512299251
 21
136.7709518264999
 31
0.0
  0
LINE
  8
DETAIL
  6
CONTINUOUS
 62
     5
 10
67.453356512299251
 20
136.7709518264999
 30
0.0
 11
67.274407495298874
 21
136.8509355330998
 31
0.0
  0
LINE
  8
DETAIL
  6
CONTINUOUS
 62
     5
 10
67.274407495298874
 20
136.8509355330998
 30
0.0
 11
67.089520253399314
 21
136.91668317359981
 31
0.0
  0
LINE
  8
DETAIL
  6
CONTINUOUS
 62
     5
 10
67.089520253399314
 20
136.91668317359981
 30
0.0
 11
66.899745500499193
 21
136.96794499739991
 31
0.0
  0
LINE
  8
DETAIL
  6
CONTINUOUS
 62
     5
 10
66.899745500499193
 20
136.96794499739991
 30
0.0
 11
66.706014756699005
 21
137.00439644959991
 31
0.0
  0
LINE
  8
DETAIL
  6
CONTINUOUS
 62
     5
 10
66.706014756699005
 20
137.00439644959991
 30
0.0
 11
66.509323723698799
 21
137.02557474169981
 31
0.0
  0
LINE
  8
DETAIL
  6
CONTINUOUS
 62
     5
 10
66.509323723698799
 20
137.02557474169981
 30
0.0
 11
66.310653826199086
 21
137.03095864239981
 31
0.0
  0
LINE
  8
DETAIL
  6
CONTINUOUS
 62
     5
 10
66.310653826199086
 20
137.03095864239981
 30
0.0
 11
66.11102966739918
 21
137.02039155659989
 31
0.0
  0
LINE
  8
DETAIL
  6
CONTINUOUS
 62
     5
 10
66.11102966739918
 20
137.02039155659989
 30
0.0
 11
65.911854441299511
 21
136.99386235339989
 31
0.0
  0
LINE
  8
DETAIL
  6
CONTINUOUS
 62
     5
 10
65.911854441299511
 20
136.99386235339989
 30
0.0
 11
65.714349733599192
 21
136.95124955729989
 31
0.0
  0
LINE
  8
DETAIL
  6
CONTINUOUS
 62
     5
 10
65.714349733599192
 20
136.95124955729989
 30
0.0
 11
65.520894354899156
 21
136.89264476019969
 31
0.0
  0
LINE
  8
DETAIL
  6
CONTINUOUS
 62
     5
 10
65.520894354899156
 20
136.89264476019969
 30
0.0
 11
65.333511444899159
 21
136.81828209929981
 31
0.0
  0
LINE
  8
DETAIL
  6
CONTINUOUS
 62
     5
 10
65.333511444899159
 20
136.81828209929981
 30
0.0
 11
65.153711815899442
 21
136.72910338209979
 31
0.0
  0
LINE
  8
DETAIL
  6
CONTINUOUS
 62
     5
 10
65.153711815899442
 20
136.72910338209979
 30
0.0
 11
64.982575312499193
 21
136.62635646339979
 31
0.0
  0
LINE
  8
DETAIL
  6
CONTINUOUS
 62
     5
 10
64.982575312499193
 20
136.62635646339979
 30
0.0
 11
64.82130577649923
 21
136.51155255869969
 31
0.0
  0
LINE
  8
DETAIL
  6
CONTINUOUS
 62
     5
 10
64.82130577649923
 20
136.51155255869969
 30
0.0
 11
64.671183323499463
 21
136.38651193469991
 31
0.0
  0
LINE
  8
DETAIL
  6
CONTINUOUS
 62
     5
 10
64.671183323499463
 20
136.38651193469991
 30
0.0
 11
64.532576563899056
 21
136.25243482649989
 31
0.0
  0
LINE
  8
DETAIL
  6
CONTINUOUS
 62
     5
 10
64.532576563899056
 20
136.25243482649989
 30
0.0
 11
64.406096859099307
 21
136.11064705809989
 31
0.0
  0
LINE
  8
DETAIL
  6
CONTINUOUS
 62
     5
 10
64.406096859099307
 20
136.11064705809989
 30
0.0
 11
64.292517713199231
 21
135.96263723219991
 31
0.0
  0
LINE
  8
DETAIL
  6
CONTINUOUS
 62
     5
 10
64.292517713199231
 20
135.96263723219991
 30
0.0
 11
64.192589347599096
 21
135.8098893996999
 31
0.0
  0
LINE
  8
DETAIL
  6
CONTINUOUS
 62
     5
 10
64.192589347599096
 20
135.8098893996999
 30
0.0
 11
64.150626165798712
 21
135.73701812419969
 31
0.0
  0
LINE
  8
DETAIL
  6
CONTINUOUS
 62
     5
 10
67.258819483199204
 20
132.99656961999969
 30
0.0
 11
67.296660548498949
 21
133.08438449599981
 31
0.0
  0
LINE
  8
DETAIL
  6
CONTINUOUS
 62
     5
 10
67.296660548498949
 20
133.08438449599981
 30
0.0
 11
67.330075367899553
 21
133.1784791234999
 31
0.0
  0
LINE
  8
DETAIL
  6
CONTINUOUS
 62
     5
 10
67.330075367899553
 20
133.1784791234999
 30
0.0
 11
67.358006033698985
 21
133.27827136459979
 31
0.0
  0
LINE
  8
DETAIL
  6
CONTINUOUS
 62
     5
 10
67.358006033698985
 20
133.27827136459979
 30
0.0
 11
67.379805107899301
 21
133.3848336379998
 31
0.0
  0
LINE
  8
DETAIL
  6
CONTINUOUS
 62
     5
 10
67.379805107899301
 20
133.3848336379998
 30
0.0
 11
67.394445470798928
 21
133.4994977531999
 31
0.0
  0
LINE
  8
DETAIL
  6
CONTINUOUS
 62
     5
 10
67.394445470798928
 20
133.4994977531999
 30
0.0
 11
67.40031520679895
 21
133.62021362369981
 31
0.0
  0
LINE
  8
DETAIL
  6
CONTINUOUS
 62
     5
 10
67.40031520679895
 20
133.62021362369981
 30
0.0
 11
67.396217281899226
 21
133.7455035565998
 31
0.0
  0
LINE
  8
DETAIL
  6
CONTINUOUS
 62
     5
 10
67.396217281899226
 20
133.7455035565998
 30
0.0
 11
67.381185171298966
 21
133.87385674759969
 31
0.0
  0
LINE
  8
DETAIL
  6
CONTINUOUS
 62
     5
 10
67.381185171298966
 20
133.87385674759969
 30
0.0
 11
67.354394315098943
 21
134.00392227379979
 31
0.0
  0
LINE
  8
DETAIL
  6
CONTINUOUS
 62
     5
 10
67.354394315098943
 20
134.00392227379979
 30
0.0
 11
67.315611190499112
 21
134.1328414919
 31
0.0
  0
LINE
  8
DETAIL
  6
CONTINUOUS
 62
     5
 10
67.315611190499112
 20
134.1328414919
 30
0.0
 11
67.26524265649914
 21
134.2578275235999
 31
0.0
  0
LINE
  8
DETAIL
  6
CONTINUOUS
 62
     5
 10
67.26524265649914
 20
134.2578275235999
 30
0.0
 11
67.203720495399466
 21
134.37779662029979
 31
0.0
  0
LINE
  8
DETAIL
  6
CONTINUOUS
 62
     5
 10
67.203720495399466
 20
134.37779662029979
 30
0.0
 11
67.132059777699396
 21
134.4911544379998
 31
0.0
  0
LINE
  8
DETAIL
  6
CONTINUOUS
 62
     5
 10
67.132059777699396
 20
134.4911544379998
 30
0.0
 11
67.050650457099437
 21
134.59756352039989
 31
0.0
  0
LINE
  8
DETAIL
  6
CONTINUOUS
 62
     5
 10
67.050650457099437
 20
134.59756352039989
 30
0.0
 11
66.959699534399078
 21
134.6966307285999
 31
0.0
  0
LINE
  8
DETAIL
  6
CONTINUOUS
 62
     5
 10
66.959699534399078
 20
134.6966307285999
 30
0.0
 11
66.860667447199376
 21
134.7867984495999
 31
0.0
  0
LINE
  8
DETAIL
  6
CONTINUOUS
 62
     5
 10
66.860667447199376
 20
134.7867984495999
 30
0.0
 11
66.754875188598817
 21
134.86721788169979
 31
0.0
  0
LINE
  8
DETAIL
  6
CONTINUOUS
 62
     5
 10
66.754875188598817
 20
134.86721788169979
 30
0.0
 11
66.644203738599117
 21
134.93696348889989
 31
0.0
  0
LINE
  8
DETAIL
  6
CONTINUOUS
 62
     5
 10
66.644203738599117
 20
134.93696348889989
 30
0.0
 11
66.530478389298878
 21
134.99556841239979
 31
0.0
  0
LINE
  8
DETAIL
  6
CONTINUOUS
 62
     5
 10
66.530478389298878
 20
134.99556841239979
 30
0.0
 11
66.415956884199204
 21
135.04283202219989
 31
0.0
  0
LINE
  8
DETAIL
  6
CONTINUOUS
 62
     5
 10
66.415956884199204
 20
135.04283202219989
 30
0.0
 11
66.303330967799411
 21
135.0790025728999
 31
0.0
  0
LINE
  8
DETAIL
  6
CONTINUOUS
 62
     5
 10
66.303330967799411
 20
135.0790025728999
 30
0.0
 11
66.193487154999275
 21
135.10518553059981
 31
0.0
  0
LINE
  8
DETAIL
  6
CONTINUOUS
 62
     5
 10
66.193487154999275
 20
135.10518553059981
 30
0.0
 11
66.087651020198791
 21
135.12235870539979
 31
0.0
  0
LINE
  8
DETAIL
  6
CONTINUOUS
 62
     5
 10
66.087651020198791
 20
135.12235870539979
 30
0.0
 11
65.986513239698979
 21
135.13160972599999
 31
0.0
  0
LINE
  8
DETAIL
  6
CONTINUOUS
 62
     5
 10
65.986513239698979
 20
135.13160972599999
 30
0.0
 11
65.890857758398852
 21
135.13403181119969
 31
0.0
  0
LINE
  8
DETAIL
  6
CONTINUOUS
 62
     5
 10
65.890857758398852
 20
135.13403181119969
 30
0.0
 11
65.800764701999469
 21
135.13073186379989
 31
0.0
  0
LINE
  8
DETAIL
  6
CONTINUOUS
 62
     5
 10
65.800764701999469
 20
135.13073186379989
 30
0.0
 11
65.716533795799023
 21
135.12271978219991
 31
0.0
  0
LINE
  8
DETAIL
  6
CONTINUOUS
 62
     5
 10
65.716533795799023
 20
135.12271978219991
 30
0.0
 11
65.637546717999157
 21
135.1108025594998
 31
0.0
  0
LINE
  8
DETAIL
  6
CONTINUOUS
 62
     5
 10
65.637546717999157
 20
135.1108025594998
 30
0.0
 11
65.563365956699272
 21
135.0956204230998
 31
0.0
  0
LINE
  8
DETAIL
  6
CONTINUOUS
 62
     5
 10
65.563365956699272
 20
135.0956204230998
 30
0.0
 11
65.493328368799212
 21
135.07760975859989
 31
0.0
  0
LINE
  8
DETAIL
  6
CONTINUOUS
 62
     5
 10
65.493328368799212
 20
135.07760975859989
 30
0.0
 11
65.426742127699072
 21
135.05703137109981
 31
0.0
  0
LINE
  8
DETAIL
  6
CONTINUOUS
 62
     5
 10
65.426742127699072
 20
135.05703137109981
 30
0.0
 11
65.36313547519876
 21
135.03409542869991
 31
0.0
  0
LINE
  8
DETAIL
  6
CONTINUOUS
 62
     5
 10
65.36313547519876
 20
135.03409542869991
 30
0.0
 11
65.301987695099342
 21
135.00889915929989
 31
0.0
  0
LINE
  8
DETAIL
  6
CONTINUOUS
 62
     5
 10
65.301987695099342
 20
135.00889915929989
 30
0.0
 11
65.242792970298979
 21
134.98142367019969
 31
0.0
  0
LINE
  8
DETAIL
  6
CONTINUOUS
 62
     5
 10
65.242792970298979
 20
134.98142367019969
 30
0.0
 11
65.184864446498977
 21
134.9514298446999
 31
0.0
  0
LINE
  8
DETAIL
  6
CONTINUOUS
 62
     5
 10
65.184864446498977
 20
134.9514298446999
 30
0.0
 11
65.128373797098902
 21
134.9190263628
 31
0.0
  0
LINE
  8
DETAIL
  6
CONTINUOUS
 62
     5
 10
65.128373797098902
 20
134.9190263628
 30
0.0
 11
65.073216800299178
 21
134.88415729799979
 31
0.0
  0
LINE
  8
DETAIL
  6
CONTINUOUS
 62
     5
 10
65.073216800299178
 20
134.88415729799979
 30
0.0
 11
65.019577948999085
 21
134.8469277222998
 31
0.0
  0
LINE
  8
DETAIL
  6
CONTINUOUS
 62
     5
 10
65.019577948999085
 20
134.8469277222998
 30
0.0
 11
64.967584357199485
 21
134.80741968989989
 31
0.0
  0
LINE
  8
DETAIL
  6
CONTINUOUS
 62
     5
 10
64.967584357199485
 20
134.80741968989989
 30
0.0
 11
64.917284140598895
 21
134.7656569883998
 31
0.0
  0
LINE
  8
DETAIL
  6
CONTINUOUS
 62
     5
 10
64.917284140598895
 20
134.7656569883998
 30
0.0
 11
64.868784028099071
 21
134.7217068287998
 31
0.0
  0
LINE
  8
DETAIL
  6
CONTINUOUS
 62
     5
 10
64.868784028099071
 20
134.7217068287998
 30
0.0
 11
64.822042691399474
 21
134.67548959929991
 31
0.0
  0
LINE
  8
DETAIL
  6
CONTINUOUS
 62
     5
 10
64.822042691399474
 20
134.67548959929991
 30
0.0
 11
64.777326002798873
 21
134.62722407369981
 31
0.0
  0
LINE
  8
DETAIL
  6
CONTINUOUS
 62
     5
 10
64.777326002798873
 20
134.62722407369981
 30
0.0
 11
64.733904331599206
 21
134.57596907199991
 31
0.0
  0
LINE
  8
DETAIL
  6
CONTINUOUS
 62
     5
 10
64.733904331599206
 20
134.57596907199991
 30
0.0
 11
64.691440287899241
 21
134.52092344779979
 31
0.0
  0
LINE
  8
DETAIL
  6
CONTINUOUS
 62
     5
 10
64.691440287899241
 20
134.52092344779979
 30
0.0
 11
64.649736787398979
 21
134.46116569789979
 31
0.0
  0
LINE
  8
DETAIL
  6
CONTINUOUS
 62
     5
 10
64.649736787398979
 20
134.46116569789979
 30
0.0
 11
64.608529503298996
 21
134.39524996309979
 31
0.0
  0
LINE
  8
DETAIL
  6
CONTINUOUS
 62
     5
 10
64.608529503298996
 20
134.39524996309979
 30
0.0
 11
64.568697693299328
 21
134.32319087619979
 31
0.0
  0
LINE
  8
DETAIL
  6
CONTINUOUS
 62
     5
 10
290.0549699996991
 20
638.23084811880005
 30
0.0
 11
290.05829783019908
 21
638.23847652349991
 31
0.0
  0
LINE
  8
DETAIL
  6
CONTINUOUS
 62
     5
 10
290.05829783019908
 20
638.23847652349991
 30
0.0
 11
290.07969215499912
 21
638.27529542349976
 31
0.0
  0
LINE
  8
DETAIL
  6
CONTINUOUS
 62
     5
 10
290.07969215499912
 20
638.27529542349976
 30
0.0
 11
290.10463076569943
 21
638.30762985739989
 31
0.0
  0
LINE
  8
DETAIL
  6
CONTINUOUS
 62
     5
 10
290.10463076569943
 20
638.30762985739989
 30
0.0
 11
290.13319966639938
 21
638.33534673079976
 31
0.0
  0
LINE
  8
DETAIL
  6
CONTINUOUS
 62
     5
 10
290.13319966639938
 20
638.33534673079976
 30
0.0
 11
290.16553277469939
 21
638.35830796969969
 31
0.0
  0
LINE
  8
DETAIL
  6
CONTINUOUS
 62
     5
 10
290.16553277469939
 20
638.35830796969969
 30
0.0
 11
290.20173375389908
 21
638.37638412709998
 31
0.0
  0
LINE
  8
DETAIL
  6
CONTINUOUS
 62
     5
 10
290.20173375389908
 20
638.37638412709998
 30
0.0
 11
290.24197937109909
 21
638.38943596509989
 31
0.0
  0
LINE
  8
DETAIL
  6
CONTINUOUS
 62
     5
 10
290.24197937109909
 20
638.38943596509989
 30
0.0
 11
290.28650736299909
 21
638.39734337819971
 31
0.0
  0
LINE
  8
DETAIL
  6
CONTINUOUS
 62
     5
 10
290.28650736299909
 20
638.39734337819971
 30
0.0
 11
290.33523848409902
 21
638.39999999999986
 31
0.0
  0
LINE
  8
DETAIL
  6
CONTINUOUS
 62
     5
 10
66.712300537199098
 20
129.13025906039979
 30
0.0
 11
68.634989873499308
 21
133.52557467309981
 31
0.0
  0
LINE
  8
DETAIL
  6
CONTINUOUS
 62
     5
 10
65.627247588398859
 20
129.5213318475999
 30
0.0
 11
67.258819483199204
 21
132.99656961999969
 31
0.0
  0
LINE
  8
DETAIL
  6
CONTINUOUS
 62
     5
 10
64.568697693299328
 20
134.32319087619979
 30
0.0
 11
62.71543198749896
 21
130.74032919579989
 31
0.0
  0
LINE
  8
DETAIL
  6
CONTINUOUS
 62
     5
 10
-296.74730880650083
 20
-353.2526911934001
 30
0.0
 11
-341.89948998630098
 21
-398.40487237320019
 31
0.0
  0
LINE
  8
DETAIL
  6
CONTINUOUS
 62
     5
 10
-303.25269119350099
 20
-346.74730880650031
 30
0.0
 11
-348.83931971770062
 21
-392.33393733080021
 31
0.0
  0
LINE
  8
DETAIL
  6
CONTINUOUS
 62
     5
 10
-349.21592703700122
 20
-391.99588729880008
 30
0.0
 11
-217.8074064766428
 21
-260.58736673833971
 31
0.0
  0
LINE
  8
DETAIL
  6
CONTINUOUS
 62
     5
 10
391.99588729909919
 20
349.21592703739981
 30
0.0
 11
384.91272598259911
 21
342.13276572080002
 31
0.0
  0
LINE
  8
DETAIL
  6
CONTINUOUS
 62
     5
 10
-218.1493343048927
 20
-262.18851796633243
 30
0.0
 11
-234.69966708940089
 21
-278.62563171810012
 31
0.0
  0
LINE
  8
DETAIL
  6
CONTINUOUS
 62
     5
 10
-234.69966708940089
 20
-278.62563171810012
 30
0.0
 11
-241.56070921390071
 21
-285.43395051220023
 31
0.0
  0
LINE
  8
DETAIL
  6
CONTINUOUS
 62
     5
 10
-241.56070921390071
 20
-285.43395051220023
 30
0.0
 11
-248.42366027240041
 21
-292.24053470550012
 31
0.0
  0
LINE
  8
DETAIL
  6
CONTINUOUS
 62
     5
 10
-248.42366027240041
 20
-292.24053470550012
 30
0.0
 11
-255.28732610520089
 21
-299.04635551609999
 31
0.0
  0
LINE
  8
DETAIL
  6
CONTINUOUS
 62
     5
 10
-255.28732610520089
 20
-299.04635551609999
 30
0.0
 11
-262.15051255230082
 21
-305.85238416229998
 31
0.0
  0
LINE
  8
DETAIL
  6
CONTINUOUS
 62
     5
 10
-262.15051255230082
 20
-305.85238416229998
 30
0.0
 11
-269.01202545420068
 21
-312.6595918622001
 31
0.0
  0
LINE
  8
DETAIL
  6
CONTINUOUS
 62
     5
 10
-269.01202545420068
 20
-312.6595918622001
 30
0.0
 11
-275.87067065110062
 21
-319.46894983419998
 31
0.0
  0
LINE
  8
DETAIL
  6
CONTINUOUS
 62
     5
 10
-275.87067065110062
 20
-319.46894983419998
 30
0.0
 11
-282.72525398320067
 21
-326.2814292963003
 31
0.0
  0
LINE
  8
DETAIL
  6
CONTINUOUS
 62
     5
 10
-282.72525398320067
 20
-326.2814292963003
 30
0.0
 11
-289.57458129080078
 21
-333.09800146700007
 31
0.0
  0
LINE
  8
DETAIL
  6
CONTINUOUS
 62
     5
 10
-289.57458129080078
 20
-333.09800146700007
 30
0.0
 11
-296.41745841410102
 21
-339.91963756430027
 31
0.0
  0
LINE
  8
DETAIL
  6
CONTINUOUS
 62
     5
 10
-296.41745841410102
 20
-339.91963756430027
 30
0.0
 11
-303.25269119350099
 21
-346.74730880650031
 31
0.0
  0
LINE
  8
DETAIL
  6
CONTINUOUS
 62
     5
 10
-221.4959662143668
 20
-278.48649588375667
 30
0.0
 11
-236.49615577540089
 21
-293.36921018820021
 31
0.0
  0
LINE
  8
DETAIL
  6
CONTINUOUS
 62
     5
 10
-256.61457630860059
 20
-313.31978846200002
 30
0.0
 11
-263.3167234187008
 21
-319.9693070271
 31
0.0
  0
LINE
  8
DETAIL
  6
CONTINUOUS
 62
     5
 10
-263.3167234187008
 20
-319.9693070271
 30
0.0
 11
-270.01501465590081
 21
-326.62000137670009
 31
0.0
  0
LINE
  8
DETAIL
  6
CONTINUOUS
 62
     5
 10
-270.01501465590081
 20
-326.62000137670009
 30
0.0
 11
-276.70833441670129
 21
-333.27277923960042
 31
0.0
  0
LINE
  8
DETAIL
  6
CONTINUOUS
 62
     5
 10
-276.70833441670129
 20
-333.27277923960042
 30
0.0
 11
-283.39556709780072
 21
-339.92854834420018
 31
0.0
  0
LINE
  8
DETAIL
  6
CONTINUOUS
 62
     5
 10
-283.39556709780072
 20
-339.92854834420018
 30
0.0
 11
-290.0755970955006
 21
-346.5882164193003
 31
0.0
  0
LINE
  8
DETAIL
  6
CONTINUOUS
 62
     5
 10
-290.0755970955006
 20
-346.5882164193003
 30
0.0
 11
-296.74730880650083
 21
-353.2526911934001
 31
0.0
  0
LINE
  8
DETAIL
  6
CONTINUOUS
 62
     5
 10
-236.49615577540089
 20
-293.36921018820021
 30
0.0
 11
-256.61457630860059
 21
-313.31978846200002
 31
0.0
  0
LINE
  8
DETAIL
  6
CONTINUOUS
 62
     5
 10
-145.87268483720069
 20
-30.544985633500001
 30
0.0
 11
-141.89679987520049
 21
-29.833238965100008
 31
0.0
  0
LINE
  8
DETAIL
  6
CONTINUOUS
 62
     5
 10
-146.73984358650071
 20
-31.737347572200061
 30
0.0
 11
-141.66348806030049
 21
-30.967217485300012
 31
0.0
  0
LINE
  8
DETAIL
  6
CONTINUOUS
 62
     5
 10
-148.61164446280051
 20
-11.243462946399969
 30
0.0
 11
-144.58216224070111
 21
-11.057007281100031
 31
0.0
  0
LINE
  8
DETAIL
  6
CONTINUOUS
 62
     5
 10
-149.6270190124005
 20
-12.312437133800129
 30
0.0
 11
-144.47838223790089
 21
-12.21119431630007
 31
0.0
  0
LINE
  8
DETAIL
  6
CONTINUOUS
 62
     5
 10
638.23084981469947
 20
-290.05497528440009
 30
0.0
 11
638.23851141019895
 21
-290.05831889590007
 31
0.0
  0
LINE
  8
DETAIL
  6
CONTINUOUS
 62
     5
 10
638.23851141019895
 20
-290.05831889590007
 30
0.0
 11
638.27532918219913
 21
-290.07971637529999
 31
0.0
  0
LINE
  8
DETAIL
  6
CONTINUOUS
 62
     5
 10
638.27532918219913
 20
-290.07971637529999
 30
0.0
 11
638.30766547359929
 21
-290.1046605865003
 31
0.0
  0
LINE
  8
DETAIL
  6
CONTINUOUS
 62
     5
 10
638.30766547359929
 20
-290.1046605865003
 30
0.0
 11
638.33538036409936
 21
-290.13323761240008
 31
0.0
  0
LINE
  8
DETAIL
  6
CONTINUOUS
 62
     5
 10
638.33538036409936
 20
-290.13323761240008
 30
0.0
 11
638.35833425149951
 21
-290.1655729711
 31
0.0
  0
LINE
  8
DETAIL
  6
CONTINUOUS
 62
     5
 10
638.35833425149951
 20
-290.1655729711
 30
0.0
 11
638.37639493479901
 21
-290.20175559930021
 31
0.0
  0
LINE
  8
DETAIL
  6
CONTINUOUS
 62
     5
 10
638.37639493479901
 20
-290.20175559930021
 30
0.0
 11
638.38943690279928
 21
-290.24198132430018
 31
0.0
  0
LINE
  8
DETAIL
  6
CONTINUOUS
 62
     5
 10
638.38943690279928
 20
-290.24198132430018
 30
0.0
 11
638.39734289679927
 21
-290.28650380340008
 31
0.0
  0
LINE
  8
DETAIL
  6
CONTINUOUS
 62
     5
 10
638.39734289679927
 20
-290.28650380340008
 30
0.0
 11
638.3999999999993
 21
-290.33523848409999
 31
0.0
  0
LINE
  8
DETAIL
  6
CONTINUOUS
 62
     5
 10
-15.000000000000909
 20
-8.6602540378000867
 30
0.0
 11
-0.0000000000009095
 21
-17.320508075700101
 31
0.0
  0
LINE
  8
DETAIL
  6
CONTINUOUS
 62
     5
 10
-391.99588729910101
 20
349.21592703739992
 30
0.0
 11
-384.91292714840063
 21
342.13296688659989
 31
0.0
  0
LINE
  8
DETAIL
  6
CONTINUOUS
 62
     5
 10
349.21592703699929
 20
-391.99588729880008
 30
0.0
 11
79.06247531219924
 21
-121.84243557400031
 31
0.0
  0
LINE
  8
DETAIL
  6
CONTINUOUS
 62
     5
 10
-290.05496999970092
 20
-638.23084811870012
 30
0.0
 11
-290.05829783030089
 21
-638.2384765234001
 31
0.0
  0
LINE
  8
DETAIL
  6
CONTINUOUS
 62
     5
 10
-290.05829783030089
 20
-638.2384765234001
 30
0.0
 11
-290.07969215500088
 21
-638.27529542340028
 31
0.0
  0
LINE
  8
DETAIL
  6
CONTINUOUS
 62
     5
 10
-290.07969215500088
 20
-638.27529542340028
 30
0.0
 11
-290.10463076570068
 21
-638.30762985730018
 31
0.0
  0
LINE
  8
DETAIL
  6
CONTINUOUS
 62
     5
 10
-290.10463076570068
 20
-638.30762985730018
 30
0.0
 11
-290.1331996664012
 21
-638.3353467308001
 31
0.0
  0
LINE
  8
DETAIL
  6
CONTINUOUS
 62
     5
 10
-290.1331996664012
 20
-638.3353467308001
 30
0.0
 11
-290.16553277470058
 21
-638.35830796960011
 31
0.0
  0
LINE
  8
DETAIL
  6
CONTINUOUS
 62
     5
 10
-290.16553277470058
 20
-638.35830796960011
 30
0.0
 11
-290.2017337539009
 21
-638.3763841271001
 31
0.0
  0
LINE
  8
DETAIL
  6
CONTINUOUS
 62
     5
 10
-290.2017337539009
 20
-638.3763841271001
 30
0.0
 11
-290.24197937110063
 21
-638.3894359650003
 31
0.0
  0
LINE
  8
DETAIL
  6
CONTINUOUS
 62
     5
 10
-290.24197937110063
 20
-638.3894359650003
 30
0.0
 11
-290.28650736300119
 21
-638.39734337810012
 31
0.0
  0
LINE
  8
DETAIL
  6
CONTINUOUS
 62
     5
 10
-290.28650736300119
 20
-638.39734337810012
 30
0.0
 11
-290.3352384841009
 21
-638.40000000000032
 31
0.0
  0
LINE
  8
DETAIL
  6
CONTINUOUS
 62
     5
 10
64.150626165798712
 20
135.73701812419969
 30
0.0
 11
61.663986642199227
 21
131.22754649519979
 31
0.0
  0
LINE
  8
DETAIL
  6
CONTINUOUS
 62
     5
 10
-232.05699050110061
 20
-184.47092822790009
 30
0.0
 11
-234.53012889650111
 21
-186.9475359976
 31
0.0
  0
LINE
  8
DETAIL
  6
CONTINUOUS
 62
     5
 10
-391.99588729910101
 20
-349.21592703729988
 30
0.0
 11
-232.12907877910081
 21
-189.34911851730001
 31
0.0
  0
LINE
  8
DETAIL
  6
CONTINUOUS
 62
     5
 10
-229.65380525040109
 20
-186.87384498860001
 30
0.0
 11
-186.2263765592366
 21
-143.446416297307
 31
0.0
  0
LINE
  8
DETAIL
  6
CONTINUOUS
 62
     5
 10
349.21592703699929
 20
391.99588729879991
 30
0.0
 11
342.13628810759928
 21
384.91624836949961
 31
0.0
  0
LINE
  8
DETAIL
  6
CONTINUOUS
 62
     5
 10
246.320977783199
 20
289.10093804499979
 30
0.0
 11
84.100755069499428
 21
126.8807153313999
 31
0.0
  0
LINE
  8
DETAIL
  6
CONTINUOUS
 62
     5
 10
-0.0000000000009095
 20
-17.320508075700101
 30
0.0
 11
14.999999999999091
 21
-8.6602540378000867
 31
0.0
  0
LINE
  8
DETAIL
  6
CONTINUOUS
 62
     5
 10
-0.0000000000009095
 20
17.32050807569988
 30
0.0
 11
-15.000000000000909
 21
8.6602540378999038
 31
0.0
  0
LINE
  8
DETAIL
  6
CONTINUOUS
 62
     5
 10
-135.7370181242008
 20
-64.150626165800077
 30
0.0
 11
-135.80219753120079
 21
-64.187990446600111
 31
0.0
  0
LINE
  8
DETAIL
  6
CONTINUOUS
 62
     5
 10
-135.80219753120079
 20
-64.187990446600111
 30
0.0
 11
-135.9549308975011
 21
-64.287071830000045
 31
0.0
  0
LINE
  8
DETAIL
  6
CONTINUOUS
 62
     5
 10
-135.9549308975011
 20
-64.287071830000045
 30
0.0
 11
-136.103099297201
 21
-64.399872994900079
 31
0.0
  0
LINE
  8
DETAIL
  6
CONTINUOUS
 62
     5
 10
-136.103099297201
 20
-64.399872994900079
 30
0.0
 11
-136.2451920930007
 21
-64.525649141000031
 31
0.0
  0
LINE
  8
DETAIL
  6
CONTINUOUS
 62
     5
 10
-136.2451920930007
 20
-64.525649141000031
 30
0.0
 11
-136.37969614290071
 21
-64.663626040600093
 31
0.0
  0
LINE
  8
DETAIL
  6
CONTINUOUS
 62
     5
 10
-136.37969614290071
 20
-64.663626040600093
 30
0.0
 11
-136.50527529020059
 21
-64.81320020950011
 31
0.0
  0
LINE
  8
DETAIL
  6
CONTINUOUS
 62
     5
 10
-136.50527529020059
 20
-64.81320020950011
 30
0.0
 11
-136.62071498250091
 21
-64.97400408850001
 31
0.0
  0
LINE
  8
DETAIL
  6
CONTINUOUS
 62
     5
 10
-136.62071498250091
 20
-64.97400408850001
 30
0.0
 11
-136.72417667750051
 21
-65.144758449200026
 31
0.0
  0
LINE
  8
DETAIL
  6
CONTINUOUS
 62
     5
 10
-136.72417667750051
 20
-65.144758449200026
 30
0.0
 11
-136.8141332066007
 21
-65.324261113700004
 31
0.0
  0
LINE
  8
DETAIL
  6
CONTINUOUS
 62
     5
 10
-136.8141332066007
 20
-65.324261113700004
 30
0.0
 11
-136.88931368800061
 21
-65.511413019700043
 31
0.0
  0
LINE
  8
DETAIL
  6
CONTINUOUS
 62
     5
 10
-136.88931368800061
 20
-65.511413019700043
 30
0.0
 11
-136.94873875120081
 21
-65.704717480900044
 31
0.0
  0
LINE
  8
DETAIL
  6
CONTINUOUS
 62
     5
 10
-136.94873875120081
 20
-65.704717480900044
 30
0.0
 11
-136.99215498650071
 21
-65.902151826700006
 31
0.0
  0
LINE
  8
DETAIL
  6
CONTINUOUS
 62
     5
 10
-136.99215498650071
 20
-65.902151826700006
 30
0.0
 11
-137.01946901410079
 21
-66.10130201000004
 31
0.0
  0
LINE
  8
DETAIL
  6
CONTINUOUS
 62
     5
 10
-137.01946901410079
 20
-66.10130201000004
 30
0.0
 11
-137.0308135318009
 21
-66.300945955700058
 31
0.0
  0
LINE
  8
DETAIL
  6
CONTINUOUS
 62
     5
 10
-137.0308135318009
 20
-66.300945955700058
 30
0.0
 11
-137.02620736560081
 21
-66.499671453199994
 31
0.0
  0
LINE
  8
DETAIL
  6
CONTINUOUS
 62
     5
 10
-137.02620736560081
 20
-66.499671453199994
 30
0.0
 11
-137.00579130500091
 21
-66.696458638900026
 31
0.0
  0
LINE
  8
DETAIL
  6
CONTINUOUS
 62
     5
 10
-137.00579130500091
 20
-66.696458638900026
 30
0.0
 11
-136.97008089330069
 21
-66.890330562000031
 31
0.0
  0
LINE
  8
DETAIL
  6
CONTINUOUS
 62
     5
 10
-136.97008089330069
 20
-66.890330562000031
 30
0.0
 11
-136.9195442281007
 21
-67.080296456500037
 31
0.0
  0
LINE
  8
DETAIL
  6
CONTINUOUS
 62
     5
 10
-136.9195442281007
 20
-67.080296456500037
 30
0.0
 11
-136.8545085945006
 21
-67.265432158300086
 31
0.0
  0
LINE
  8
DETAIL
  6
CONTINUOUS
 62
     5
 10
-136.8545085945006
 20
-67.265432158300086
 30
0.0
 11
-136.77522578360089
 21
-67.444689784500042
 31
0.0
  0
LINE
  8
DETAIL
  6
CONTINUOUS
 62
     5
 10
-136.77522578360089
 20
-67.444689784500042
 30
0.0
 11
-136.6819469788006
 21
-67.617082384600053
 31
0.0
  0
LINE
  8
DETAIL
  6
CONTINUOUS
 62
     5
 10
-136.6819469788006
 20
-67.617082384600053
 30
0.0
 11
-136.5752906955004
 21
-67.781795716399984
 31
0.0
  0
LINE
  8
DETAIL
  6
CONTINUOUS
 62
     5
 10
-136.5752906955004
 20
-67.781795716399984
 30
0.0
 11
-136.45593848250061
 21
-67.937992005299975
 31
0.0
  0
LINE
  8
DETAIL
  6
CONTINUOUS
 62
     5
 10
-136.45593848250061
 20
-67.937992005299975
 30
0.0
 11
-136.32443178780071
 21
-68.084846691099983
 31
0.0
  0
LINE
  8
DETAIL
  6
CONTINUOUS
 62
     5
 10
-136.32443178780071
 20
-68.084846691099983
 30
0.0
 11
-136.18127882720091
 21
-68.221386474200003
 31
0.0
  0
LINE
  8
DETAIL
  6
CONTINUOUS
 62
     5
 10
-136.18127882720091
 20
-68.221386474200003
 30
0.0
 11
-136.02694091150079
 21
-68.346600380500035
 31
0.0
  0
LINE
  8
DETAIL
  6
CONTINUOUS
 62
     5
 10
-136.02694091150079
 20
-68.346600380500035
 30
0.0
 11
-135.8621355840005
 21
-68.459740435800086
 31
0.0
  0
LINE
  8
DETAIL
  6
CONTINUOUS
 62
     5
 10
-135.8621355840005
 20
-68.459740435800086
 30
0.0
 11
-135.68796929750081
 21
-68.559943599100052
 31
0.0
  0
LINE
  8
DETAIL
  6
CONTINUOUS
 62
     5
 10
-135.68796929750081
 20
-68.559943599100052
 30
0.0
 11
-135.5053372513012
 21
-68.646369843100047
 31
0.0
  0
LINE
  8
DETAIL
  6
CONTINUOUS
 62
     5
 10
-135.5053372513012
 20
-68.646369843100047
 30
0.0
 11
-135.31618244030051
 21
-68.717643704400075
 31
0.0
  0
LINE
  8
DETAIL
  6
CONTINUOUS
 62
     5
 10
-135.31618244030051
 20
-68.717643704400075
 30
0.0
 11
-135.12225246300071
 21
-68.772719327000118
 31
0.0
  0
LINE
  8
DETAIL
  6
CONTINUOUS
 62
     5
 10
-135.12225246300071
 20
-68.772719327000118
 30
0.0
 11
-134.9253192635006
 21
-68.811424172900047
 31
0.0
  0
LINE
  8
DETAIL
  6
CONTINUOUS
 62
     5
 10
-134.9253192635006
 20
-68.811424172900047
 30
0.0
 11
-134.72699918580079
 21
-68.834090864100048
 31
0.0
  0
LINE
  8
DETAIL
  6
CONTINUOUS
 62
     5
 10
-134.72699918580079
 20
-68.834090864100048
 30
0.0
 11
-134.52916727160121
 21
-68.841185475999964
 31
0.0
  0
LINE
  8
DETAIL
  6
CONTINUOUS
 62
     5
 10
-134.52916727160121
 20
-68.841185475999964
 30
0.0
 11
-134.3339472132011
 21
-68.833372838400123
 31
0.0
  0
LINE
  8
DETAIL
  6
CONTINUOUS
 62
     5
 10
-134.3339472132011
 20
-68.833372838400123
 30
0.0
 11
-134.14236210550101
 21
-68.811380765700051
 31
0.0
  0
LINE
  8
DETAIL
  6
CONTINUOUS
 62
     5
 10
-134.14236210550101
 20
-68.811380765700051
 30
0.0
 11
-133.95570408460071
 21
-68.775888931899999
 31
0.0
  0
LINE
  8
DETAIL
  6
CONTINUOUS
 62
     5
 10
-133.95570408460071
 20
-68.775888931899999
 30
0.0
 11
-133.77549301670101
 21
-68.727607445300009
 31
0.0
  0
LINE
  8
DETAIL
  6
CONTINUOUS
 62
     5
 10
-133.77549301670101
 20
-68.727607445300009
 30
0.0
 11
-133.60322752530101
 21
-68.66725697679999
 31
0.0
  0
LINE
  8
DETAIL
  6
CONTINUOUS
 62
     5
 10
-133.60322752530101
 20
-68.66725697679999
 30
0.0
 11
-133.52557467310089
 21
-68.63498987349999
 31
0.0
  0
LINE
  8
DETAIL
  6
CONTINUOUS
 62
     5
 10
-134.3231908762009
 20
-64.56869769330001
 30
0.0
 11
-134.40667052110069
 21
-64.615329737500019
 31
0.0
  0
LINE
  8
DETAIL
  6
CONTINUOUS
 62
     5
 10
-134.40667052110069
 20
-64.615329737500019
 30
0.0
 11
-134.49046145960071
 21
-64.669638371200108
 31
0.0
  0
LINE
  8
DETAIL
  6
CONTINUOUS
 62
     5
 10
-134.49046145960071
 20
-64.669638371200108
 30
0.0
 11
-134.57337001390081
 21
-64.731805767100013
 31
0.0
  0
LINE
  8
DETAIL
  6
CONTINUOUS
 62
     5
 10
-134.57337001390081
 20
-64.731805767100013
 30
0.0
 11
-134.65553538400081
 21
-64.803076867000073
 31
0.0
  0
LINE
  8
DETAIL
  6
CONTINUOUS
 62
     5
 10
-134.65553538400081
 20
-64.803076867000073
 30
0.0
 11
-134.736953455601
 21
-64.885133537600041
 31
0.0
  0
LINE
  8
DETAIL
  6
CONTINUOUS
 62
     5
 10
-134.736953455601
 20
-64.885133537600041
 30
0.0
 11
-134.81509739600099
 21
-64.977330607800013
 31
0.0
  0
LINE
  8
DETAIL
  6
CONTINUOUS
 62
     5
 10
-134.81509739600099
 20
-64.977330607800013
 30
0.0
 11
-134.88811797220109
 21
-65.079224453200013
 31
0.0
  0
LINE
  8
DETAIL
  6
CONTINUOUS
 62
     5
 10
-134.88811797220109
 20
-65.079224453200013
 30
0.0
 11
-134.95432866900049
 21
-65.190204855100092
 31
0.0
  0
LINE
  8
DETAIL
  6
CONTINUOUS
 62
     5
 10
-134.95432866900049
 20
-65.190204855100092
 30
0.0
 11
-135.0122529293007
 21
-65.309702014800109
 31
0.0
  0
LINE
  8
DETAIL
  6
CONTINUOUS
 62
     5
 10
-135.0122529293007
 20
-65.309702014800109
 30
0.0
 11
-135.05996525530099
 21
-65.435590177400059
 31
0.0
  0
LINE
  8
DETAIL
  6
CONTINUOUS
 62
     5
 10
-135.05996525530099
 20
-65.435590177400059
 30
0.0
 11
-135.0960918859009
 21
-65.565410683900041
 31
0.0
  0
LINE
  8
DETAIL
  6
CONTINUOUS
 62
     5
 10
-135.0960918859009
 20
-65.565410683900041
 30
0.0
 11
-135.12031563270099
 21
-65.698040886200033
 31
0.0
  0
LINE
  8
DETAIL
  6
CONTINUOUS
 62
     5
 10
-135.12031563270099
 20
-65.698040886200033
 30
0.0
 11
-135.132471229901
 21
-65.831597970400011
 31
0.0
  0
LINE
  8
DETAIL
  6
CONTINUOUS
 62
     5
 10
-135.132471229901
 20
-65.831597970400011
 30
0.0
 11
-135.13266261860099
 21
-65.965576825700055
 31
0.0
  0
LINE
  8
DETAIL
  6
CONTINUOUS
 62
     5
 10
-135.13266261860099
 20
-65.965576825700055
 30
0.0
 11
-135.1208146956005
 21
-66.099539539900093
 31
0.0
  0
LINE
  8
DETAIL
  6
CONTINUOUS
 62
     5
 10
-135.1208146956005
 20
-66.099539539900093
 30
0.0
 11
-135.09713788900081
 21
-66.231361317400115
 31
0.0
  0
LINE
  8
DETAIL
  6
CONTINUOUS
 62
     5
 10
-135.09713788900081
 20
-66.231361317400115
 30
0.0
 11
-135.06216349570059
 21
-66.359564589000001
 31
0.0
  0
LINE
  8
DETAIL
  6
CONTINUOUS
 62
     5
 10
-135.06216349570059
 20
-66.359564589000001
 30
0.0
 11
-135.01682036670081
 21
-66.482270009600043
 31
0.0
  0
LINE
  8
DETAIL
  6
CONTINUOUS
 62
     5
 10
-135.01682036670081
 20
-66.482270009600043
 30
0.0
 11
-134.96227239790099
 21
-66.597996027500002
 31
0.0
  0
LINE
  8
DETAIL
  6
CONTINUOUS
 62
     5
 10
-134.96227239790099
 20
-66.597996027500002
 30
0.0
 11
-134.900188641901
 21
-66.705209045299966
 31
0.0
  0
LINE
  8
DETAIL
  6
CONTINUOUS
 62
     5
 10
-134.900188641901
 20
-66.705209045299966
 30
0.0
 11
-134.83285573110061
 21
-66.802467386300123
 31
0.0
  0
LINE
  8
DETAIL
  6
CONTINUOUS
 62
     5
 10
-134.83285573110061
 20
-66.802467386300123
 30
0.0
 11
-134.76164995010089
 21
-66.890108399800056
 31
0.0
  0
LINE
  8
DETAIL
  6
CONTINUOUS
 62
     5
 10
-134.76164995010089
 20
-66.890108399800056
 30
0.0
 11
-134.68813886540099
 21
-66.968161752000142
 31
0.0
  0
LINE
  8
DETAIL
  6
CONTINUOUS
 62
     5
 10
-134.68813886540099
 20
-66.968161752000142
 30
0.0
 11
-134.61353253390101
 21
-67.037069859900043
 31
0.0
  0
LINE
  8
DETAIL
  6
CONTINUOUS
 62
     5
 10
-134.61353253390101
 20
-67.037069859900043
 30
0.0
 11
-134.53911841040099
 21
-67.097222796700066
 31
0.0
  0
LINE
  8
DETAIL
  6
CONTINUOUS
 62
     5
 10
-134.53911841040099
 20
-67.097222796700066
 30
0.0
 11
-134.46563390240041
 21
-67.149449950299982
 31
0.0
  0
LINE
  8
DETAIL
  6
CONTINUOUS
 62
     5
 10
-134.46563390240041
 20
-67.149449950299982
 30
0.0
 11
-134.39393158540091
 21
-67.194370065300063
 31
0.0
  0
LINE
  8
DETAIL
  6
CONTINUOUS
 62
     5
 10
-134.39393158540091
 20
-67.194370065300063
 30
0.0
 11
-134.32401217790081
 21
-67.232999783300102
 31
0.0
  0
LINE
  8
DETAIL
  6
CONTINUOUS
 62
     5
 10
-134.32401217790081
 20
-67.232999783300102
 30
0.0
 11
-134.2559183240009
 21
-67.266113370900044
 31
0.0
  0
LINE
  8
DETAIL
  6
CONTINUOUS
 62
     5
 10
-134.2559183240009
 20
-67.266113370900044
 30
0.0
 11
-134.18938957190079
 21
-67.294460732100006
 31
0.0
  0
LINE
  8
DETAIL
  6
CONTINUOUS
 62
     5
 10
-134.18938957190079
 20
-67.294460732100006
 30
0.0
 11
-134.1240358266009
 21
-67.318669935000003
 31
0.0
  0
LINE
  8
DETAIL
  6
CONTINUOUS
 62
     5
 10
-134.1240358266009
 20
-67.318669935000003
 30
0.0
 11
-134.05961075920089
 21
-67.339194905200088
 31
0.0
  0
LINE
  8
DETAIL
  6
CONTINUOUS
 62
     5
 10
-134.05961075920089
 20
-67.339194905200088
 30
0.0
 11
-133.99576044670081
 21
-67.356429770600144
 31
0.0
  0
LINE
  8
DETAIL
  6
CONTINUOUS
 62
     5
 10
-133.99576044670081
 20
-67.356429770600144
 30
0.0
 11
-133.93207209600089
 21
-67.370667464800022
 31
0.0
  0
LINE
  8
DETAIL
  6
CONTINUOUS
 62
     5
 10
-133.93207209600089
 20
-67.370667464800022
 30
0.0
 11
-133.86785522410079
 21
-67.382136414199977
 31
0.0
  0
LINE
  8
DETAIL
  6
CONTINUOUS
 62
     5
 10
-133.86785522410079
 20
-67.382136414199977
 30
0.0
 11
-133.8033121887012
 21
-67.390818332000094
 31
0.0
  0
LINE
  8
DETAIL
  6
CONTINUOUS
 62
     5
 10
-133.8033121887012
 20
-67.390818332000094
 30
0.0
 11
-133.73832625940079
 21
-67.396732295100037
 31
0.0
  0
LINE
  8
DETAIL
  6
CONTINUOUS
 62
     5
 10
-133.73832625940079
 20
-67.396732295100037
 30
0.0
 11
-133.6731077678005
 21
-67.399849350600107
 31
0.0
  0
LINE
  8
DETAIL
  6
CONTINUOUS
 62
     5
 10
-133.6731077678005
 20
-67.399849350600107
 30
0.0
 11
-133.6078075118007
 21
-67.400157214500041
 31
0.0
  0
LINE
  8
DETAIL
  6
CONTINUOUS
 62
     5
 10
-133.6078075118007
 20
-67.400157214500041
 30
0.0
 11
-133.54247814510109
 21
-67.39764546750007
 31
0.0
  0
LINE
  8
DETAIL
  6
CONTINUOUS
 62
     5
 10
-133.54247814510109
 20
-67.39764546750007
 30
0.0
 11
-133.4772452570009
 21
-67.392302459300026
 31
0.0
  0
LINE
  8
DETAIL
  6
CONTINUOUS
 62
     5
 10
-133.4772452570009
 20
-67.392302459300026
 30
0.0
 11
-133.4120275946006
 21
-67.384090188800087
 31
0.0
  0
LINE
  8
DETAIL
  6
CONTINUOUS
 62
     5
 10
-133.4120275946006
 20
-67.384090188800087
 30
0.0
 11
-133.3471692700009
 21
-67.373020368100143
 31
0.0
  0
LINE
  8
DETAIL
  6
CONTINUOUS
 62
     5
 10
-133.3471692700009
 20
-67.373020368100143
 30
0.0
 11
-133.28151847400071
 21
-67.358790480000053
 31
0.0
  0
LINE
  8
DETAIL
  6
CONTINUOUS
 62
     5
 10
-133.28151847400071
 20
-67.358790480000053
 30
0.0
 11
-133.21431983030109
 21
-67.340970322000089
 31
0.0
  0
LINE
  8
DETAIL
  6
CONTINUOUS
 62
     5
 10
-133.21431983030109
 20
-67.340970322000089
 30
0.0
 11
-133.1448560057006
 21
-67.318948794199969
 31
0.0
  0
LINE
  8
DETAIL
  6
CONTINUOUS
 62
     5
 10
-133.1448560057006
 20
-67.318948794199969
 30
0.0
 11
-133.07203711230071
 21
-67.291739730800032
 31
0.0
  0
LINE
  8
DETAIL
  6
CONTINUOUS
 62
     5
 10
-133.07203711230071
 20
-67.291739730800032
 30
0.0
 11
-132.9965696200006
 21
-67.258819483100069
 31
0.0
  0
LINE
  8
DETAIL
  6
CONTINUOUS
 62
     5
 10
-132.84201386750101
 20
-62.554245791799993
 30
0.0
 11
-135.7370181242008
 21
-64.150626165800077
 31
0.0
  0
LINE
  8
DETAIL
  6
CONTINUOUS
 62
     5
 10
-132.5146083256009
 20
-63.633192972100012
 30
0.0
 11
-134.3231908762009
 21
-64.56869769330001
 31
0.0
  0
LINE
  8
DETAIL
  6
CONTINUOUS
 62
     5
 10
-132.9965696200006
 20
-67.258819483100069
 30
0.0
 11
-131.62381044770061
 21
-66.614329686900078
 31
0.0
  0
LINE
  8
DETAIL
  6
CONTINUOUS
 62
     5
 10
-133.52557467310089
 20
-68.63498987349999
 30
0.0
 11
-131.31492955120069
 21
-67.66796402670002
 31
0.0
  0
LINE
  8
DETAIL
  6
CONTINUOUS
 62
     5
 10
-142.94910607940071
 20
-45.884572546900017
 30
0.0
 11
-143.01860488480091
 21
-45.913109551399998
 31
0.0
  0
LINE
  8
DETAIL
  6
CONTINUOUS
 62
     5
 10
-143.01860488480091
 20
-45.913109551399998
 30
0.0
 11
-143.18296431170069
 21
-45.991407575100077
 31
0.0
  0
LINE
  8
DETAIL
  6
CONTINUOUS
 62
     5
 10
-143.18296431170069
 20
-45.991407575100077
 30
0.0
 11
-143.344588616701
 21
-46.083903853300058
 31
0.0
  0
LINE
  8
DETAIL
  6
CONTINUOUS
 62
     5
 10
-143.344588616701
 20
-46.083903853300058
 30
0.0
 11
-143.501882870401
 21
-46.190057135500069
 31
0.0
  0
LINE
  8
DETAIL
  6
CONTINUOUS
 62
     5
 10
-143.501882870401
 20
-46.190057135500069
 30
0.0
 11
-143.6532458188008
 21
-46.309297322100058
 31
0.0
  0
LINE
  8
DETAIL
  6
CONTINUOUS
 62
     5
 10
-143.6532458188008
 20
-46.309297322100058
 30
0.0
 11
-143.79727396580071
 21
-46.441200495300002
 31
0.0
  0
LINE
  8
DETAIL
  6
CONTINUOUS
 62
     5
 10
-143.79727396580071
 20
-46.441200495300002
 30
0.0
 11
-143.9327151736006
 21
-46.585560771399969
 31
0.0
  0
LINE
  8
DETAIL
  6
CONTINUOUS
 62
     5
 10
-143.9327151736006
 20
-46.585560771399969
 30
0.0
 11
-144.0575796559005
 21
-46.74134984370005
 31
0.0
  0
LINE
  8
DETAIL
  6
CONTINUOUS
 62
     5
 10
-144.0575796559005
 20
-46.74134984370005
 30
0.0
 11
-144.17019639370071
 21
-46.907575154900087
 31
0.0
  0
LINE
  8
DETAIL
  6
CONTINUOUS
 62
     5
 10
-144.17019639370071
 20
-46.907575154900087
 30
0.0
 11
-144.26916192130099
 21
-47.083312928400119
 31
0.0
  0
LINE
  8
DETAIL
  6
CONTINUOUS
 62
     5
 10
-144.26916192130099
 20
-47.083312928400119
 30
0.0
 11
-144.35330989020079
 21
-47.267207116000009
 31
0.0
  0
LINE
  8
DETAIL
  6
CONTINUOUS
 62
     5
 10
-144.35330989020079
 20
-47.267207116000009
 30
0.0
 11
-144.42212504700089
 21
-47.457285427700072
 31
0.0
  0
LINE
  8
DETAIL
  6
CONTINUOUS
 62
     5
 10
-144.42212504700089
 20
-47.457285427700072
 30
0.0
 11
-144.47519971430069
 21
-47.651166657500077
 31
0.0
  0
LINE
  8
DETAIL
  6
CONTINUOUS
 62
     5
 10
-144.47519971430069
 20
-47.651166657500077
 30
0.0
 11
-144.51250594210069
 21
-47.847621864900127
 31
0.0
  0
LINE
  8
DETAIL
  6
CONTINUOUS
 62
     5
 10
-144.51250594210069
 20
-47.847621864900127
 30
0.0
 11
-144.53387806490079
 21
-48.045248463500002
 31
0.0
  0
LINE
  8
DETAIL
  6
CONTINUOUS
 62
     5
 10
-144.53387806490079
 20
-48.045248463500002
 30
0.0
 11
-144.53932254850091
 21
-48.243016938200071
 31
0.0
  0
LINE
  8
DETAIL
  6
CONTINUOUS
 62
     5
 10
-144.53932254850091
 20
-48.243016938200071
 30
0.0
 11
-144.52922300820089
 21
-48.439891404200011
 31
0.0
  0
LINE
  8
DETAIL
  6
CONTINUOUS
 62
     5
 10
-144.52922300820089
 20
-48.439891404200011
 30
0.0
 11
-144.50391421600079
 21
-48.63482847260002
 31
0.0
  0
LINE
  8
DETAIL
  6
CONTINUOUS
 62
     5
 10
-144.50391421600079
 20
-48.63482847260002
 30
0.0
 11
-144.4636000295009
 21
-48.826869166400002
 31
0.0
  0
LINE
  8
DETAIL
  6
CONTINUOUS
 62
     5
 10
-144.4636000295009
 20
-48.826869166400002
 30
0.0
 11
-144.4083933095007
 21
-49.014941702200083
 31
0.0
  0
LINE
  8
DETAIL
  6
CONTINUOUS
 62
     5
 10
-144.4083933095007
 20
-49.014941702200083
 30
0.0
 11
-144.33841426740079
 21
-49.198034786900052
 31
0.0
  0
LINE
  8
DETAIL
  6
CONTINUOUS
 62
     5
 10
-144.33841426740079
 20
-49.198034786900052
 30
0.0
 11
-144.25416984740059
 21
-49.375260411900058
 31
0.0
  0
LINE
  8
DETAIL
  6
CONTINUOUS
 62
     5
 10
-144.25416984740059
 20
-49.375260411900058
 30
0.0
 11
-144.1562264159011
 21
-49.545699009800053
 31
0.0
  0
LINE
  8
DETAIL
  6
CONTINUOUS
 62
     5
 10
-144.1562264159011
 20
-49.545699009800053
 30
0.0
 11
-144.045013162201
 21
-49.708462401500007
 31
0.0
  0
LINE
  8
DETAIL
  6
CONTINUOUS
 62
     5
 10
-144.045013162201
 20
-49.708462401500007
 30
0.0
 11
-143.92090691300061
 21
-49.862519278600082
 31
0.0
  0
LINE
  8
DETAIL
  6
CONTINUOUS
 62
     5
 10
-143.92090691300061
 20
-49.862519278600082
 30
0.0
 11
-143.78423307390131
 21
-50.006807103100073
 31
0.0
  0
LINE
  8
DETAIL
  6
CONTINUOUS
 62
     5
 10
-143.78423307390131
 20
-50.006807103100073
 30
0.0
 11
-143.63560541950119
 21
-50.140490641399992
 31
0.0
  0
LINE
  8
DETAIL
  6
CONTINUOUS
 62
     5
 10
-143.63560541950119
 20
-50.140490641399992
 30
0.0
 11
-143.4760082870007
 21
-50.262569815000013
 31
0.0
  0
LINE
  8
DETAIL
  6
CONTINUOUS
 62
     5
 10
-143.4760082870007
 20
-50.262569815000013
 30
0.0
 11
-143.30621957180071
 21
-50.372094936000053
 31
0.0
  0
LINE
  8
DETAIL
  6
CONTINUOUS
 62
     5
 10
-143.30621957180071
 20
-50.372094936000053
 30
0.0
 11
-143.12798611220111
 21
-50.467448696700004
 31
0.0
  0
LINE
  8
DETAIL
  6
CONTINUOUS
 62
     5
 10
-143.12798611220111
 20
-50.467448696700004
 30
0.0
 11
-142.94290404410091
 21
-50.547366081300083
 31
0.0
  0
LINE
  8
DETAIL
  6
CONTINUOUS
 62
     5
 10
-142.94290404410091
 20
-50.547366081300083
 30
0.0
 11
-142.7527076315009
 21
-50.611444742499998
 31
0.0
  0
LINE
  8
DETAIL
  6
CONTINUOUS
 62
     5
 10
-142.7527076315009
 20
-50.611444742499998
 30
0.0
 11
-142.5590428065006
 21
-50.659803481600079
 31
0.0
  0
LINE
  8
DETAIL
  6
CONTINUOUS
 62
     5
 10
-142.5590428065006
 20
-50.659803481600079
 30
0.0
 11
-142.3638294044008
 21
-50.692659644599978
 31
0.0
  0
LINE
  8
DETAIL
  6
CONTINUOUS
 62
     5
 10
-142.3638294044008
 20
-50.692659644599978
 30
0.0
 11
-142.16925972680059
 21
-50.71039517600002
 31
0.0
  0
LINE
  8
DETAIL
  6
CONTINUOUS
 62
     5
 10
-142.16925972680059
 20
-50.71039517600002
 30
0.0
 11
-141.97644311480099
 21
-50.713598123199972
 31
0.0
  0
LINE
  8
DETAIL
  6
CONTINUOUS
 62
     5
 10
-141.97644311480099
 20
-50.713598123199972
 30
0.0
 11
-141.78674936530069
 21
-50.702773687600043
 31
0.0
  0
LINE
  8
DETAIL
  6
CONTINUOUS
 62
     5
 10
-141.78674936530069
 20
-50.702773687600043
 30
0.0
 11
-141.60177802940049
 21
-50.678427520300033
 31
0.0
  0
LINE
  8
DETAIL
  6
CONTINUOUS
 62
     5
 10
-141.60177802940049
 20
-50.678427520300033
 30
0.0
 11
-141.42310897630071
 21
-50.641078517100027
 31
0.0
  0
LINE
  8
DETAIL
  6
CONTINUOUS
 62
     5
 10
-141.42310897630071
 20
-50.641078517100027
 30
0.0
 11
-141.34190875290099
 21
-50.619223194400092
 31
0.0
  0
LINE
  8
DETAIL
  6
CONTINUOUS
 62
     5
 10
-141.6019436040005
 20
-46.483608901699988
 30
0.0
 11
-141.6907957722004
 21
-46.518945722100057
 31
0.0
  0
LINE
  8
DETAIL
  6
CONTINUOUS
 62
     5
 10
-141.6907957722004
 20
-46.518945722100057
 30
0.0
 11
-141.78095856680099
 21
-46.561852825800088
 31
0.0
  0
LINE
  8
DETAIL
  6
CONTINUOUS
 62
     5
 10
-141.78095856680099
 20
-46.561852825800088
 30
0.0
 11
-141.87127230040099
 21
-46.612666633100048
 31
0.0
  0
LINE
  8
DETAIL
  6
CONTINUOUS
 62
     5
 10
-141.87127230040099
 20
-46.612666633100048
 30
0.0
 11
-141.96203747960041
 21
-46.67260326600001
 31
0.0
  0
LINE
  8
DETAIL
  6
CONTINUOUS
 62
     5
 10
-141.96203747960041
 20
-46.67260326600001
 30
0.0
 11
-142.0534695530005
 21
-46.743330739500038
 31
0.0
  0
LINE
  8
DETAIL
  6
CONTINUOUS
 62
     5
 10
-142.0534695530005
 20
-46.743330739500038
 30
0.0
 11
-142.14297909370089
 21
-46.82453922000002
 31
0.0
  0
LINE
  8
DETAIL
  6
CONTINUOUS
 62
     5
 10
-142.14297909370089
 20
-46.82453922000002
 30
0.0
 11
-142.22867478440091
 21
-46.916030251600091
 31
0.0
  0
LINE
  8
DETAIL
  6
CONTINUOUS
 62
     5
 10
-142.22867478440091
 20
-46.916030251600091
 30
0.0
 11
-142.30880488880121
 21
-47.017418970700078
 31
0.0
  0
LINE
  8
DETAIL
  6
CONTINUOUS
 62
     5
 10
-142.30880488880121
 20
-47.017418970700078
 30
0.0
 11
-142.3818311083005
 21
-47.1283331825
 31
0.0
  0
LINE
  8
DETAIL
  6
CONTINUOUS
 62
     5
 10
-142.3818311083005
 20
-47.1283331825
 30
0.0
 11
-142.44556695130089
 21
-47.24691664620002
 31
0.0
  0
LINE
  8
DETAIL
  6
CONTINUOUS
 62
     5
 10
-142.44556695130089
 20
-47.24691664620002
 30
0.0
 11
-142.4983294899007
 21
-47.370911048700009
 31
0.0
  0
LINE
  8
DETAIL
  6
CONTINUOUS
 62
     5
 10
-142.4983294899007
 20
-47.370911048700009
 30
0.0
 11
-142.5396577144011
 21
-47.499244747800049
 31
0.0
  0
LINE
  8
DETAIL
  6
CONTINUOUS
 62
     5
 10
-142.5396577144011
 20
-47.499244747800049
 30
0.0
 11
-142.56914201650079
 21
-47.630072608900043
 31
0.0
  0
LINE
  8
DETAIL
  6
CONTINUOUS
 62
     5
 10
-142.56914201650079
 20
-47.630072608900043
 30
0.0
 11
-142.58681951770089
 21
-47.762880275200018
 31
0.0
  0
LINE
  8
DETAIL
  6
CONTINUOUS
 62
     5
 10
-142.58681951770089
 20
-47.762880275200018
 30
0.0
 11
-142.5925585982009
 21
-47.897243384100079
 31
0.0
  0
LINE
  8
DETAIL
  6
CONTINUOUS
 62
     5
 10
-142.5925585982009
 20
-47.897243384100079
 30
0.0
 11
-142.58629054470109
 21
-48.031027851500077
 31
0.0
  0
LINE
  8
DETAIL
  6
CONTINUOUS
 62
     5
 10
-142.58629054470109
 20
-48.031027851500077
 30
0.0
 11
-142.5683492470007
 21
-48.162699400700028
 31
0.0
  0
LINE
  8
DETAIL
  6
CONTINUOUS
 62
     5
 10
-142.5683492470007
 20
-48.162699400700028
 30
0.0
 11
-142.53941030610079
 21
-48.290273525299988
 31
0.0
  0
LINE
  8
DETAIL
  6
CONTINUOUS
 62
     5
 10
-142.53941030610079
 20
-48.290273525299988
 30
0.0
 11
-142.50043427920079
 21
-48.412129429800068
 31
0.0
  0
LINE
  8
DETAIL
  6
CONTINUOUS
 62
     5
 10
-142.50043427920079
 20
-48.412129429800068
 30
0.0
 11
-142.4528757653006
 21
-48.526528781699987
 31
0.0
  0
LINE
  8
DETAIL
  6
CONTINUOUS
 62
     5
 10
-142.4528757653006
 20
-48.526528781699987
 30
0.0
 11
-142.3988136578009
 21
-48.631743772500037
 31
0.0
  0
LINE
  8
DETAIL
  6
CONTINUOUS
 62
     5
 10
-142.3988136578009
 20
-48.631743772500037
 30
0.0
 11
-142.33965649990071
 21
-48.7279292244001
 31
0.0
  0
LINE
  8
DETAIL
  6
CONTINUOUS
 62
     5
 10
-142.33965649990071
 20
-48.7279292244001
 30
0.0
 11
-142.2769623196009
 21
-48.81490994130013
 31
0.0
  0
LINE
  8
DETAIL
  6
CONTINUOUS
 62
     5
 10
-142.2769623196009
 20
-48.81490994130013
 30
0.0
 11
-142.2119885685006
 21
-48.892966611200109
 31
0.0
  0
LINE
  8
DETAIL
  6
CONTINUOUS
 62
     5
 10
-142.2119885685006
 20
-48.892966611200109
 30
0.0
 11
-142.1460626019007
 21
-48.962317923500002
 31
0.0
  0
LINE
  8
DETAIL
  6
CONTINUOUS
 62
     5
 10
-142.1460626019007
 20
-48.962317923500002
 30
0.0
 11
-142.08002377560069
 21
-49.023689919599967
 31
0.0
  0
LINE
  8
DETAIL
  6
CONTINUOUS
 62
     5
 10
-142.08002377560069
 20
-49.023689919599967
 30
0.0
 11
-142.01479813350079
 21
-49.077584767200051
 31
0.0
  0
LINE
  8
DETAIL
  6
CONTINUOUS
 62
     5
 10
-142.01479813350079
 20
-49.077584767200051
 30
0.0
 11
-141.95051908610091
 21
-49.125010316600083
 31
0.0
  0
LINE
  8
DETAIL
  6
CONTINUOUS
 62
     5
 10
-141.95051908610091
 20
-49.125010316600083
 30
0.0
 11
-141.88732997510121
 21
-49.166728644400109
 31
0.0
  0
LINE
  8
DETAIL
  6
CONTINUOUS
 62
     5
 10
-141.88732997510121
 20
-49.166728644400109
 30
0.0
 11
-141.82507045880081
 21
-49.203517234599992
 31
0.0
  0
LINE
  8
DETAIL
  6
CONTINUOUS
 62
     5
 10
-141.82507045880081
 20
-49.203517234599992
 30
0.0
 11
-141.7634357589009
 21
-49.236049699900043
 31
0.0
  0
LINE
  8
DETAIL
  6
CONTINUOUS
 62
     5
 10
-141.7634357589009
 20
-49.236049699900043
 30
0.0
 11
-141.7022409031006
 21
-49.264808234900102
 31
0.0
  0
LINE
  8
DETAIL
  6
CONTINUOUS
 62
     5
 10
-141.7022409031006
 20
-49.264808234900102
 30
0.0
 11
-141.6411864402007
 21
-49.290229791800023
 31
0.0
  0
LINE
  8
DETAIL
  6
CONTINUOUS
 62
     5
 10
-141.6411864402007
 20
-49.290229791800023
 30
0.0
 11
-141.57990134430079
 21
-49.312658678500043
 31
0.0
  0
LINE
  8
DETAIL
  6
CONTINUOUS
 62
     5
 10
-141.57990134430079
 20
-49.312658678500043
 30
0.0
 11
-141.5177308548009
 21
-49.33241149319997
 31
0.0
  0
LINE
  8
DETAIL
  6
CONTINUOUS
 62
     5
 10
-141.5177308548009
 20
-49.33241149319997
 30
0.0
 11
-141.45487321180099
 21
-49.349443692600047
 31
0.0
  0
LINE
  8
DETAIL
  6
CONTINUOUS
 62
     5
 10
-141.45487321180099
 20
-49.349443692600047
 30
0.0
 11
-141.39121517320109
 21
-49.363789426900098
 31
0.0
  0
LINE
  8
DETAIL
  6
CONTINUOUS
 62
     5
 10
-141.39121517320109
 20
-49.363789426900098
 30
0.0
 11
-141.32696149220101
 21
-49.375392536900108
 31
0.0
  0
LINE
  8
DETAIL
  6
CONTINUOUS
 62
     5
 10
-141.32696149220101
 20
-49.375392536900108
 30
0.0
 11
-141.26226007330069
 21
-49.384221160700008
 31
0.0
  0
LINE
  8
DETAIL
  6
CONTINUOUS
 62
     5
 10
-141.26226007330069
 20
-49.384221160700008
 30
0.0
 11
-141.1971617596009
 21
-49.39025809550003
 31
0.0
  0
LINE
  8
DETAIL
  6
CONTINUOUS
 62
     5
 10
-141.1971617596009
 20
-49.39025809550003
 30
0.0
 11
-141.13178954530079
 21
-49.393475398000078
 31
0.0
  0
LINE
  8
DETAIL
  6
CONTINUOUS
 62
     5
 10
-141.13178954530079
 20
-49.393475398000078
 30
0.0
 11
-141.0660579127007
 21
-49.393845997799993
 31
0.0
  0
LINE
  8
DETAIL
  6
CONTINUOUS
 62
     5
 10
-141.0660579127007
 20
-49.393845997799993
 30
0.0
 11
-141.0003095585007
 21
-49.391336591000027
 31
0.0
  0
LINE
  8
DETAIL
  6
CONTINUOUS
 62
     5
 10
-141.0003095585007
 20
-49.391336591000027
 30
0.0
 11
-140.93336304110059
 21
-49.385797590000038
 31
0.0
  0
LINE
  8
DETAIL
  6
CONTINUOUS
 62
     5
 10
-140.93336304110059
 20
-49.385797590000038
 30
0.0
 11
-140.86441329370061
 21
-49.376901069100093
 31
0.0
  0
LINE
  8
DETAIL
  6
CONTINUOUS
 62
     5
 10
-140.86441329370061
 20
-49.376901069100093
 30
0.0
 11
-140.79266935550081
 21
-49.364134786900081
 31
0.0
  0
LINE
  8
DETAIL
  6
CONTINUOUS
 62
     5
 10
-140.79266935550081
 20
-49.364134786900081
 30
0.0
 11
-140.7169219424004
 21
-49.346663273800118
 31
0.0
  0
LINE
  8
DETAIL
  6
CONTINUOUS
 62
     5
 10
-140.7169219424004
 20
-49.346663273800118
 30
0.0
 11
-140.63780313050071
 21
-49.323875147799981
 31
0.0
  0
LINE
  8
DETAIL
  6
CONTINUOUS
 62
     5
 10
-138.358641946701
 20
-44.088039887200011
 30
0.0
 11
-142.94910607940071
 21
-45.884572546900017
 31
0.0
  0
LINE
  8
DETAIL
  6
CONTINUOUS
 62
     5
 10
-138.0478984373012
 20
-45.200523721600121
 30
0.0
 11
-141.6019436040005
 21
-46.483608901699988
 31
0.0
  0
LINE
  8
DETAIL
  6
CONTINUOUS
 62
     5
 10
-140.63780313050071
 20
-49.323875147799981
 30
0.0
 11
-137.1826549571006
 21
-48.224561252500052
 31
0.0
  0
LINE
  8
DETAIL
  6
CONTINUOUS
 62
     5
 10
-141.34190875290099
 20
-50.619223194400092
 30
0.0
 11
-136.8614274893007
 21
-49.323751874700058
 31
0.0
  0
LINE
  8
DETAIL
  6
CONTINUOUS
 62
     5
 10
-147.33772022510081
 20
1.331187199999931
 30
0.0
 11
-147.10441005830029
 21
0.7129120697999269
 31
0.0
  0
LINE
  8
DETAIL
  6
CONTINUOUS
 62
     5
 10
-144.59846250070089
 20
-10.911274348999999
 30
0.0
 11
-144.6531551308008
 21
-10.3272074322
 31
0.0
  0
LINE
  8
DETAIL
  6
CONTINUOUS
 62
     5
 10
-144.6531551308008
 20
-10.3272074322
 30
0.0
 11
-144.79653535630089
 21
-9.1514790856999753
 31
0.0
  0
LINE
  8
DETAIL
  6
CONTINUOUS
 62
     5
 10
-144.79653535630089
 20
-9.1514790856999753
 30
0.0
 11
-144.97298550490089
 21
-7.9783105893000084
 31
0.0
  0
LINE
  8
DETAIL
  6
CONTINUOUS
 62
     5
 10
-144.97298550490089
 20
-7.9783105893000084
 30
0.0
 11
-145.18222787750071
 21
-6.8098402196000052
 31
0.0
  0
LINE
  8
DETAIL
  6
CONTINUOUS
 62
     5
 10
-145.18222787750071
 20
-6.8098402196000052
 30
0.0
 11
-145.4241537892012
 21
-5.6475238519000186
 31
0.0
  0
LINE
  8
DETAIL
  6
CONTINUOUS
 62
     5
 10
-145.4241537892012
 20
-5.6475238519000186
 30
0.0
 11
-145.69834876380079
 21
-4.492695931700041
 31
0.0
  0
LINE
  8
DETAIL
  6
CONTINUOUS
 62
     5
 10
-145.69834876380079
 20
-4.492695931700041
 30
0.0
 11
-146.00442470430059
 21
-3.3470791969000402
 31
0.0
  0
LINE
  8
DETAIL
  6
CONTINUOUS
 62
     5
 10
-146.00442470430059
 20
-3.3470791969000402
 30
0.0
 11
-146.34219378770101
 21
-2.2109646459000492
 31
0.0
  0
LINE
  8
DETAIL
  6
CONTINUOUS
 62
     5
 10
-146.34219378770101
 20
-2.2109646459000492
 30
0.0
 11
-146.7112991763006
 21
-1.0853256791000381
 31
0.0
  0
LINE
  8
DETAIL
  6
CONTINUOUS
 62
     5
 10
-146.7112991763006
 20
-1.0853256791000381
 30
0.0
 11
-147.1118598162011
 21
0.0301621704999206
 31
0.0
  0
LINE
  8
DETAIL
  6
CONTINUOUS
 62
     5
 10
-147.10441005830029
 20
0.7129120697999269
 30
0.0
 11
-146.7378091199007
 21
1.4286085165999789
 31
0.0
  0
LINE
  8
DETAIL
  6
CONTINUOUS
 62
     5
 10
-636.80000000000052
 20
-299.66476151580008
 30
0.0
 11
-636.95732602620092
 21
-299.70665087539987
 31
0.0
  0
LINE
  8
DETAIL
  6
CONTINUOUS
 62
     5
 10
-636.95732602620092
 20
-299.70665087539987
 30
0.0
 11
-637.11422200640118
 21
-299.74555831749979
 31
0.0
  0
LINE
  8
DETAIL
  6
CONTINUOUS
 62
     5
 10
-637.11422200640118
 20
-299.74555831749979
 30
0.0
 11
-637.27029864510098
 21
-299.78144632379991
 31
0.0
  0
LINE
  8
DETAIL
  6
CONTINUOUS
 62
     5
 10
-637.27029864510098
 20
-299.78144632379991
 30
0.0
 11
-637.425211629101
 21
-299.81442744920008
 31
0.0
  0
LINE
  8
DETAIL
  6
CONTINUOUS
 62
     5
 10
-637.425211629101
 20
-299.81442744920008
 30
0.0
 11
-637.57864672540109
 21
-299.84459549139979
 31
0.0
  0
LINE
  8
DETAIL
  6
CONTINUOUS
 62
     5
 10
-637.57864672540109
 20
-299.84459549139979
 30
0.0
 11
-637.73013957240084
 21
-299.87196920369979
 31
0.0
  0
LINE
  8
DETAIL
  6
CONTINUOUS
 62
     5
 10
-637.73013957240084
 20
-299.87196920369979
 30
0.0
 11
-637.87921229720087
 21
-299.89658257119981
 31
0.0
  0
LINE
  8
DETAIL
  6
CONTINUOUS
 62
     5
 10
-637.87921229720087
 20
-299.89658257119981
 30
0.0
 11
-638.02564024710091
 21
-299.91848369639979
 31
0.0
  0
LINE
  8
DETAIL
  6
CONTINUOUS
 62
     5
 10
-638.02564024710091
 20
-299.91848369639979
 30
0.0
 11
-638.16919247440092
 21
-299.93772472210009
 31
0.0
  0
LINE
  8
DETAIL
  6
CONTINUOUS
 62
     5
 10
-638.16919247440092
 20
-299.93772472210009
 30
0.0
 11
-638.30942326290108
 21
-299.95432751160001
 31
0.0
  0
LINE
  8
DETAIL
  6
CONTINUOUS
 62
     5
 10
-638.30942326290108
 20
-299.95432751160001
 30
0.0
 11
-638.4459124315008
 21
-299.96832187999968
 31
0.0
  0
LINE
  8
DETAIL
  6
CONTINUOUS
 62
     5
 10
-638.4459124315008
 20
-299.96832187999968
 30
0.0
 11
-638.57842627430091
 21
-299.97973611520001
 31
0.0
  0
LINE
  8
DETAIL
  6
CONTINUOUS
 62
     5
 10
-638.57842627430091
 20
-299.97973611520001
 30
0.0
 11
-638.7067296691007
 21
-299.98860920739997
 31
0.0
  0
LINE
  8
DETAIL
  6
CONTINUOUS
 62
     5
 10
-638.7067296691007
 20
-299.98860920739997
 30
0.0
 11
-638.83043375960051
 21
-299.99493886579978
 31
0.0
  0
LINE
  8
DETAIL
  6
CONTINUOUS
 62
     5
 10
-638.83043375960051
 20
-299.99493886579978
 30
0.0
 11
-638.94917996190088
 21
-299.99873592569998
 31
0.0
  0
LINE
  8
DETAIL
  6
CONTINUOUS
 62
     5
 10
-638.94917996190088
 20
-299.99873592569998
 30
0.0
 11
-639.06274169980099
 21
-299.99999999999972
 31
0.0
  0
LINE
  8
DETAIL
  6
CONTINUOUS
 62
     5
 10
-147.1118598162011
 20
0.0301621704999206
 30
0.0
 11
-147.38379549010099
 21
0.732858521599951
 31
0.0
  0
LINE
  8
DETAIL
  6
CONTINUOUS
 62
     5
 10
-147.38379549010099
 20
0.732858521599951
 30
0.0
 11
-147.66637912210081
 21
1.427681075800024
 31
0.0
  0
LINE
  8
DETAIL
  6
CONTINUOUS
 62
     5
 10
-147.10441005830029
 20
0.7129120697999269
 30
0.0
 11
-146.7088121710008
 21
-0.4175524089999954
 31
0.0
  0
LINE
  8
DETAIL
  6
CONTINUOUS
 62
     5
 10
-146.7088121710008
 20
-0.4175524089999954
 30
0.0
 11
-146.34494211310081
 21
-1.5565227647000479
 31
0.0
  0
LINE
  8
DETAIL
  6
CONTINUOUS
 62
     5
 10
-146.34494211310081
 20
-1.5565227647000479
 30
0.0
 11
-146.01272040740059
 21
-2.7043544635999979
 31
0.0
  0
LINE
  8
DETAIL
  6
CONTINUOUS
 62
     5
 10
-146.01272040740059
 20
-2.7043544635999979
 30
0.0
 11
-145.71238548520071
 21
-3.8599811069000221
 31
0.0
  0
LINE
  8
DETAIL
  6
CONTINUOUS
 62
     5
 10
-145.71238548520071
 20
-3.8599811069000221
 30
0.0
 11
-145.44409796290071
 21
-5.0227273731001114
 31
0.0
  0
LINE
  8
DETAIL
  6
CONTINUOUS
 62
     5
 10
-145.44409796290071
 20
-5.0227273731001114
 30
0.0
 11
-145.2080118075009
 21
-6.1917754976000197
 31
0.0
  0
LINE
  8
DETAIL
  6
CONTINUOUS
 62
     5
 10
-145.2080118075009
 20
-6.1917754976000197
 30
0.0
 11
-145.0042730537007
 21
-7.3666533394000453
 31
0.0
  0
LINE
  8
DETAIL
  6
CONTINUOUS
 62
     5
 10
-145.0042730537007
 20
-7.3666533394000453
 30
0.0
 11
-144.83306611420079
 21
-8.5456487068000797
 31
0.0
  0
LINE
  8
DETAIL
  6
CONTINUOUS
 62
     5
 10
-144.83306611420079
 20
-8.5456487068000797
 30
0.0
 11
-144.69465321650071
 21
-9.7266583315000616
 31
0.0
  0
LINE
  8
DETAIL
  6
CONTINUOUS
 62
     5
 10
-144.69465321650071
 20
-9.7266583315000616
 30
0.0
 11
-144.58894695140091
 21
-10.910383303100049
 31
0.0
  0
LINE
  8
DETAIL
  6
CONTINUOUS
 62
     5
 10
-133.60326508480111
 20
-60.066753851800058
 30
0.0
 11
-133.1709904812005
 21
-61.476101065900018
 31
0.0
  0
LINE
  8
DETAIL
  6
CONTINUOUS
 62
     5
 10
-133.1709904812005
 20
-61.476101065900018
 30
0.0
 11
-132.72124108390111
 21
-62.950050643000047
 31
0.0
  0
LINE
  8
DETAIL
  6
CONTINUOUS
 62
     5
 10
-132.72124108390111
 20
-62.950050643000047
 30
0.0
 11
-132.24980172340111
 21
-64.50866209139997
 31
0.0
  0
LINE
  8
DETAIL
  6
CONTINUOUS
 62
     5
 10
-132.24980172340111
 20
-64.50866209139997
 30
0.0
 11
-131.7666922287008
 21
-66.126940687900046
 31
0.0
  0
LINE
  8
DETAIL
  6
CONTINUOUS
 62
     5
 10
-131.7666922287008
 20
-66.126940687900046
 30
0.0
 11
-131.2814733533005
 21
-67.782087624000042
 31
0.0
  0
LINE
  8
DETAIL
  6
CONTINUOUS
 62
     5
 10
-131.2814733533005
 20
-67.782087624000042
 30
0.0
 11
-130.79197465660079
 21
-69.492676127700065
 31
0.0
  0
LINE
  8
DETAIL
  6
CONTINUOUS
 62
     5
 10
-130.79197465660079
 20
-69.492676127700065
 30
0.0
 11
-130.29959350290119
 21
-71.268577704400059
 31
0.0
  0
LINE
  8
DETAIL
  6
CONTINUOUS
 62
     5
 10
-130.29959350290119
 20
-71.268577704400059
 30
0.0
 11
-129.80869138000071
 21
-73.11291806560007
 31
0.0
  0
LINE
  8
DETAIL
  6
CONTINUOUS
 62
     5
 10
-129.80869138000071
 20
-73.11291806560007
 30
0.0
 11
-129.32158706360039
 21
-75.041702980100027
 31
0.0
  0
LINE
  8
DETAIL
  6
CONTINUOUS
 62
     5
 10
-129.32158706360039
 20
-75.041702980100027
 30
0.0
 11
-128.8524423331009
 21
-77.028350996200061
 31
0.0
  0
LINE
  8
DETAIL
  6
CONTINUOUS
 62
     5
 10
-299.66476151590092
 20
636.80000000000007
 30
0.0
 11
-299.70664915520052
 21
636.95732068149994
 31
0.0
  0
LINE
  8
DETAIL
  6
CONTINUOUS
 62
     5
 10
-299.70664915520052
 20
636.95732068149994
 30
0.0
 11
-299.74555699280057
 21
637.1142225015999
 31
0.0
  0
LINE
  8
DETAIL
  6
CONTINUOUS
 62
     5
 10
-299.74555699280057
 20
637.1142225015999
 30
0.0
 11
-299.78144851370052
 21
637.27032122489982
 31
0.0
  0
LINE
  8
DETAIL
  6
CONTINUOUS
 62
     5
 10
-299.78144851370052
 20
637.27032122489982
 30
0.0
 11
-299.81443326330088
 21
637.42525654159999
 31
0.0
  0
LINE
  8
DETAIL
  6
CONTINUOUS
 62
     5
 10
-299.81443326330088
 20
637.42525654159999
 30
0.0
 11
-299.84460084430083
 21
637.57869234100008
 31
0.0
  0
LINE
  8
DETAIL
  6
CONTINUOUS
 62
     5
 10
-299.84460084430083
 20
637.57869234100008
 30
0.0
 11
-299.87197456980078
 21
637.73018874569971
 31
0.0
  0
LINE
  8
DETAIL
  6
CONTINUOUS
 62
     5
 10
-299.87197456980078
 20
637.73018874569971
 30
0.0
 11
-299.89659469670119
 21
637.87930729339996
 31
0.0
  0
LINE
  8
DETAIL
  6
CONTINUOUS
 62
     5
 10
-299.89659469670119
 20
637.87930729339996
 30
0.0
 11
-299.91849999530092
 21
638.02575268709984
 31
0.0
  0
LINE
  8
DETAIL
  6
CONTINUOUS
 62
     5
 10
-299.91849999530092
 20
638.02575268709984
 30
0.0
 11
-299.93772996640109
 21
638.1691928143
 31
0.0
  0
LINE
  8
DETAIL
  6
CONTINUOUS
 62
     5
 10
-299.93772996640109
 20
638.1691928143
 30
0.0
 11
-299.95432267600057
 21
638.3093330628999
 31
0.0
  0
LINE
  8
DETAIL
  6
CONTINUOUS
 62
     5
 10
-299.95432267600057
 20
638.3093330628999
 30
0.0
 11
-299.96832593790077
 21
638.4459177750997
 31
0.0
  0
LINE
  8
DETAIL
  6
CONTINUOUS
 62
     5
 10
-299.96832593790077
 20
638.4459177750997
 30
0.0
 11
-299.97975000900078
 21
638.57852391379981
 31
0.0
  0
LINE
  8
DETAIL
  6
CONTINUOUS
 62
     5
 10
-299.97975000900078
 20
638.57852391379981
 30
0.0
 11
-299.98861749260089
 21
638.70674945089991
 31
0.0
  0
LINE
  8
DETAIL
  6
CONTINUOUS
 62
     5
 10
-299.98861749260089
 20
638.70674945089991
 30
0.0
 11
-299.99493916400058
 21
638.83036804189987
 31
0.0
  0
LINE
  8
DETAIL
  6
CONTINUOUS
 62
     5
 10
-299.99493916400058
 20
638.83036804189987
 30
0.0
 11
-299.99873562190078
 21
638.9491332959999
 31
0.0
  0
LINE
  8
DETAIL
  6
CONTINUOUS
 62
     5
 10
-299.99873562190078
 20
638.9491332959999
 30
0.0
 11
-300.00000000000091
 21
639.0627416998002
 31
0.0
  0
LINE
  8
DETAIL
  6
CONTINUOUS
 62
     5
 10
-141.28365939390099
 20
-32.617902879800113
 30
0.0
 11
-141.029875939601
 21
-33.705891432800051
 31
0.0
  0
LINE
  8
DETAIL
  6
CONTINUOUS
 62
     5
 10
-141.029875939601
 20
-33.705891432800051
 30
0.0
 11
-140.77292466160091
 21
-34.785567072800063
 31
0.0
  0
LINE
  8
DETAIL
  6
CONTINUOUS
 62
     5
 10
-140.77292466160091
 20
-34.785567072800063
 30
0.0
 11
-140.5131849462004
 21
-35.856081055699967
 31
0.0
  0
LINE
  8
DETAIL
  6
CONTINUOUS
 62
     5
 10
-140.5131849462004
 20
-35.856081055699967
 30
0.0
 11
-140.2501159349008
 21
-36.920356733300082
 31
0.0
  0
LINE
  8
DETAIL
  6
CONTINUOUS
 62
     5
 10
-140.2501159349008
 20
-36.920356733300082
 30
0.0
 11
-139.9839948285007
 21
-37.977910785100107
 31
0.0
  0
LINE
  8
DETAIL
  6
CONTINUOUS
 62
     5
 10
-139.9839948285007
 20
-37.977910785100107
 30
0.0
 11
-139.71268507590051
 21
-39.037667854900057
 31
0.0
  0
LINE
  8
DETAIL
  6
CONTINUOUS
 62
     5
 10
-139.71268507590051
 20
-39.037667854900057
 30
0.0
 11
-139.43350900420091
 21
-40.110062199600073
 31
0.0
  0
LINE
  8
DETAIL
  6
CONTINUOUS
 62
     5
 10
-139.43350900420091
 20
-40.110062199600073
 30
0.0
 11
-139.14817155730091
 21
-41.188481644400099
 31
0.0
  0
LINE
  8
DETAIL
  6
CONTINUOUS
 62
     5
 10
-139.14817155730091
 20
-41.188481644400099
 30
0.0
 11
-138.85767942080079
 21
-42.269365767700037
 31
0.0
  0
LINE
  8
DETAIL
  6
CONTINUOUS
 62
     5
 10
-138.85767942080079
 20
-42.269365767700037
 30
0.0
 11
-138.56162594090071
 21
-43.354568378500062
 31
0.0
  0
LINE
  8
DETAIL
  6
CONTINUOUS
 62
     5
 10
-138.56162594090071
 20
-43.354568378500062
 30
0.0
 11
-138.25987842430089
 21
-44.444916447799983
 31
0.0
  0
LINE
  8
DETAIL
  6
CONTINUOUS
 62
     5
 10
-138.25987842430089
 20
-44.444916447799983
 30
0.0
 11
-137.9527115243009
 21
-45.539819542800053
 31
0.0
  0
LINE
  8
DETAIL
  6
CONTINUOUS
 62
     5
 10
-137.9527115243009
 20
-45.539819542800053
 30
0.0
 11
-137.64155564290101
 21
-46.634751242800007
 31
0.0
  0
LINE
  8
DETAIL
  6
CONTINUOUS
 62
     5
 10
-137.64155564290101
 20
-46.634751242800007
 30
0.0
 11
-137.32293511670099
 21
-47.742433749100087
 31
0.0
  0
LINE
  8
DETAIL
  6
CONTINUOUS
 62
     5
 10
-137.32293511670099
 20
-47.742433749100087
 30
0.0
 11
-136.99321165940091
 21
-48.875657062799966
 31
0.0
  0
LINE
  8
DETAIL
  6
CONTINUOUS
 62
     5
 10
-136.99321165940091
 20
-48.875657062799966
 30
0.0
 11
-136.6544424673011
 21
-50.027545923200023
 31
0.0
  0
LINE
  8
DETAIL
  6
CONTINUOUS
 62
     5
 10
-136.6544424673011
 20
-50.027545923200023
 30
0.0
 11
-136.3085460977008
 21
-51.192148338400102
 31
0.0
  0
LINE
  8
DETAIL
  6
CONTINUOUS
 62
     5
 10
-136.3085460977008
 20
-51.192148338400102
 30
0.0
 11
-135.95260469940061
 21
-52.379977893200021
 31
0.0
  0
LINE
  8
DETAIL
  6
CONTINUOUS
 62
     5
 10
-135.95260469940061
 20
-52.379977893200021
 30
0.0
 11
-135.58353071740069
 21
-53.601982889700032
 31
0.0
  0
LINE
  8
DETAIL
  6
CONTINUOUS
 62
     5
 10
-135.58353071740069
 20
-53.601982889700032
 30
0.0
 11
-135.20430887130081
 21
-54.849206136800028
 31
0.0
  0
LINE
  8
DETAIL
  6
CONTINUOUS
 62
     5
 10
-135.20430887130081
 20
-54.849206136800028
 30
0.0
 11
-134.81745888440079
 21
-56.114772672200047
 31
0.0
  0
LINE
  8
DETAIL
  6
CONTINUOUS
 62
     5
 10
-134.81745888440079
 20
-56.114772672200047
 30
0.0
 11
-134.42173122550051
 21
-57.404531555400013
 31
0.0
  0
LINE
  8
DETAIL
  6
CONTINUOUS
 62
     5
 10
-134.42173122550051
 20
-57.404531555400013
 30
0.0
 11
-133.60326508480111
 21
-60.066753851800058
 31
0.0
  0
LINE
  8
DETAIL
  6
CONTINUOUS
 62
     5
 10
-290.3352384841009
 20
638.39999999999986
 30
0.0
 11
-290.3352384841009
 21
640.0
 31
0.0
  0
LINE
  8
DETAIL
  6
CONTINUOUS
 62
     5
 10
-290.3352384841009
 20
-638.40000000000032
 30
0.0
 11
-290.3352384841009
 21
-640.00000000000011
 31
0.0
  0
LINE
  8
DETAIL
  6
CONTINUOUS
 62
     5
 10
-300.00000000000091
 20
-639.06274169980043
 30
0.0
 11
-299.99873562190078
 21
-638.94913329590008
 31
0.0
  0
LINE
  8
DETAIL
  6
CONTINUOUS
 62
     5
 10
-299.99873562190078
 20
-638.94913329590008
 30
0.0
 11
-299.99493916400058
 21
-638.8303680419001
 31
0.0
  0
LINE
  8
DETAIL
  6
CONTINUOUS
 62
     5
 10
-299.99493916400058
 20
-638.8303680419001
 30
0.0
 11
-299.98861749260089
 21
-638.70674945090013
 31
0.0
  0
LINE
  8
DETAIL
  6
CONTINUOUS
 62
     5
 10
-299.98861749260089
 20
-638.70674945090013
 30
0.0
 11
-299.97975000900078
 21
-638.57852391380004
 31
0.0
  0
LINE
  8
DETAIL
  6
CONTINUOUS
 62
     5
 10
-299.97975000900078
 20
-638.57852391380004
 30
0.0
 11
-299.96832593790077
 21
-638.44591777500011
 31
0.0
  0
LINE
  8
DETAIL
  6
CONTINUOUS
 62
     5
 10
-299.96832593790077
 20
-638.44591777500011
 30
0.0
 11
-299.95432267600057
 21
-638.30933306280031
 31
0.0
  0
LINE
  8
DETAIL
  6
CONTINUOUS
 62
     5
 10
-299.95432267600057
 20
-638.30933306280031
 30
0.0
 11
-299.93772996640109
 21
-638.16919281430012
 31
0.0
  0
LINE
  8
DETAIL
  6
CONTINUOUS
 62
     5
 10
-299.93772996640109
 20
-638.16919281430012
 30
0.0
 11
-299.91849999530092
 21
-638.02575268700002
 31
0.0
  0
LINE
  8
DETAIL
  6
CONTINUOUS
 62
     5
 10
-299.91849999530092
 20
-638.02575268700002
 30
0.0
 11
-299.89659469670119
 21
-637.87930729340007
 31
0.0
  0
LINE
  8
DETAIL
  6
CONTINUOUS
 62
     5
 10
-299.89659469670119
 20
-637.87930729340007
 30
0.0
 11
-299.87197456980078
 21
-637.73018874560012
 31
0.0
  0
LINE
  8
DETAIL
  6
CONTINUOUS
 62
     5
 10
-299.87197456980078
 20
-637.73018874560012
 30
0.0
 11
-299.84460084430083
 21
-637.57869234090003
 31
0.0
  0
LINE
  8
DETAIL
  6
CONTINUOUS
 62
     5
 10
-299.84460084430083
 20
-637.57869234090003
 30
0.0
 11
-299.81443326330088
 21
-637.42525654150018
 31
0.0
  0
LINE
  8
DETAIL
  6
CONTINUOUS
 62
     5
 10
-299.81443326330088
 20
-637.42525654150018
 30
0.0
 11
-299.78144851370052
 21
-637.2703212248
 31
0.0
  0
LINE
  8
DETAIL
  6
CONTINUOUS
 62
     5
 10
-299.78144851370052
 20
-637.2703212248
 30
0.0
 11
-299.74555699280057
 21
-637.11422250150054
 31
0.0
  0
LINE
  8
DETAIL
  6
CONTINUOUS
 62
     5
 10
-299.74555699280057
 20
-637.11422250150054
 30
0.0
 11
-299.70664915520052
 21
-636.95732068140012
 31
0.0
  0
LINE
  8
DETAIL
  6
CONTINUOUS
 62
     5
 10
-299.70664915520052
 20
-636.95732068140012
 30
0.0
 11
-299.66476151590092
 21
-636.8000000000003
 31
0.0
  0
LINE
  8
DETAIL
  6
CONTINUOUS
 62
     5
 10
-290.00000000000091
 20
-639.06274169980043
 30
0.0
 11
-290.00126437810093
 21
-639.17091249860027
 31
0.0
  0
LINE
  8
DETAIL
  6
CONTINUOUS
 62
     5
 10
-290.00126437810093
 20
-639.17091249860027
 30
0.0
 11
-290.00506083600072
 21
-639.27337939149993
 31
0.0
  0
LINE
  8
DETAIL
  6
CONTINUOUS
 62
     5
 10
-290.00506083600072
 20
-639.27337939149993
 30
0.0
 11
-290.01138250740041
 21
-639.36988453660013
 31
0.0
  0
LINE
  8
DETAIL
  6
CONTINUOUS
 62
     5
 10
-290.01138250740041
 20
-639.36988453660013
 30
0.0
 11
-290.02024999100092
 21
-639.46023545719993
 31
0.0
  0
LINE
  8
DETAIL
  6
CONTINUOUS
 62
     5
 10
-290.02024999100092
 20
-639.46023545719993
 30
0.0
 11
-290.03167406220109
 21
-639.54425849320012
 31
0.0
  0
LINE
  8
DETAIL
  6
CONTINUOUS
 62
     5
 10
-290.03167406220109
 20
-639.54425849320012
 30
0.0
 11
-290.04567732400068
 21
-639.62168632300018
 31
0.0
  0
LINE
  8
DETAIL
  6
CONTINUOUS
 62
     5
 10
-290.04567732400068
 20
-639.62168632300018
 30
0.0
 11
-290.06227003360073
 21
-639.6922847433998
 31
0.0
  0
LINE
  8
DETAIL
  6
CONTINUOUS
 62
     5
 10
-290.06227003360073
 20
-639.6922847433998
 30
0.0
 11
-290.08150000470062
 21
-639.75593138450029
 31
0.0
  0
LINE
  8
DETAIL
  6
CONTINUOUS
 62
     5
 10
-290.08150000470062
 20
-639.75593138450029
 30
0.0
 11
-290.1034053034009
 21
-639.81248996120019
 31
0.0
  0
LINE
  8
DETAIL
  6
CONTINUOUS
 62
     5
 10
-290.1034053034009
 20
-639.81248996120019
 30
0.0
 11
-290.12802543030102
 21
-639.86182117330009
 31
0.0
  0
LINE
  8
DETAIL
  6
CONTINUOUS
 62
     5
 10
-290.12802543030102
 20
-639.86182117330009
 30
0.0
 11
-290.15539915570122
 21
-639.90381027740011
 31
0.0
  0
LINE
  8
DETAIL
  6
CONTINUOUS
 62
     5
 10
-290.15539915570122
 20
-639.90381027740011
 30
0.0
 11
-290.18556673680092
 21
-639.93832029230043
 31
0.0
  0
LINE
  8
DETAIL
  6
CONTINUOUS
 62
     5
 10
-290.18556673680092
 20
-639.93832029230043
 30
0.0
 11
-290.21855148630078
 21
-639.96524848080026
 31
0.0
  0
LINE
  8
DETAIL
  6
CONTINUOUS
 62
     5
 10
-290.21855148630078
 20
-639.96524848080026
 30
0.0
 11
-290.25444300720068
 21
-639.98453516530003
 31
0.0
  0
LINE
  8
DETAIL
  6
CONTINUOUS
 62
     5
 10
-290.25444300720068
 20
-639.98453516530003
 30
0.0
 11
-290.29335084490049
 21
-639.9961305047002
 31
0.0
  0
LINE
  8
DETAIL
  6
CONTINUOUS
 62
     5
 10
-290.29335084490049
 20
-639.9961305047002
 30
0.0
 11
-290.3352384841009
 21
-640.00000000000011
 31
0.0
  0
LINE
  8
DETAIL
  6
CONTINUOUS
 62
     5
 10
638.3999999999993
 20
-290.33523848409999
 30
0.0
 11
639.9999999999992
 21
-290.33523848409999
 31
0.0
  0
LINE
  8
DETAIL
  6
CONTINUOUS
 62
     5
 10
-638.40000000000111
 20
-290.33523848409982
 30
0.0
 11
-640.00000000000091
 21
-290.33523848409982
 31
0.0
  0
LINE
  8
DETAIL
  6
CONTINUOUS
 62
     5
 10
638.3999999999993
 20
-299.66476151580008
 30
0.0
 11
639.9999999999992
 21
-299.66476151580008
 31
0.0
  0
LINE
  8
DETAIL
  6
CONTINUOUS
 62
     5
 10
-638.40000000000111
 20
-299.66476151580008
 30
0.0
 11
-640.00000000000091
 21
-299.66476151580008
 31
0.0
  0
LINE
  8
DETAIL
  6
CONTINUOUS
 62
     5
 10
639.06274169979918
 20
-300.0
 30
0.0
 11
638.94917996189906
 21
-299.9987359257002
 31
0.0
  0
LINE
  8
DETAIL
  6
CONTINUOUS
 62
     5
 10
638.94917996189906
 20
-299.9987359257002
 30
0.0
 11
638.83043375959926
 21
-299.99493886580012
 31
0.0
  0
LINE
  8
DETAIL
  6
CONTINUOUS
 62
     5
 10
638.83043375959926
 20
-299.99493886580012
 30
0.0
 11
638.70672966909922
 21
-299.98860920740032
 31
0.0
  0
LINE
  8
DETAIL
  6
CONTINUOUS
 62
     5
 10
638.70672966909922
 20
-299.98860920740032
 30
0.0
 11
638.57842627429909
 21
-299.97973611520018
 31
0.0
  0
LINE
  8
DETAIL
  6
CONTINUOUS
 62
     5
 10
638.57842627429909
 20
-299.97973611520018
 30
0.0
 11
638.44591243149898
 21
-299.96832188000008
 31
0.0
  0
LINE
  8
DETAIL
  6
CONTINUOUS
 62
     5
 10
638.44591243149898
 20
-299.96832188000008
 30
0.0
 11
638.3094232627991
 21
-299.95432751160018
 31
0.0
  0
LINE
  8
DETAIL
  6
CONTINUOUS
 62
     5
 10
638.3094232627991
 20
-299.95432751160018
 30
0.0
 11
638.1691924743991
 21
-299.93772472210031
 31
0.0
  0
LINE
  8
DETAIL
  6
CONTINUOUS
 62
     5
 10
638.1691924743991
 20
-299.93772472210031
 30
0.0
 11
638.0256402470992
 21
-299.91848369640002
 31
0.0
  0
LINE
  8
DETAIL
  6
CONTINUOUS
 62
     5
 10
638.0256402470992
 20
-299.91848369640002
 30
0.0
 11
637.87921229719905
 21
-299.89658257119999
 31
0.0
  0
LINE
  8
DETAIL
  6
CONTINUOUS
 62
     5
 10
637.87921229719905
 20
-299.89658257119999
 30
0.0
 11
637.73013957239937
 21
-299.87196920370019
 31
0.0
  0
LINE
  8
DETAIL
  6
CONTINUOUS
 62
     5
 10
637.73013957239937
 20
-299.87196920370019
 30
0.0
 11
637.57864672539927
 21
-299.84459549140001
 31
0.0
  0
LINE
  8
DETAIL
  6
CONTINUOUS
 62
     5
 10
637.57864672539927
 20
-299.84459549140001
 30
0.0
 11
637.42521162909918
 21
-299.81442744920008
 31
0.0
  0
LINE
  8
DETAIL
  6
CONTINUOUS
 62
     5
 10
637.42521162909918
 20
-299.81442744920008
 30
0.0
 11
637.27029864509916
 21
-299.78144632380003
 31
0.0
  0
LINE
  8
DETAIL
  6
CONTINUOUS
 62
     5
 10
637.27029864509916
 20
-299.78144632380003
 30
0.0
 11
637.11422200639936
 21
-299.74555831750013
 31
0.0
  0
LINE
  8
DETAIL
  6
CONTINUOUS
 62
     5
 10
637.11422200639936
 20
-299.74555831750013
 30
0.0
 11
636.9573260261991
 21
-299.7066508754001
 31
0.0
  0
LINE
  8
DETAIL
  6
CONTINUOUS
 62
     5
 10
636.9573260261991
 20
-299.7066508754001
 30
0.0
 11
636.79999999999927
 21
-299.66476151580008
 31
0.0
  0
LINE
  8
DETAIL
  6
CONTINUOUS
 62
     5
 10
-639.06274169980099
 20
-289.99999999999972
 30
0.0
 11
-638.94917996190088
 21
-290.00126407419998
 31
0.0
  0
LINE
  8
DETAIL
  6
CONTINUOUS
 62
     5
 10
-638.94917996190088
 20
-290.00126407419998
 30
0.0
 11
-638.83043375960051
 21
-290.0050611341
 31
0.0
  0
LINE
  8
DETAIL
  6
CONTINUOUS
 62
     5
 10
-638.83043375960051
 20
-290.0050611341
 30
0.0
 11
-638.7067296691007
 21
-290.0113907926002
 31
0.0
  0
LINE
  8
DETAIL
  6
CONTINUOUS
 62
     5
 10
-638.7067296691007
 20
-290.0113907926002
 30
0.0
 11
-638.57842627430091
 21
-290.02026388469989
 31
0.0
  0
LINE
  8
DETAIL
  6
CONTINUOUS
 62
     5
 10
-638.57842627430091
 20
-290.02026388469989
 30
0.0
 11
-638.4459124315008
 21
-290.03167811999992
 31
0.0
  0
LINE
  8
DETAIL
  6
CONTINUOUS
 62
     5
 10
-638.4459124315008
 20
-290.03167811999992
 30
0.0
 11
-638.30942326290108
 21
-290.04567248829989
 31
0.0
  0
LINE
  8
DETAIL
  6
CONTINUOUS
 62
     5
 10
-638.30942326290108
 20
-290.04567248829989
 30
0.0
 11
-638.16919247440092
 21
-290.06227527790003
 31
0.0
  0
LINE
  8
DETAIL
  6
CONTINUOUS
 62
     5
 10
-638.16919247440092
 20
-290.06227527790003
 30
0.0
 11
-638.02564024710091
 21
-290.08151630359981
 31
0.0
  0
LINE
  8
DETAIL
  6
CONTINUOUS
 62
     5
 10
-638.02564024710091
 20
-290.08151630359981
 30
0.0
 11
-637.87921229720087
 21
-290.10341742870008
 31
0.0
  0
LINE
  8
DETAIL
  6
CONTINUOUS
 62
     5
 10
-637.87921229720087
 20
-290.10341742870008
 30
0.0
 11
-637.73013957240084
 21
-290.12803079629998
 31
0.0
  0
LINE
  8
DETAIL
  6
CONTINUOUS
 62
     5
 10
-637.73013957240084
 20
-290.12803079629998
 30
0.0
 11
-637.57864672540109
 21
-290.15540450849988
 31
0.0
  0
LINE
  8
DETAIL
  6
CONTINUOUS
 62
     5
 10
-637.57864672540109
 20
-290.15540450849988
 30
0.0
 11
-637.425211629101
 21
-290.18557255069999
 31
0.0
  0
LINE
  8
DETAIL
  6
CONTINUOUS
 62
     5
 10
-637.425211629101
 20
-290.18557255069999
 30
0.0
 11
-637.27029864510098
 21
-290.21855367609987
 31
0.0
  0
LINE
  8
DETAIL
  6
CONTINUOUS
 62
     5
 10
-637.27029864510098
 20
-290.21855367609987
 30
0.0
 11
-637.11422200640118
 21
-290.2544416824
 31
0.0
  0
LINE
  8
DETAIL
  6
CONTINUOUS
 62
     5
 10
-637.11422200640118
 20
-290.2544416824
 30
0.0
 11
-636.95732602620092
 21
-290.29334912449991
 31
0.0
  0
LINE
  8
DETAIL
  6
CONTINUOUS
 62
     5
 10
-636.95732602620092
 20
-290.29334912449991
 30
0.0
 11
-636.80000000000052
 21
-290.33523848409982
 31
0.0
  0
LINE
  8
DETAIL
  6
CONTINUOUS
 62
     5
 10
639.06274169979918
 20
-290.0
 30
0.0
 11
639.1708701969992
 21
-290.00126407420009
 31
0.0
  0
LINE
  8
DETAIL
  6
CONTINUOUS
 62
     5
 10
639.1708701969992
 20
-290.00126407420009
 30
0.0
 11
639.27332544319927
 21
-290.00506113410029
 31
0.0
  0
LINE
  8
DETAIL
  6
CONTINUOUS
 62
     5
 10
639.27332544319927
 20
-290.00506113410029
 30
0.0
 11
639.36989921379927
 21
-290.0113907926002
 31
0.0
  0
LINE
  8
DETAIL
  6
CONTINUOUS
 62
     5
 10
639.36989921379927
 20
-290.0113907926002
 30
0.0
 11
639.46030073239956
 21
-290.02026388470023
 31
0.0
  0
LINE
  8
DETAIL
  6
CONTINUOUS
 62
     5
 10
639.46030073239956
 20
-290.02026388470023
 30
0.0
 11
639.54426169809904
 21
-290.03167812000021
 31
0.0
  0
LINE
  8
DETAIL
  6
CONTINUOUS
 62
     5
 10
639.54426169809904
 20
-290.03167812000021
 30
0.0
 11
639.62163807269917
 21
-290.04567248830023
 31
0.0
  0
LINE
  8
DETAIL
  6
CONTINUOUS
 62
     5
 10
639.62163807269917
 20
-290.04567248830023
 30
0.0
 11
639.69228490439946
 21
-290.06227527790008
 31
0.0
  0
LINE
  8
DETAIL
  6
CONTINUOUS
 62
     5
 10
639.69228490439946
 20
-290.06227527790008
 30
0.0
 11
639.75597800819924
 21
-290.08151630359998
 31
0.0
  0
LINE
  8
DETAIL
  6
CONTINUOUS
 62
     5
 10
639.75597800819924
 20
-290.08151630359998
 30
0.0
 11
639.8125239944992
 21
-290.1034174287002
 31
0.0
  0
LINE
  8
DETAIL
  6
CONTINUOUS
 62
     5
 10
639.8125239944992
 20
-290.1034174287002
 30
0.0
 11
639.86183611179922
 21
-290.12803079630032
 31
0.0
  0
LINE
  8
DETAIL
  6
CONTINUOUS
 62
     5
 10
639.86183611179922
 20
-290.12803079630032
 30
0.0
 11
639.90382172119917
 21
-290.15540450850023
 31
0.0
  0
LINE
  8
DETAIL
  6
CONTINUOUS
 62
     5
 10
639.90382172119917
 20
-290.15540450850023
 30
0.0
 11
639.93832923999935
 21
-290.18557255070027
 31
0.0
  0
LINE
  8
DETAIL
  6
CONTINUOUS
 62
     5
 10
639.93832923999935
 20
-290.18557255070027
 30
0.0
 11
639.96525183579945
 21
-290.2185536761001
 31
0.0
  0
LINE
  8
DETAIL
  6
CONTINUOUS
 62
     5
 10
639.96525183579945
 20
-290.2185536761001
 30
0.0
 11
639.98453521419924
 21
-290.25444168240023
 31
0.0
  0
LINE
  8
DETAIL
  6
CONTINUOUS
 62
     5
 10
639.98453521419924
 20
-290.25444168240023
 30
0.0
 11
639.99613024159908
 21
-290.29334912450003
 31
0.0
  0
LINE
  8
DETAIL
  6
CONTINUOUS
 62
     5
 10
639.99613024159908
 20
-290.29334912450003
 30
0.0
 11
639.9999999999992
 21
-290.33523848409999
 31
0.0
  0
LINE
  8
DETAIL
  6
CONTINUOUS
 62
     5
 10
-639.06274169980099
 20
-299.99999999999972
 30
0.0
 11
-639.17087019710073
 21
-299.99873592569998
 31
0.0
  0
LINE
  8
DETAIL
  6
CONTINUOUS
 62
     5
 10
-639.17087019710073
 20
-299.99873592569998
 30
0.0
 11
-639.27332544320109
 21
-299.99493886579978
 31
0.0
  0
LINE
  8
DETAIL
  6
CONTINUOUS
 62
     5
 10
-639.27332544320109
 20
-299.99493886579978
 30
0.0
 11
-639.36989921380109
 21
-299.98860920739997
 31
0.0
  0
LINE
  8
DETAIL
  6
CONTINUOUS
 62
     5
 10
-639.36989921380109
 20
-299.98860920739997
 30
0.0
 11
-639.46030073240081
 21
-299.97973611520001
 31
0.0
  0
LINE
  8
DETAIL
  6
CONTINUOUS
 62
     5
 10
-639.46030073240081
 20
-299.97973611520001
 30
0.0
 11
-639.54426169810085
 21
-299.96832187999968
 31
0.0
  0
LINE
  8
DETAIL
  6
CONTINUOUS
 62
     5
 10
-639.54426169810085
 20
-299.96832187999968
 30
0.0
 11
-639.62163807270053
 21
-299.95432751160001
 31
0.0
  0
LINE
  8
DETAIL
  6
CONTINUOUS
 62
     5
 10
-639.62163807270053
 20
-299.95432751160001
 30
0.0
 11
-639.69228490440082
 21
-299.93772472210009
 31
0.0
  0
LINE
  8
DETAIL
  6
CONTINUOUS
 62
     5
 10
-639.69228490440082
 20
-299.93772472210009
 30
0.0
 11
-639.75597800820105
 21
-299.91848369639979
 31
0.0
  0
LINE
  8
DETAIL
  6
CONTINUOUS
 62
     5
 10
-639.75597800820105
 20
-299.91848369639979
 30
0.0
 11
-639.81252399450102
 21
-299.89658257119981
 31
0.0
  0
LINE
  8
DETAIL
  6
CONTINUOUS
 62
     5
 10
-639.81252399450102
 20
-299.89658257119981
 30
0.0
 11
-639.86183611190052
 21
-299.87196920369979
 31
0.0
  0
LINE
  8
DETAIL
  6
CONTINUOUS
 62
     5
 10
-639.86183611190052
 20
-299.87196920369979
 30
0.0
 11
-639.90382172120098
 21
-299.84459549139979
 31
0.0
  0
LINE
  8
DETAIL
  6
CONTINUOUS
 62
     5
 10
-639.90382172120098
 20
-299.84459549139979
 30
0.0
 11
-639.93832924000071
 21
-299.81442744920008
 31
0.0
  0
LINE
  8
DETAIL
  6
CONTINUOUS
 62
     5
 10
-639.93832924000071
 20
-299.81442744920008
 30
0.0
 11
-639.96525183590074
 21
-299.78144632379991
 31
0.0
  0
LINE
  8
DETAIL
  6
CONTINUOUS
 62
     5
 10
-639.96525183590074
 20
-299.78144632379991
 30
0.0
 11
-639.98453521420106
 21
-299.74555831749979
 31
0.0
  0
LINE
  8
DETAIL
  6
CONTINUOUS
 62
     5
 10
-639.98453521420106
 20
-299.74555831749979
 30
0.0
 11
-639.99613024160089
 21
-299.70665087539987
 31
0.0
  0
LINE
  8
DETAIL
  6
CONTINUOUS
 62
     5
 10
-639.99613024160089
 20
-299.70665087539987
 30
0.0
 11
-640.00000000000091
 21
-299.66476151580008
 31
0.0
  0
LINE
  8
DETAIL
  6
CONTINUOUS
 62
     5
 10
-205.9269019597813
 20
-210.57371298528599
 30
0.0
 11
-220.11159050610061
 21
-196.40731080640009
 31
0.0
  0
LINE
  8
DETAIL
  6
CONTINUOUS
 62
     5
 10
-206.94529981119589
 20
-214.50297728641249
 30
0.0
 11
-222.58472890140089
 21
-198.88391857610031
 31
0.0
  0
LINE
  8
DETAIL
  6
CONTINUOUS
 62
     5
 10
-220.11159050610061
 20
-196.40731080640009
 30
0.0
 11
-227.52059065750109
 21
-189.0062033303
 31
0.0
  0
LINE
  8
DETAIL
  6
CONTINUOUS
 62
     5
 10
-227.52059065750109
 20
-189.0062033303
 30
0.0
 11
-229.0614053354011
 21
-187.46664323670009
 31
0.0
  0
LINE
  8
DETAIL
  6
CONTINUOUS
 62
     5
 10
-222.58472890140089
 20
-198.88391857610031
 30
0.0
 11
-229.99372905290099
 21
-191.48281109999999
 31
0.0
  0
LINE
  8
DETAIL
  6
CONTINUOUS
 62
     5
 10
-229.99372905290099
 20
-191.48281109999999
 30
0.0
 11
-231.53454373070099
 21
-189.9432510064
 31
0.0
  0
LINE
  8
DETAIL
  6
CONTINUOUS
 62
     5
 10
-229.0614053354011
 20
-187.46664323670009
 30
0.0
 11
-230.30044314310089
 21
-186.22837411840001
 31
0.0
  0
LINE
  8
DETAIL
  6
CONTINUOUS
 62
     5
 10
-231.53454373070099
 20
-189.9432510064
 30
0.0
 11
-232.77358153850079
 21
-188.70498188810001
 31
0.0
  0
LINE
  8
DETAIL
  6
CONTINUOUS
 62
     5
 10
-230.30044314310089
 20
-186.22837411840001
 30
0.0
 11
-231.9705061954009
 21
-184.55805108240011
 31
0.0
  0
LINE
  8
DETAIL
  6
CONTINUOUS
 62
     5
 10
-231.9705061954009
 20
-184.55805108240011
 30
0.0
 11
-232.04959028020039
 21
-184.4785418325998
 31
0.0
  0
LINE
  8
DETAIL
  6
CONTINUOUS
 62
     5
 10
-232.04959028020039
 20
-184.4785418325998
 30
0.0
 11
-232.05693889470061
 21
-184.47097976200001
 31
0.0
  0
LINE
  8
DETAIL
  6
CONTINUOUS
 62
     5
 10
-232.77358153850079
 20
-188.70498188810001
 30
0.0
 11
-234.4436445908004
 21
-187.03465885210011
 31
0.0
  0
LINE
  8
DETAIL
  6
CONTINUOUS
 62
     5
 10
-234.4436445908004
 20
-187.03465885210011
 30
0.0
 11
-234.5227286755007
 21
-186.9551496023
 31
0.0
  0
LINE
  8
DETAIL
  6
CONTINUOUS
 62
     5
 10
-234.5227286755007
 20
-186.9551496023
 30
0.0
 11
-234.53007729010099
 21
-186.94758753170001
 31
0.0
  0
LINE
  8
DETAIL
  6
CONTINUOUS
 62
     5
 10
-299.66476151590092
 20
638.39999999999986
 30
0.0
 11
-299.66476151590092
 21
640.0
 31
0.0
  0
LINE
  8
DETAIL
  6
CONTINUOUS
 62
     5
 10
-299.66476151590092
 20
-638.40000000000032
 30
0.0
 11
-299.66476151590092
 21
-640.00000000000011
 31
0.0
  0
LINE
  8
DETAIL
  6
CONTINUOUS
 62
     5
 10
-290.00000000000091
 20
639.0627416998002
 30
0.0
 11
-290.00126437810093
 21
638.9491332959999
 31
0.0
  0
LINE
  8
DETAIL
  6
CONTINUOUS
 62
     5
 10
-290.00126437810093
 20
638.9491332959999
 30
0.0
 11
-290.00506083600072
 21
638.83036804189987
 31
0.0
  0
LINE
  8
DETAIL
  6
CONTINUOUS
 62
     5
 10
-290.00506083600072
 20
638.83036804189987
 30
0.0
 11
-290.01138250740041
 21
638.70674945089991
 31
0.0
  0
LINE
  8
DETAIL
  6
CONTINUOUS
 62
     5
 10
-290.01138250740041
 20
638.70674945089991
 30
0.0
 11
-290.02024999100092
 21
638.57852391379981
 31
0.0
  0
LINE
  8
DETAIL
  6
CONTINUOUS
 62
     5
 10
-290.02024999100092
 20
638.57852391379981
 30
0.0
 11
-290.03167406220109
 21
638.4459177750997
 31
0.0
  0
LINE
  8
DETAIL
  6
CONTINUOUS
 62
     5
 10
-290.03167406220109
 20
638.4459177750997
 30
0.0
 11
-290.04567732400068
 21
638.3093330628999
 31
0.0
  0
LINE
  8
DETAIL
  6
CONTINUOUS
 62
     5
 10
-290.04567732400068
 20
638.3093330628999
 30
0.0
 11
-290.06227003360073
 21
638.1691928143
 31
0.0
  0
LINE
  8
DETAIL
  6
CONTINUOUS
 62
     5
 10
-290.06227003360073
 20
638.1691928143
 30
0.0
 11
-290.08150000470062
 21
638.02575268709984
 31
0.0
  0
LINE
  8
DETAIL
  6
CONTINUOUS
 62
     5
 10
-290.08150000470062
 20
638.02575268709984
 30
0.0
 11
-290.1034053034009
 21
637.87930729339996
 31
0.0
  0
LINE
  8
DETAIL
  6
CONTINUOUS
 62
     5
 10
-290.1034053034009
 20
637.87930729339996
 30
0.0
 11
-290.12802543030102
 21
637.73018874569971
 31
0.0
  0
LINE
  8
DETAIL
  6
CONTINUOUS
 62
     5
 10
-290.12802543030102
 20
637.73018874569971
 30
0.0
 11
-290.15539915570122
 21
637.57869234100008
 31
0.0
  0
LINE
  8
DETAIL
  6
CONTINUOUS
 62
     5
 10
-290.15539915570122
 20
637.57869234100008
 30
0.0
 11
-290.18556673680092
 21
637.42525654159999
 31
0.0
  0
LINE
  8
DETAIL
  6
CONTINUOUS
 62
     5
 10
-290.18556673680092
 20
637.42525654159999
 30
0.0
 11
-290.21855148630078
 21
637.27032122489982
 31
0.0
  0
LINE
  8
DETAIL
  6
CONTINUOUS
 62
     5
 10
-290.21855148630078
 20
637.27032122489982
 30
0.0
 11
-290.25444300720068
 21
637.1142225015999
 31
0.0
  0
LINE
  8
DETAIL
  6
CONTINUOUS
 62
     5
 10
-290.25444300720068
 20
637.1142225015999
 30
0.0
 11
-290.29335084490049
 21
636.95732068149994
 31
0.0
  0
LINE
  8
DETAIL
  6
CONTINUOUS
 62
     5
 10
-290.29335084490049
 20
636.95732068149994
 30
0.0
 11
-290.3352384841009
 21
636.80000000000007
 31
0.0
  0
LINE
  8
DETAIL
  6
CONTINUOUS
 62
     5
 10
-300.00000000000091
 20
639.0627416998002
 30
0.0
 11
-299.99873562190078
 21
639.17091249869986
 31
0.0
  0
LINE
  8
DETAIL
  6
CONTINUOUS
 62
     5
 10
-299.99873562190078
 20
639.17091249869986
 30
0.0
 11
-299.99493916400058
 21
639.2733793914997
 31
0.0
  0
LINE
  8
DETAIL
  6
CONTINUOUS
 62
     5
 10
-299.99493916400058
 20
639.2733793914997
 30
0.0
 11
-299.98861749260089
 21
639.36988453660001
 31
0.0
  0
LINE
  8
DETAIL
  6
CONTINUOUS
 62
     5
 10
-299.98861749260089
 20
639.36988453660001
 30
0.0
 11
-299.97975000900078
 21
639.46023545729997
 31
0.0
  0
LINE
  8
DETAIL
  6
CONTINUOUS
 62
     5
 10
-299.97975000900078
 20
639.46023545729997
 30
0.0
 11
-299.96832593790077
 21
639.54425849329994
 31
0.0
  0
LINE
  8
DETAIL
  6
CONTINUOUS
 62
     5
 10
-299.96832593790077
 20
639.54425849329994
 30
0.0
 11
-299.95432267600057
 21
639.62168632299995
 31
0.0
  0
LINE
  8
DETAIL
  6
CONTINUOUS
 62
     5
 10
-299.95432267600057
 20
639.62168632299995
 30
0.0
 11
-299.93772996640109
 21
639.69228474350007
 31
0.0
  0
LINE
  8
DETAIL
  6
CONTINUOUS
 62
     5
 10
-299.93772996640109
 20
639.69228474350007
 30
0.0
 11
-299.91849999530092
 21
639.75593138459999
 31
0.0
  0
LINE
  8
DETAIL
  6
CONTINUOUS
 62
     5
 10
-299.91849999530092
 20
639.75593138459999
 30
0.0
 11
-299.89659469670119
 21
639.81248996119996
 31
0.0
  0
LINE
  8
DETAIL
  6
CONTINUOUS
 62
     5
 10
-299.89659469670119
 20
639.81248996119996
 30
0.0
 11
-299.87197456980078
 21
639.8618211733999
 31
0.0
  0
LINE
  8
DETAIL
  6
CONTINUOUS
 62
     5
 10
-299.87197456980078
 20
639.8618211733999
 30
0.0
 11
-299.84460084430083
 21
639.9038102774
 31
0.0
  0
LINE
  8
DETAIL
  6
CONTINUOUS
 62
     5
 10
-299.84460084430083
 20
639.9038102774
 30
0.0
 11
-299.81443326330088
 21
639.93832029240002
 31
0.0
  0
LINE
  8
DETAIL
  6
CONTINUOUS
 62
     5
 10
-299.81443326330088
 20
639.93832029240002
 30
0.0
 11
-299.78144851370052
 21
639.96524848089985
 31
0.0
  0
LINE
  8
DETAIL
  6
CONTINUOUS
 62
     5
 10
-299.78144851370052
 20
639.96524848089985
 30
0.0
 11
-299.74555699280057
 21
639.98453516539985
 31
0.0
  0
LINE
  8
DETAIL
  6
CONTINUOUS
 62
     5
 10
-299.74555699280057
 20
639.98453516539985
 30
0.0
 11
-299.70664915520052
 21
639.99613050469998
 31
0.0
  0
LINE
  8
DETAIL
  6
CONTINUOUS
 62
     5
 10
-299.70664915520052
 20
639.99613050469998
 30
0.0
 11
-299.66476151590092
 21
640.0
 31
0.0
  0
LINE
  8
DETAIL
  6
CONTINUOUS
 62
     5
 10
-632.64566692720052
 20
638.23059209109988
 30
0.0
 11
-632.64883304990053
 21
638.23927925199996
 31
0.0
  0
LINE
  8
DETAIL
  6
CONTINUOUS
 62
     5
 10
-632.64883304990053
 20
638.23927925199996
 30
0.0
 11
-632.66666168890106
 21
638.27604077820001
 31
0.0
  0
LINE
  8
DETAIL
  6
CONTINUOUS
 62
     5
 10
-632.66666168890106
 20
638.27604077820001
 30
0.0
 11
-632.68738545360065
 21
638.3082795398002
 31
0.0
  0
LINE
  8
DETAIL
  6
CONTINUOUS
 62
     5
 10
-632.68738545360065
 20
638.3082795398002
 30
0.0
 11
-632.71106791510101
 21
638.3358856852999
 31
0.0
  0
LINE
  8
DETAIL
  6
CONTINUOUS
 62
     5
 10
-632.71106791510101
 20
638.3358856852999
 30
0.0
 11
-632.73777227050061
 21
638.35871321860031
 31
0.0
  0
LINE
  8
DETAIL
  6
CONTINUOUS
 62
     5
 10
-632.73777227050061
 20
638.35871321860031
 30
0.0
 11
-632.76754366410069
 21
638.37663804630017
 31
0.0
  0
LINE
  8
DETAIL
  6
CONTINUOUS
 62
     5
 10
-632.76754366410069
 20
638.37663804630017
 30
0.0
 11
-632.80049982620096
 21
638.38955824379991
 31
0.0
  0
LINE
  8
DETAIL
  6
CONTINUOUS
 62
     5
 10
-632.80049982620096
 20
638.38955824379991
 30
0.0
 11
-632.83679013270057
 21
638.39737655759996
 31
0.0
  0
LINE
  8
DETAIL
  6
CONTINUOUS
 62
     5
 10
-632.83679013270057
 20
638.39737655759996
 30
0.0
 11
-632.87636479150069
 21
638.39999999999986
 31
0.0
  0
LINE
  8
DETAIL
  6
CONTINUOUS
 62
     5
 10
636.79999999999927
 20
-290.33523848409999
 30
0.0
 11
636.9573260261991
 21
-290.29334912450003
 31
0.0
  0
LINE
  8
DETAIL
  6
CONTINUOUS
 62
     5
 10
636.9573260261991
 20
-290.29334912450003
 30
0.0
 11
637.11422200639936
 21
-290.25444168240023
 31
0.0
  0
LINE
  8
DETAIL
  6
CONTINUOUS
 62
     5
 10
637.11422200639936
 20
-290.25444168240023
 30
0.0
 11
637.27029864509916
 21
-290.2185536761001
 31
0.0
  0
LINE
  8
DETAIL
  6
CONTINUOUS
 62
     5
 10
637.27029864509916
 20
-290.2185536761001
 30
0.0
 11
637.42521162909918
 21
-290.18557255070027
 31
0.0
  0
LINE
  8
DETAIL
  6
CONTINUOUS
 62
     5
 10
637.42521162909918
 20
-290.18557255070027
 30
0.0
 11
637.57864672539927
 21
-290.15540450850023
 31
0.0
  0
LINE
  8
DETAIL
  6
CONTINUOUS
 62
     5
 10
637.57864672539927
 20
-290.15540450850023
 30
0.0
 11
637.73013957239937
 21
-290.12803079630032
 31
0.0
  0
LINE
  8
DETAIL
  6
CONTINUOUS
 62
     5
 10
637.73013957239937
 20
-290.12803079630032
 30
0.0
 11
637.87921229719905
 21
-290.1034174287002
 31
0.0
  0
LINE
  8
DETAIL
  6
CONTINUOUS
 62
     5
 10
637.87921229719905
 20
-290.1034174287002
 30
0.0
 11
638.0256402470992
 21
-290.08151630359998
 31
0.0
  0
LINE
  8
DETAIL
  6
CONTINUOUS
 62
     5
 10
638.0256402470992
 20
-290.08151630359998
 30
0.0
 11
638.1691924743991
 21
-290.06227527790008
 31
0.0
  0
LINE
  8
DETAIL
  6
CONTINUOUS
 62
     5
 10
638.1691924743991
 20
-290.06227527790008
 30
0.0
 11
638.3094232627991
 21
-290.04567248830023
 31
0.0
  0
LINE
  8
DETAIL
  6
CONTINUOUS
 62
     5
 10
638.3094232627991
 20
-290.04567248830023
 30
0.0
 11
638.44591243149898
 21
-290.03167812000021
 31
0.0
  0
LINE
  8
DETAIL
  6
CONTINUOUS
 62
     5
 10
638.44591243149898
 20
-290.03167812000021
 30
0.0
 11
638.57842627429909
 21
-290.02026388470023
 31
0.0
  0
LINE
  8
DETAIL
  6
CONTINUOUS
 62
     5
 10
638.57842627429909
 20
-290.02026388470023
 30
0.0
 11
638.70672966909922
 21
-290.0113907926002
 31
0.0
  0
LINE
  8
DETAIL
  6
CONTINUOUS
 62
     5
 10
638.70672966909922
 20
-290.0113907926002
 30
0.0
 11
638.83043375959926
 21
-290.00506113410029
 31
0.0
  0
LINE
  8
DETAIL
  6
CONTINUOUS
 62
     5
 10
638.83043375959926
 20
-290.00506113410029
 30
0.0
 11
638.94917996189906
 21
-290.00126407420009
 31
0.0
  0
LINE
  8
DETAIL
  6
CONTINUOUS
 62
     5
 10
638.94917996189906
 20
-290.00126407420009
 30
0.0
 11
639.06274169979918
 21
-290.0
 31
0.0
  0
LINE
  8
DETAIL
  6
CONTINUOUS
 62
     5
 10
638.23059209099927
 20
632.6456669271995
 30
0.0
 11
638.23927925189946
 21
632.64883304989985
 31
0.0
  0
LINE
  8
DETAIL
  6
CONTINUOUS
 62
     5
 10
638.23927925189946
 20
632.64883304989985
 30
0.0
 11
638.27604077819922
 21
632.66666168889969
 31
0.0
  0
LINE
  8
DETAIL
  6
CONTINUOUS
 62
     5
 10
638.27604077819922
 20
632.66666168889969
 30
0.0
 11
638.30827953979917
 21
632.68738545359975
 31
0.0
  0
LINE
  8
DETAIL
  6
CONTINUOUS
 62
     5
 10
638.30827953979917
 20
632.68738545359975
 30
0.0
 11
638.3358856851994
 21
632.71106791509987
 31
0.0
  0
LINE
  8
DETAIL
  6
CONTINUOUS
 62
     5
 10
638.3358856851994
 20
632.71106791509987
 30
0.0
 11
638.35871321859952
 21
632.73777227059986
 31
0.0
  0
LINE
  8
DETAIL
  6
CONTINUOUS
 62
     5
 10
638.35871321859952
 20
632.73777227059986
 30
0.0
 11
638.37663804629938
 21
632.76754366409978
 31
0.0
  0
LINE
  8
DETAIL
  6
CONTINUOUS
 62
     5
 10
638.37663804629938
 20
632.76754366409978
 30
0.0
 11
638.389558243799
 21
632.80049982629976
 31
0.0
  0
LINE
  8
DETAIL
  6
CONTINUOUS
 62
     5
 10
638.389558243799
 20
632.80049982629976
 30
0.0
 11
638.39737655759916
 21
632.83679013269989
 31
0.0
  0
LINE
  8
DETAIL
  6
CONTINUOUS
 62
     5
 10
638.39737655759916
 20
632.83679013269989
 30
0.0
 11
638.3999999999993
 21
632.87636479149978
 31
0.0
  0
LINE
  8
DETAIL
  6
CONTINUOUS
 62
     5
 10
-290.3352384841009
 20
-636.8000000000003
 30
0.0
 11
-290.29335084490049
 21
-636.95732068140012
 31
0.0
  0
LINE
  8
DETAIL
  6
CONTINUOUS
 62
     5
 10
-290.29335084490049
 20
-636.95732068140012
 30
0.0
 11
-290.25444300720068
 21
-637.11422250150054
 31
0.0
  0
LINE
  8
DETAIL
  6
CONTINUOUS
 62
     5
 10
-290.25444300720068
 20
-637.11422250150054
 30
0.0
 11
-290.21855148630078
 21
-637.2703212248
 31
0.0
  0
LINE
  8
DETAIL
  6
CONTINUOUS
 62
     5
 10
-290.21855148630078
 20
-637.2703212248
 30
0.0
 11
-290.18556673680092
 21
-637.42525654150018
 31
0.0
  0
LINE
  8
DETAIL
  6
CONTINUOUS
 62
     5
 10
-290.18556673680092
 20
-637.42525654150018
 30
0.0
 11
-290.15539915570122
 21
-637.57869234090003
 31
0.0
  0
LINE
  8
DETAIL
  6
CONTINUOUS
 62
     5
 10
-290.15539915570122
 20
-637.57869234090003
 30
0.0
 11
-290.12802543030102
 21
-637.73018874560012
 31
0.0
  0
LINE
  8
DETAIL
  6
CONTINUOUS
 62
     5
 10
-290.12802543030102
 20
-637.73018874560012
 30
0.0
 11
-290.1034053034009
 21
-637.87930729340007
 31
0.0
  0
LINE
  8
DETAIL
  6
CONTINUOUS
 62
     5
 10
-290.1034053034009
 20
-637.87930729340007
 30
0.0
 11
-290.08150000470062
 21
-638.02575268700002
 31
0.0
  0
LINE
  8
DETAIL
  6
CONTINUOUS
 62
     5
 10
-290.08150000470062
 20
-638.02575268700002
 30
0.0
 11
-290.06227003360073
 21
-638.16919281430012
 31
0.0
  0
LINE
  8
DETAIL
  6
CONTINUOUS
 62
     5
 10
-290.06227003360073
 20
-638.16919281430012
 30
0.0
 11
-290.04567732400068
 21
-638.30933306280031
 31
0.0
  0
LINE
  8
DETAIL
  6
CONTINUOUS
 62
     5
 10
-290.04567732400068
 20
-638.30933306280031
 30
0.0
 11
-290.03167406220109
 21
-638.44591777500011
 31
0.0
  0
LINE
  8
DETAIL
  6
CONTINUOUS
 62
     5
 10
-290.03167406220109
 20
-638.44591777500011
 30
0.0
 11
-290.02024999100092
 21
-638.57852391380004
 31
0.0
  0
LINE
  8
DETAIL
  6
CONTINUOUS
 62
     5
 10
-290.02024999100092
 20
-638.57852391380004
 30
0.0
 11
-290.01138250740041
 21
-638.70674945090013
 31
0.0
  0
LINE
  8
DETAIL
  6
CONTINUOUS
 62
     5
 10
-290.01138250740041
 20
-638.70674945090013
 30
0.0
 11
-290.00506083600072
 21
-638.8303680419001
 31
0.0
  0
LINE
  8
DETAIL
  6
CONTINUOUS
 62
     5
 10
-290.00506083600072
 20
-638.8303680419001
 30
0.0
 11
-290.00126437810093
 21
-638.94913329590008
 31
0.0
  0
LINE
  8
DETAIL
  6
CONTINUOUS
 62
     5
 10
-290.00126437810093
 20
-638.94913329590008
 30
0.0
 11
-290.00000000000091
 21
-639.06274169980043
 31
0.0
  0
LINE
  8
DETAIL
  6
CONTINUOUS
 62
     5
 10
632.87636479149921
 20
-640.00000000000011
 30
0.0
 11
632.83993342519898
 21
-639.99558874640013
 31
0.0
  0
LINE
  8
DETAIL
  6
CONTINUOUS
 62
     5
 10
632.83993342519898
 20
-639.99558874640013
 30
0.0
 11
632.80619217069943
 21
-639.98237360790029
 31
0.0
  0
LINE
  8
DETAIL
  6
CONTINUOUS
 62
     5
 10
632.80619217069943
 20
-639.98237360790029
 30
0.0
 11
632.77516171709919
 21
-639.96039732840006
 31
0.0
  0
LINE
  8
DETAIL
  6
CONTINUOUS
 62
     5
 10
632.77516171709919
 20
-639.96039732840006
 30
0.0
 11
632.74677999719916
 21
-639.92973999650019
 31
0.0
  0
LINE
  8
DETAIL
  6
CONTINUOUS
 62
     5
 10
632.74677999719916
 20
-639.92973999650019
 30
0.0
 11
632.72100557099918
 21
-639.89052726210025
 31
0.0
  0
LINE
  8
DETAIL
  6
CONTINUOUS
 62
     5
 10
632.72100557099918
 20
-639.89052726210025
 30
0.0
 11
632.6977972463992
 21
-639.8428596312001
 31
0.0
  0
LINE
  8
DETAIL
  6
CONTINUOUS
 62
     5
 10
632.6977972463992
 20
-639.8428596312001
 30
0.0
 11
632.6771015656991
 21
-639.7868316621001
 31
0.0
  0
LINE
  8
DETAIL
  6
CONTINUOUS
 62
     5
 10
632.6771015656991
 20
-639.7868316621001
 30
0.0
 11
632.65891388599903
 21
-639.72264275680027
 31
0.0
  0
LINE
  8
DETAIL
  6
CONTINUOUS
 62
     5
 10
632.65891388599903
 20
-639.72264275680027
 30
0.0
 11
632.64322550069937
 21
-639.65055146110012
 31
0.0
  0
LINE
  8
DETAIL
  6
CONTINUOUS
 62
     5
 10
632.64322550069937
 20
-639.65055146110012
 30
0.0
 11
632.62999514369915
 21
-639.57068342560001
 31
0.0
  0
LINE
  8
DETAIL
  6
CONTINUOUS
 62
     5
 10
632.62999514369915
 20
-639.57068342560001
 30
0.0
 11
632.61917663299937
 21
-639.48312784150016
 31
0.0
  0
LINE
  8
DETAIL
  6
CONTINUOUS
 62
     5
 10
632.61917663299937
 20
-639.48312784150016
 30
0.0
 11
632.6107760100989
 21
-639.38824835210028
 31
0.0
  0
LINE
  8
DETAIL
  6
CONTINUOUS
 62
     5
 10
632.6107760100989
 20
-639.38824835210028
 30
0.0
 11
632.604786994199
 21
-639.2864864886003
 31
0.0
  0
LINE
  8
DETAIL
  6
CONTINUOUS
 62
     5
 10
632.604786994199
 20
-639.2864864886003
 30
0.0
 11
632.60120036989917
 21
-639.17795684050043
 31
0.0
  0
LINE
  8
DETAIL
  6
CONTINUOUS
 62
     5
 10
632.60120036989917
 20
-639.17795684050043
 30
0.0
 11
632.60000341489922
 21
-639.06274169980043
 31
0.0
  0
LINE
  8
DETAIL
  6
CONTINUOUS
 62
     5
 10
-638.23084981480099
 20
-299.94502471559991
 30
0.0
 11
-638.23851141020077
 21
-299.94168110409993
 31
0.0
  0
LINE
  8
DETAIL
  6
CONTINUOUS
 62
     5
 10
-638.23851141020077
 20
-299.94168110409993
 30
0.0
 11
-638.27532918230099
 21
-299.92028362460002
 31
0.0
  0
LINE
  8
DETAIL
  6
CONTINUOUS
 62
     5
 10
-638.27532918230099
 20
-299.92028362460002
 30
0.0
 11
-638.30766547360054
 21
-299.89533941349993
 31
0.0
  0
LINE
  8
DETAIL
  6
CONTINUOUS
 62
     5
 10
-638.30766547360054
 20
-299.89533941349993
 30
0.0
 11
-638.33538036410084
 21
-299.86676238749988
 31
0.0
  0
LINE
  8
DETAIL
  6
CONTINUOUS
 62
     5
 10
-638.33538036410084
 20
-299.86676238749988
 30
0.0
 11
-638.35833425150076
 21
-299.83442702880012
 31
0.0
  0
LINE
  8
DETAIL
  6
CONTINUOUS
 62
     5
 10
-638.35833425150076
 20
-299.83442702880012
 30
0.0
 11
-638.37639493480083
 21
-299.79824440070001
 31
0.0
  0
LINE
  8
DETAIL
  6
CONTINUOUS
 62
     5
 10
-638.37639493480083
 20
-299.79824440070001
 30
0.0
 11
-638.38943690280087
 21
-299.75801867559989
 31
0.0
  0
LINE
  8
DETAIL
  6
CONTINUOUS
 62
     5
 10
-638.38943690280087
 20
-299.75801867559989
 30
0.0
 11
-638.39734289680052
 21
-299.71349619660009
 31
0.0
  0
LINE
  8
DETAIL
  6
CONTINUOUS
 62
     5
 10
-638.39734289680052
 20
-299.71349619660009
 30
0.0
 11
-638.40000000000111
 21
-299.66476151580008
 31
0.0
  0
LINE
  8
DETAIL
  6
CONTINUOUS
 62
     5
 10
-638.40000000000111
 20
632.87636479150001
 30
0.0
 11
-638.39737655750048
 21
632.83679013219989
 31
0.0
  0
LINE
  8
DETAIL
  6
CONTINUOUS
 62
     5
 10
-638.39737655750048
 20
632.83679013219989
 30
0.0
 11
-638.38955824350069
 21
632.80049982519995
 31
0.0
  0
LINE
  8
DETAIL
  6
CONTINUOUS
 62
     5
 10
-638.38955824350069
 20
632.80049982519995
 30
0.0
 11
-638.3766380454008
 21
632.76754366239982
 31
0.0
  0
LINE
  8
DETAIL
  6
CONTINUOUS
 62
     5
 10
-638.3766380454008
 20
632.76754366239982
 30
0.0
 11
-638.35871321690092
 21
632.73777226829998
 31
0.0
  0
LINE
  8
DETAIL
  6
CONTINUOUS
 62
     5
 10
-638.35871321690092
 20
632.73777226829998
 30
0.0
 11
-638.33588568320101
 21
632.71106791290003
 31
0.0
  0
LINE
  8
DETAIL
  6
CONTINUOUS
 62
     5
 10
-638.33588568320101
 20
632.71106791290003
 30
0.0
 11
-638.308279537001
 21
632.68738545159999
 31
0.0
  0
LINE
  8
DETAIL
  6
CONTINUOUS
 62
     5
 10
-638.308279537001
 20
632.68738545159999
 30
0.0
 11
-638.27604077320075
 21
632.6666616862999
 31
0.0
  0
LINE
  8
DETAIL
  6
CONTINUOUS
 62
     5
 10
-638.27604077320075
 20
632.6666616862999
 30
0.0
 11
-638.23927924420104
 21
632.6488330466002
 31
0.0
  0
LINE
  8
DETAIL
  6
CONTINUOUS
 62
     5
 10
-638.23927924420104
 20
632.6488330466002
 30
0.0
 11
-638.23059209160101
 21
632.64566692709968
 31
0.0
  0
LINE
  8
DETAIL
  6
CONTINUOUS
 62
     5
 10
-640.00000000000091
 20
-290.33523848409982
 30
0.0
 11
-639.99613024160089
 21
-290.29334912449991
 31
0.0
  0
LINE
  8
DETAIL
  6
CONTINUOUS
 62
     5
 10
-639.99613024160089
 20
-290.29334912449991
 30
0.0
 11
-639.98453521420106
 21
-290.2544416824
 31
0.0
  0
LINE
  8
DETAIL
  6
CONTINUOUS
 62
     5
 10
-639.98453521420106
 20
-290.2544416824
 30
0.0
 11
-639.96525183590074
 21
-290.21855367609987
 31
0.0
  0
LINE
  8
DETAIL
  6
CONTINUOUS
 62
     5
 10
-639.96525183590074
 20
-290.21855367609987
 30
0.0
 11
-639.93832924000071
 21
-290.18557255069999
 31
0.0
  0
LINE
  8
DETAIL
  6
CONTINUOUS
 62
     5
 10
-639.93832924000071
 20
-290.18557255069999
 30
0.0
 11
-639.90382172120098
 21
-290.15540450849988
 31
0.0
  0
LINE
  8
DETAIL
  6
CONTINUOUS
 62
     5
 10
-639.90382172120098
 20
-290.15540450849988
 30
0.0
 11
-639.86183611190052
 21
-290.12803079629998
 31
0.0
  0
LINE
  8
DETAIL
  6
CONTINUOUS
 62
     5
 10
-639.86183611190052
 20
-290.12803079629998
 30
0.0
 11
-639.81252399450102
 21
-290.10341742870008
 31
0.0
  0
LINE
  8
DETAIL
  6
CONTINUOUS
 62
     5
 10
-639.81252399450102
 20
-290.10341742870008
 30
0.0
 11
-639.75597800820105
 21
-290.08151630359981
 31
0.0
  0
LINE
  8
DETAIL
  6
CONTINUOUS
 62
     5
 10
-639.75597800820105
 20
-290.08151630359981
 30
0.0
 11
-639.69228490440082
 21
-290.06227527790003
 31
0.0
  0
LINE
  8
DETAIL
  6
CONTINUOUS
 62
     5
 10
-639.69228490440082
 20
-290.06227527790003
 30
0.0
 11
-639.62163807270053
 21
-290.04567248829989
 31
0.0
  0
LINE
  8
DETAIL
  6
CONTINUOUS
 62
     5
 10
-639.62163807270053
 20
-290.04567248829989
 30
0.0
 11
-639.54426169810085
 21
-290.03167811999992
 31
0.0
  0
LINE
  8
DETAIL
  6
CONTINUOUS
 62
     5
 10
-639.54426169810085
 20
-290.03167811999992
 30
0.0
 11
-639.46030073240081
 21
-290.02026388469989
 31
0.0
  0
LINE
  8
DETAIL
  6
CONTINUOUS
 62
     5
 10
-639.46030073240081
 20
-290.02026388469989
 30
0.0
 11
-639.36989921380109
 21
-290.0113907926002
 31
0.0
  0
LINE
  8
DETAIL
  6
CONTINUOUS
 62
     5
 10
-639.36989921380109
 20
-290.0113907926002
 30
0.0
 11
-639.27332544320109
 21
-290.0050611341
 31
0.0
  0
LINE
  8
DETAIL
  6
CONTINUOUS
 62
     5
 10
-639.27332544320109
 20
-290.0050611341
 30
0.0
 11
-639.17087019710073
 21
-290.00126407419998
 31
0.0
  0
LINE
  8
DETAIL
  6
CONTINUOUS
 62
     5
 10
-639.17087019710073
 20
-290.00126407419998
 30
0.0
 11
-639.06274169980099
 21
-289.99999999999972
 31
0.0
  0
LINE
  8
DETAIL
  6
CONTINUOUS
 62
     5
 10
-640.00000000000091
 20
-632.87636479150001
 30
0.0
 11
-639.99558874640104
 21
-632.83993342519989
 31
0.0
  0
LINE
  8
DETAIL
  6
CONTINUOUS
 62
     5
 10
-639.99558874640104
 20
-632.83993342519989
 30
0.0
 11
-639.98237360790108
 21
-632.80619217069989
 31
0.0
  0
LINE
  8
DETAIL
  6
CONTINUOUS
 62
     5
 10
-639.98237360790108
 20
-632.80619217069989
 30
0.0
 11
-639.96039732840052
 21
-632.77516171709999
 31
0.0
  0
LINE
  8
DETAIL
  6
CONTINUOUS
 62
     5
 10
-639.96039732840052
 20
-632.77516171709999
 30
0.0
 11
-639.9297399966008
 21
-632.74677999719972
 31
0.0
  0
LINE
  8
DETAIL
  6
CONTINUOUS
 62
     5
 10
-639.9297399966008
 20
-632.74677999719972
 30
0.0
 11
-639.89052726210093
 21
-632.72100557099998
 31
0.0
  0
LINE
  8
DETAIL
  6
CONTINUOUS
 62
     5
 10
-639.89052726210093
 20
-632.72100557099998
 30
0.0
 11
-639.84285963120055
 21
-632.69779724639989
 31
0.0
  0
LINE
  8
DETAIL
  6
CONTINUOUS
 62
     5
 10
-639.84285963120055
 20
-632.69779724639989
 30
0.0
 11
-639.78683166220071
 21
-632.67710156570001
 31
0.0
  0
LINE
  8
DETAIL
  6
CONTINUOUS
 62
     5
 10
-639.78683166220071
 20
-632.67710156570001
 30
0.0
 11
-639.72264275690077
 21
-632.65891388600005
 31
0.0
  0
LINE
  8
DETAIL
  6
CONTINUOUS
 62
     5
 10
-639.72264275690077
 20
-632.65891388600005
 30
0.0
 11
-639.6505514611008
 21
-632.64322550059967
 31
0.0
  0
LINE
  8
DETAIL
  6
CONTINUOUS
 62
     5
 10
-639.6505514611008
 20
-632.64322550059967
 30
0.0
 11
-639.57068342560069
 21
-632.6299951435999
 31
0.0
  0
LINE
  8
DETAIL
  6
CONTINUOUS
 62
     5
 10
-639.57068342560069
 20
-632.6299951435999
 30
0.0
 11
-639.48312784160089
 21
-632.61917663300017
 31
0.0
  0
LINE
  8
DETAIL
  6
CONTINUOUS
 62
     5
 10
-639.48312784160089
 20
-632.61917663300017
 30
0.0
 11
-639.38824835220066
 21
-632.61077601009981
 31
0.0
  0
LINE
  8
DETAIL
  6
CONTINUOUS
 62
     5
 10
-639.38824835220066
 20
-632.61077601009981
 30
0.0
 11
-639.28648648870058
 21
-632.60478699419991
 31
0.0
  0
LINE
  8
DETAIL
  6
CONTINUOUS
 62
     5
 10
-639.28648648870058
 20
-632.60478699419991
 30
0.0
 11
-639.177956840501
 21
-632.60120036989997
 31
0.0
  0
LINE
  8
DETAIL
  6
CONTINUOUS
 62
     5
 10
-639.177956840501
 20
-632.60120036989997
 30
0.0
 11
-639.06274169980099
 21
-632.6000034148999
 31
0.0
  0
LINE
  8
DETAIL
  6
CONTINUOUS
 62
     5
 10
-299.9450300003009
 20
638.23084811880005
 30
0.0
 11
-299.94170216980092
 21
638.23847652349991
 31
0.0
  0
LINE
  8
DETAIL
  6
CONTINUOUS
 62
     5
 10
-299.94170216980092
 20
638.23847652349991
 30
0.0
 11
-299.92030784500088
 21
638.27529542349998
 31
0.0
  0
LINE
  8
DETAIL
  6
CONTINUOUS
 62
     5
 10
-299.92030784500088
 20
638.27529542349998
 30
0.0
 11
-299.89536923430057
 21
638.30762985739989
 31
0.0
  0
LINE
  8
DETAIL
  6
CONTINUOUS
 62
     5
 10
-299.89536923430057
 20
638.30762985739989
 30
0.0
 11
-299.86680033360062
 21
638.33534673079998
 31
0.0
  0
LINE
  8
DETAIL
  6
CONTINUOUS
 62
     5
 10
-299.86680033360062
 20
638.33534673079998
 30
0.0
 11
-299.83446722530061
 21
638.35830796969969
 31
0.0
  0
LINE
  8
DETAIL
  6
CONTINUOUS
 62
     5
 10
-299.83446722530061
 20
638.35830796969969
 30
0.0
 11
-299.79826624610092
 21
638.37638412709998
 31
0.0
  0
LINE
  8
DETAIL
  6
CONTINUOUS
 62
     5
 10
-299.79826624610092
 20
638.37638412709998
 30
0.0
 11
-299.75802062890119
 21
638.38943596509989
 31
0.0
  0
LINE
  8
DETAIL
  6
CONTINUOUS
 62
     5
 10
-299.75802062890119
 20
638.38943596509989
 30
0.0
 11
-299.7134926370008
 21
638.39734337819971
 31
0.0
  0
LINE
  8
DETAIL
  6
CONTINUOUS
 62
     5
 10
-299.7134926370008
 20
638.39734337819971
 30
0.0
 11
-299.66476151590092
 21
638.39999999999986
 31
0.0
  0
LINE
  8
DETAIL
  6
CONTINUOUS
 62
     5
 10
-632.87636479150069
 20
-638.39999999999986
 30
0.0
 11
-632.8367901322008
 21
-638.39737655749968
 31
0.0
  0
LINE
  8
DETAIL
  6
CONTINUOUS
 62
     5
 10
-632.8367901322008
 20
-638.39737655749968
 30
0.0
 11
-632.80049982520086
 21
-638.38955824339996
 31
0.0
  0
LINE
  8
DETAIL
  6
CONTINUOUS
 62
     5
 10
-632.80049982520086
 20
-638.38955824339996
 30
0.0
 11
-632.76754366240084
 21
-638.37663804540011
 31
0.0
  0
LINE
  8
DETAIL
  6
CONTINUOUS
 62
     5
 10
-632.76754366240084
 20
-638.37663804540011
 30
0.0
 11
-632.73777226830089
 21
-638.35871321690001
 31
0.0
  0
LINE
  8
DETAIL
  6
CONTINUOUS
 62
     5
 10
-632.73777226830089
 20
-638.35871321690001
 30
0.0
 11
-632.71106791290094
 21
-638.33588568310006
 31
0.0
  0
LINE
  8
DETAIL
  6
CONTINUOUS
 62
     5
 10
-632.71106791290094
 20
-638.33588568310006
 30
0.0
 11
-632.68738545150052
 21
-638.30827953699986
 31
0.0
  0
LINE
  8
DETAIL
  6
CONTINUOUS
 62
     5
 10
-632.68738545150052
 20
-638.30827953699986
 30
0.0
 11
-632.66666168620077
 21
-638.27604077320029
 31
0.0
  0
LINE
  8
DETAIL
  6
CONTINUOUS
 62
     5
 10
-632.66666168620077
 20
-638.27604077320029
 30
0.0
 11
-632.648833046601
 21
-638.23927924409986
 31
0.0
  0
LINE
  8
DETAIL
  6
CONTINUOUS
 62
     5
 10
-632.648833046601
 20
-638.23927924409986
 30
0.0
 11
-632.64566692710048
 21
-638.23059209159987
 31
0.0
  0
LINE
  8
DETAIL
  6
CONTINUOUS
 62
     5
 10
638.3999999999993
 20
-632.87636479150012
 30
0.0
 11
639.9999999999992
 21
-632.87636479150012
 31
0.0
  0
LINE
  8
DETAIL
  6
CONTINUOUS
 62
     5
 10
-638.40000000000111
 20
-632.87636479150001
 30
0.0
 11
-640.00000000000091
 21
-632.87636479150001
 31
0.0
  0
LINE
  8
DETAIL
  6
CONTINUOUS
 62
     5
 10
-640.00000000000091
 20
-638.39999999999986
 30
0.0
 11
-638.40000000000111
 21
-638.39999999999986
 31
0.0
  0
LINE
  8
DETAIL
  6
CONTINUOUS
 62
     5
 10
639.9999999999992
 20
-638.40000000000032
 30
0.0
 11
638.3999999999993
 21
-638.40000000000032
 31
0.0
  0
LINE
  8
DETAIL
  6
CONTINUOUS
 62
     5
 10
638.3999999999993
 20
-638.40000000000032
 30
0.0
 11
632.87636479149921
 21
-638.40000000000032
 31
0.0
  0
LINE
  8
DETAIL
  6
CONTINUOUS
 62
     5
 10
299.66476151589882
 20
-638.40000000000032
 30
0.0
 11
290.33523848409902
 21
-638.40000000000032
 31
0.0
  0
LINE
  8
DETAIL
  6
CONTINUOUS
 62
     5
 10
-290.3352384841009
 20
-638.40000000000032
 30
0.0
 11
-299.66476151590092
 21
-638.40000000000032
 31
0.0
  0
LINE
  8
DETAIL
  6
CONTINUOUS
 62
     5
 10
-632.87636479150069
 20
-638.39999999999986
 30
0.0
 11
-638.40000000000111
 21
-638.39999999999986
 31
0.0
  0
LINE
  8
DETAIL
  6
CONTINUOUS
 62
     5
 10
638.3999999999993
 20
-640.00000000000011
 30
0.0
 11
299.66476151589882
 21
-640.00000000000011
 31
0.0
  0
LINE
  8
DETAIL
  6
CONTINUOUS
 62
     5
 10
299.66476151589882
 20
-640.00000000000011
 30
0.0
 11
290.33523848409902
 21
-640.00000000000011
 31
0.0
  0
LINE
  8
DETAIL
  6
CONTINUOUS
 62
     5
 10
290.33523848409902
 20
-640.00000000000011
 30
0.0
 11
-290.3352384841009
 21
-640.00000000000011
 31
0.0
  0
LINE
  8
DETAIL
  6
CONTINUOUS
 62
     5
 10
-290.3352384841009
 20
-640.00000000000011
 30
0.0
 11
-299.66476151590092
 21
-640.00000000000011
 31
0.0
  0
LINE
  8
DETAIL
  6
CONTINUOUS
 62
     5
 10
-299.66476151590092
 20
-640.00000000000011
 30
0.0
 11
-638.40000000000111
 21
-640.0
 31
0.0
  0
LINE
  8
DETAIL
  6
CONTINUOUS
 62
     5
 10
-639.06274169980099
 20
-632.6000034148999
 30
0.0
 11
-638.9413363262006
 21
-632.60120036989997
 31
0.0
  0
LINE
  8
DETAIL
  6
CONTINUOUS
 62
     5
 10
-638.9413363262006
 20
-632.60120036989997
 30
0.0
 11
-638.8142951469008
 21
-632.60478699419991
 31
0.0
  0
LINE
  8
DETAIL
  6
CONTINUOUS
 62
     5
 10
-638.8142951469008
 20
-632.60478699419991
 30
0.0
 11
-638.68174665280094
 21
-632.61077601019997
 31
0.0
  0
LINE
  8
DETAIL
  6
CONTINUOUS
 62
     5
 10
-638.68174665280094
 20
-632.61077601019997
 30
0.0
 11
-638.54379614210075
 21
-632.61917663300017
 31
0.0
  0
LINE
  8
DETAIL
  6
CONTINUOUS
 62
     5
 10
-638.54379614210075
 20
-632.61917663300017
 30
0.0
 11
-638.40103508900074
 21
-632.6299951435999
 31
0.0
  0
LINE
  8
DETAIL
  6
CONTINUOUS
 62
     5
 10
-638.40103508900074
 20
-632.6299951435999
 30
0.0
 11
-638.25408265580052
 21
-632.64322550050019
 31
0.0
  0
LINE
  8
DETAIL
  6
CONTINUOUS
 62
     5
 10
-638.25408265580052
 20
-632.64322550050019
 30
0.0
 11
-638.10313442080098
 21
-632.65891388589989
 31
0.0
  0
LINE
  8
DETAIL
  6
CONTINUOUS
 62
     5
 10
-638.10313442080098
 20
-632.65891388589989
 30
0.0
 11
-637.94840612330051
 21
-632.67710156559997
 31
0.0
  0
LINE
  8
DETAIL
  6
CONTINUOUS
 62
     5
 10
-637.94840612330051
 20
-632.67710156559997
 30
0.0
 11
-637.79045709940101
 21
-632.69779724630007
 31
0.0
  0
LINE
  8
DETAIL
  6
CONTINUOUS
 62
     5
 10
-637.79045709940101
 20
-632.69779724630007
 30
0.0
 11
-637.62984410790068
 21
-632.72100557090005
 31
0.0
  0
LINE
  8
DETAIL
  6
CONTINUOUS
 62
     5
 10
-637.62984410790068
 20
-632.72100557090005
 30
0.0
 11
-637.46687896570074
 21
-632.74677999709991
 31
0.0
  0
LINE
  8
DETAIL
  6
CONTINUOUS
 62
     5
 10
-637.46687896570074
 20
-632.74677999709991
 30
0.0
 11
-637.30188517300076
 21
-632.77516171700006
 31
0.0
  0
LINE
  8
DETAIL
  6
CONTINUOUS
 62
     5
 10
-637.30188517300076
 20
-632.77516171700006
 30
0.0
 11
-637.13540754280086
 21
-632.80619217069989
 31
0.0
  0
LINE
  8
DETAIL
  6
CONTINUOUS
 62
     5
 10
-637.13540754280086
 20
-632.80619217069989
 30
0.0
 11
-636.96796596040076
 21
-632.83993342519989
 31
0.0
  0
LINE
  8
DETAIL
  6
CONTINUOUS
 62
     5
 10
-636.96796596040076
 20
-632.83993342519989
 30
0.0
 11
-636.80000000000052
 21
-632.87636479150001
 31
0.0
  0
LINE
  8
DETAIL
  6
CONTINUOUS
 62
     5
 10
639.06274169979918
 20
-632.60000341490013
 30
0.0
 11
639.17795684519922
 21
-632.60120037000013
 31
0.0
  0
LINE
  8
DETAIL
  6
CONTINUOUS
 62
     5
 10
639.17795684519922
 20
-632.60120037000013
 30
0.0
 11
639.28648649479919
 21
-632.60478699450027
 31
0.0
  0
LINE
  8
DETAIL
  6
CONTINUOUS
 62
     5
 10
639.28648649479919
 20
-632.60478699450027
 30
0.0
 11
639.38824835819923
 21
-632.61077601060003
 31
0.0
  0
LINE
  8
DETAIL
  6
CONTINUOUS
 62
     5
 10
639.38824835819923
 20
-632.61077601060003
 30
0.0
 11
639.48312784579912
 21
-632.6191766334
 31
0.0
  0
LINE
  8
DETAIL
  6
CONTINUOUS
 62
     5
 10
639.48312784579912
 20
-632.6191766334
 30
0.0
 11
639.57068342809919
 21
-632.62999514400019
 31
0.0
  0
LINE
  8
DETAIL
  6
CONTINUOUS
 62
     5
 10
639.57068342809919
 20
-632.62999514400019
 30
0.0
 11
639.65055146319889
 21
-632.64322550110012
 31
0.0
  0
LINE
  8
DETAIL
  6
CONTINUOUS
 62
     5
 10
639.65055146319889
 20
-632.64322550110012
 30
0.0
 11
639.72264275879934
 21
-632.65891388649993
 31
0.0
  0
LINE
  8
DETAIL
  6
CONTINUOUS
 62
     5
 10
639.72264275879934
 20
-632.65891388649993
 30
0.0
 11
639.78683166329938
 21
-632.6771015661003
 31
0.0
  0
LINE
  8
DETAIL
  6
CONTINUOUS
 62
     5
 10
639.78683166329938
 20
-632.6771015661003
 30
0.0
 11
639.84285963189916
 21
-632.69779724670002
 31
0.0
  0
LINE
  8
DETAIL
  6
CONTINUOUS
 62
     5
 10
639.84285963189916
 20
-632.69779724670002
 30
0.0
 11
639.89052726259877
 21
-632.72100557130011
 31
0.0
  0
LINE
  8
DETAIL
  6
CONTINUOUS
 62
     5
 10
639.89052726259877
 20
-632.72100557130011
 30
0.0
 11
639.92973999699916
 21
-632.74677999760002
 31
0.0
  0
LINE
  8
DETAIL
  6
CONTINUOUS
 62
     5
 10
639.92973999699916
 20
-632.74677999760002
 30
0.0
 11
639.9603973286994
 21
-632.77516171740012
 31
0.0
  0
LINE
  8
DETAIL
  6
CONTINUOUS
 62
     5
 10
639.9603973286994
 20
-632.77516171740012
 30
0.0
 11
639.98237360799919
 21
-632.80619217079993
 31
0.0
  0
LINE
  8
DETAIL
  6
CONTINUOUS
 62
     5
 10
639.98237360799919
 20
-632.80619217079993
 30
0.0
 11
639.99558874639922
 21
-632.83993342520012
 31
0.0
  0
LINE
  8
DETAIL
  6
CONTINUOUS
 62
     5
 10
639.99558874639922
 20
-632.83993342520012
 30
0.0
 11
639.9999999999992
 21
-632.87636479150012
 31
0.0
  0
LINE
  8
DETAIL
  6
CONTINUOUS
 62
     5
 10
290.33523848409902
 20
-638.40000000000032
 30
0.0
 11
290.28650736299909
 21
-638.39734337810012
 31
0.0
  0
LINE
  8
DETAIL
  6
CONTINUOUS
 62
     5
 10
290.28650736299909
 20
-638.39734337810012
 30
0.0
 11
290.24197937109909
 21
-638.3894359650003
 31
0.0
  0
LINE
  8
DETAIL
  6
CONTINUOUS
 62
     5
 10
290.24197937109909
 20
-638.3894359650003
 30
0.0
 11
290.20173375389908
 21
-638.3763841271001
 31
0.0
  0
LINE
  8
DETAIL
  6
CONTINUOUS
 62
     5
 10
290.20173375389908
 20
-638.3763841271001
 30
0.0
 11
290.16553277469939
 21
-638.35830796960011
 31
0.0
  0
LINE
  8
DETAIL
  6
CONTINUOUS
 62
     5
 10
290.16553277469939
 20
-638.35830796960011
 30
0.0
 11
290.13319966639938
 21
-638.3353467308001
 31
0.0
  0
LINE
  8
DETAIL
  6
CONTINUOUS
 62
     5
 10
290.13319966639938
 20
-638.3353467308001
 30
0.0
 11
290.10463076569943
 21
-638.30762985730018
 31
0.0
  0
LINE
  8
DETAIL
  6
CONTINUOUS
 62
     5
 10
290.10463076569943
 20
-638.30762985730018
 30
0.0
 11
290.07969215499912
 21
-638.27529542340028
 31
0.0
  0
LINE
  8
DETAIL
  6
CONTINUOUS
 62
     5
 10
290.07969215499912
 20
-638.27529542340028
 30
0.0
 11
290.05829783019908
 21
-638.2384765234001
 31
0.0
  0
LINE
  8
DETAIL
  6
CONTINUOUS
 62
     5
 10
290.05829783019908
 20
-638.2384765234001
 30
0.0
 11
290.0549699996991
 21
-638.23084811870012
 31
0.0
  0
LINE
  8
DETAIL
  6
CONTINUOUS
 62
     5
 10
290.33523848409902
 20
-640.00000000000011
 30
0.0
 11
290.29335084479908
 21
-639.9961305047002
 31
0.0
  0
LINE
  8
DETAIL
  6
CONTINUOUS
 62
     5
 10
290.29335084479908
 20
-639.9961305047002
 30
0.0
 11
290.25444300719931
 21
-639.98453516530003
 31
0.0
  0
LINE
  8
DETAIL
  6
CONTINUOUS
 62
     5
 10
290.25444300719931
 20
-639.98453516530003
 30
0.0
 11
290.21855148629948
 21
-639.96524848080026
 31
0.0
  0
LINE
  8
DETAIL
  6
CONTINUOUS
 62
     5
 10
290.21855148629948
 20
-639.96524848080026
 30
0.0
 11
290.18556673669912
 21
-639.93832029230043
 31
0.0
  0
LINE
  8
DETAIL
  6
CONTINUOUS
 62
     5
 10
290.18556673669912
 20
-639.93832029230043
 30
0.0
 11
290.15539915569917
 21
-639.90381027740011
 31
0.0
  0
LINE
  8
DETAIL
  6
CONTINUOUS
 62
     5
 10
290.15539915569917
 20
-639.90381027740011
 30
0.0
 11
290.12802543019922
 21
-639.86182117330009
 31
0.0
  0
LINE
  8
DETAIL
  6
CONTINUOUS
 62
     5
 10
290.12802543019922
 20
-639.86182117330009
 30
0.0
 11
290.10340530329881
 21
-639.81248996120019
 31
0.0
  0
LINE
  8
DETAIL
  6
CONTINUOUS
 62
     5
 10
290.10340530329881
 20
-639.81248996120019
 30
0.0
 11
290.08150000469908
 21
-639.75593138450029
 31
0.0
  0
LINE
  8
DETAIL
  6
CONTINUOUS
 62
     5
 10
290.08150000469908
 20
-639.75593138450029
 30
0.0
 11
290.06227003359891
 21
-639.6922847433998
 31
0.0
  0
LINE
  8
DETAIL
  6
CONTINUOUS
 62
     5
 10
290.06227003359891
 20
-639.6922847433998
 30
0.0
 11
290.04567732399931
 21
-639.62168632300018
 31
0.0
  0
LINE
  8
DETAIL
  6
CONTINUOUS
 62
     5
 10
290.04567732399931
 20
-639.62168632300018
 30
0.0
 11
290.03167406209923
 21
-639.54425849320012
 31
0.0
  0
LINE
  8
DETAIL
  6
CONTINUOUS
 62
     5
 10
290.03167406209923
 20
-639.54425849320012
 30
0.0
 11
290.02024999099922
 21
-639.46023545719993
 31
0.0
  0
LINE
  8
DETAIL
  6
CONTINUOUS
 62
     5
 10
290.02024999099922
 20
-639.46023545719993
 30
0.0
 11
290.01138250739939
 21
-639.36988453660013
 31
0.0
  0
LINE
  8
DETAIL
  6
CONTINUOUS
 62
     5
 10
290.01138250739939
 20
-639.36988453660013
 30
0.0
 11
290.00506083599919
 21
-639.27337939149993
 31
0.0
  0
LINE
  8
DETAIL
  6
CONTINUOUS
 62
     5
 10
290.00506083599919
 20
-639.27337939149993
 30
0.0
 11
290.00126437809922
 21
-639.17091249860027
 31
0.0
  0
LINE
  8
DETAIL
  6
CONTINUOUS
 62
     5
 10
290.00126437809922
 20
-639.17091249860027
 30
0.0
 11
289.99999999999909
 21
-639.06274169980043
 31
0.0
  0
LINE
  8
DETAIL
  6
CONTINUOUS
 62
     5
 10
-632.87636479150069
 20
638.39999999999986
 30
0.0
 11
-632.87636479150069
 21
640.0
 31
0.0
  0
LINE
  8
DETAIL
  6
CONTINUOUS
 62
     5
 10
-632.87636479150069
 20
-638.39999999999986
 30
0.0
 11
-632.87636479150069
 21
-640.0
 31
0.0
  0
LINE
  8
DETAIL
  6
CONTINUOUS
 62
     5
 10
-638.40000000000111
 20
-640.0
 30
0.0
 11
-638.40000000000111
 21
-638.39999999999986
 31
0.0
  0
LINE
  8
DETAIL
  6
CONTINUOUS
 62
     5
 10
-638.40000000000111
 20
-638.39999999999986
 30
0.0
 11
-638.40000000000111
 21
-632.87636479150001
 31
0.0
  0
LINE
  8
DETAIL
  6
CONTINUOUS
 62
     5
 10
-638.40000000000111
 20
-299.66476151580008
 30
0.0
 11
-638.40000000000111
 21
-290.33523848409982
 31
0.0
  0
LINE
  8
DETAIL
  6
CONTINUOUS
 62
     5
 10
-638.40000000000111
 20
290.33523848419992
 30
0.0
 11
-638.40000000000111
 21
299.66476151590001
 31
0.0
  0
LINE
  8
DETAIL
  6
CONTINUOUS
 62
     5
 10
-638.40000000000111
 20
640.0
 30
0.0
 11
-638.40000000000111
 21
638.39999999999986
 31
0.0
  0
LINE
  8
DETAIL
  6
CONTINUOUS
 62
     5
 10
-638.40000000000111
 20
632.87636479150001
 30
0.0
 11
-638.40000000000111
 21
638.39999999999986
 31
0.0
  0
LINE
  8
DETAIL
  6
CONTINUOUS
 62
     5
 10
-640.00000000000091
 20
-638.39999999999986
 30
0.0
 11
-640.00000000000091
 21
-299.66476151580008
 31
0.0
  0
LINE
  8
DETAIL
  6
CONTINUOUS
 62
     5
 10
-640.00000000000091
 20
-299.66476151580008
 30
0.0
 11
-640.00000000000091
 21
-290.33523848409982
 31
0.0
  0
LINE
  8
DETAIL
  6
CONTINUOUS
 62
     5
 10
-640.00000000000091
 20
-290.33523848409982
 30
0.0
 11
-640.00000000000091
 21
290.33523848419992
 31
0.0
  0
LINE
  8
DETAIL
  6
CONTINUOUS
 62
     5
 10
-640.00000000000091
 20
290.33523848419992
 30
0.0
 11
-640.00000000000091
 21
299.66476151590001
 31
0.0
  0
LINE
  8
DETAIL
  6
CONTINUOUS
 62
     5
 10
-640.00000000000091
 20
299.66476151590001
 30
0.0
 11
-640.00000000000091
 21
638.39999999999986
 31
0.0
  0
LINE
  8
DETAIL
  6
CONTINUOUS
 62
     5
 10
-632.60000341490047
 20
639.0627416998002
 30
0.0
 11
-632.60120036990054
 21
638.94133632619992
 31
0.0
  0
LINE
  8
DETAIL
  6
CONTINUOUS
 62
     5
 10
-632.60120036990054
 20
638.94133632619992
 30
0.0
 11
-632.60478699420082
 21
638.81429514689989
 31
0.0
  0
LINE
  8
DETAIL
  6
CONTINUOUS
 62
     5
 10
-632.60478699420082
 20
638.81429514689989
 30
0.0
 11
-632.61077601020088
 21
638.68174665280003
 31
0.0
  0
LINE
  8
DETAIL
  6
CONTINUOUS
 62
     5
 10
-632.61077601020088
 20
638.68174665280003
 30
0.0
 11
-632.61917663300073
 21
638.54379614210006
 31
0.0
  0
LINE
  8
DETAIL
  6
CONTINUOUS
 62
     5
 10
-632.61917663300073
 20
638.54379614210006
 30
0.0
 11
-632.62999514360081
 21
638.40103508899995
 31
0.0
  0
LINE
  8
DETAIL
  6
CONTINUOUS
 62
     5
 10
-632.62999514360081
 20
638.40103508899995
 30
0.0
 11
-632.64322550060069
 21
638.25408265579995
 31
0.0
  0
LINE
  8
DETAIL
  6
CONTINUOUS
 62
     5
 10
-632.64322550060069
 20
638.25408265579995
 30
0.0
 11
-632.6589138859008
 21
638.10313442079996
 31
0.0
  0
LINE
  8
DETAIL
  6
CONTINUOUS
 62
     5
 10
-632.6589138859008
 20
638.10313442079996
 30
0.0
 11
-632.67710156560088
 21
637.94840612329995
 31
0.0
  0
LINE
  8
DETAIL
  6
CONTINUOUS
 62
     5
 10
-632.67710156560088
 20
637.94840612329995
 30
0.0
 11
-632.69779724640102
 21
637.7904570994998
 31
0.0
  0
LINE
  8
DETAIL
  6
CONTINUOUS
 62
     5
 10
-632.69779724640102
 20
637.7904570994998
 30
0.0
 11
-632.72100557090062
 21
637.6298441079
 31
0.0
  0
LINE
  8
DETAIL
  6
CONTINUOUS
 62
     5
 10
-632.72100557090062
 20
637.6298441079
 30
0.0
 11
-632.74677999710093
 21
637.46687896579988
 31
0.0
  0
LINE
  8
DETAIL
  6
CONTINUOUS
 62
     5
 10
-632.74677999710093
 20
637.46687896579988
 30
0.0
 11
-632.77516171700108
 21
637.30188517309989
 31
0.0
  0
LINE
  8
DETAIL
  6
CONTINUOUS
 62
     5
 10
-632.77516171700108
 20
637.30188517309989
 30
0.0
 11
-632.8061921707008
 21
637.13540754289988
 31
0.0
  0
LINE
  8
DETAIL
  6
CONTINUOUS
 62
     5
 10
-632.8061921707008
 20
637.13540754289988
 30
0.0
 11
-632.8399334252008
 21
636.96796596040031
 31
0.0
  0
LINE
  8
DETAIL
  6
CONTINUOUS
 62
     5
 10
-632.8399334252008
 20
636.96796596040031
 30
0.0
 11
-632.87636479150069
 21
636.80000000000007
 31
0.0
  0
LINE
  8
DETAIL
  6
CONTINUOUS
 62
     5
 10
-632.60000341500051
 20
-639.0627416998002
 30
0.0
 11
-632.6012003700007
 21
-639.17795684520001
 31
0.0
  0
LINE
  8
DETAIL
  6
CONTINUOUS
 62
     5
 10
-632.6012003700007
 20
-639.17795684520001
 30
0.0
 11
-632.60478699450107
 21
-639.28648649479987
 31
0.0
  0
LINE
  8
DETAIL
  6
CONTINUOUS
 62
     5
 10
-632.60478699450107
 20
-639.28648649479987
 30
0.0
 11
-632.61077601060049
 21
-639.38824835809987
 31
0.0
  0
LINE
  8
DETAIL
  6
CONTINUOUS
 62
     5
 10
-632.61077601060049
 20
-639.38824835809987
 30
0.0
 11
-632.61917663350107
 21
-639.48312784580003
 31
0.0
  0
LINE
  8
DETAIL
  6
CONTINUOUS
 62
     5
 10
-632.61917663350107
 20
-639.48312784580003
 30
0.0
 11
-632.62999514400053
 21
-639.57068342809998
 31
0.0
  0
LINE
  8
DETAIL
  6
CONTINUOUS
 62
     5
 10
-632.62999514400053
 20
-639.57068342809998
 30
0.0
 11
-632.64322550110057
 21
-639.65055146319969
 31
0.0
  0
LINE
  8
DETAIL
  6
CONTINUOUS
 62
     5
 10
-632.64322550110057
 20
-639.65055146319969
 30
0.0
 11
-632.65891388650073
 21
-639.72264275869998
 31
0.0
  0
LINE
  8
DETAIL
  6
CONTINUOUS
 62
     5
 10
-632.65891388650073
 20
-639.72264275869998
 30
0.0
 11
-632.67710156610053
 21
-639.78683166329972
 31
0.0
  0
LINE
  8
DETAIL
  6
CONTINUOUS
 62
     5
 10
-632.67710156610053
 20
-639.78683166329972
 30
0.0
 11
-632.69779724670116
 21
-639.84285963179968
 31
0.0
  0
LINE
  8
DETAIL
  6
CONTINUOUS
 62
     5
 10
-632.69779724670116
 20
-639.84285963179968
 30
0.0
 11
-632.72100557140072
 21
-639.89052726259979
 31
0.0
  0
LINE
  8
DETAIL
  6
CONTINUOUS
 62
     5
 10
-632.72100557140072
 20
-639.89052726259979
 30
0.0
 11
-632.74677999760058
 21
-639.92973999699973
 31
0.0
  0
LINE
  8
DETAIL
  6
CONTINUOUS
 62
     5
 10
-632.74677999760058
 20
-639.92973999699973
 30
0.0
 11
-632.77516171740081
 21
-639.96039732859992
 31
0.0
  0
LINE
  8
DETAIL
  6
CONTINUOUS
 62
     5
 10
-632.77516171740081
 20
-639.96039732859992
 30
0.0
 11
-632.80619217090089
 21
-639.98237360799999
 31
0.0
  0
LINE
  8
DETAIL
  6
CONTINUOUS
 62
     5
 10
-632.80619217090089
 20
-639.98237360799999
 30
0.0
 11
-632.83993342530084
 21
-639.9955887463999
 31
0.0
  0
LINE
  8
DETAIL
  6
CONTINUOUS
 62
     5
 10
-632.83993342530084
 20
-639.9955887463999
 30
0.0
 11
-632.87636479150069
 21
-640.0
 31
0.0
  0
LINE
  8
DETAIL
  6
CONTINUOUS
 62
     5
 10
-638.40000000000111
 20
-290.33523848409982
 30
0.0
 11
-638.39734289680052
 21
-290.28650380339991
 31
0.0
  0
LINE
  8
DETAIL
  6
CONTINUOUS
 62
     5
 10
-638.39734289680052
 20
-290.28650380339991
 30
0.0
 11
-638.38943690280087
 21
-290.24198132430001
 31
0.0
  0
LINE
  8
DETAIL
  6
CONTINUOUS
 62
     5
 10
-638.38943690280087
 20
-290.24198132430001
 30
0.0
 11
-638.37639493480083
 21
-290.20175559929999
 31
0.0
  0
LINE
  8
DETAIL
  6
CONTINUOUS
 62
     5
 10
-638.37639493480083
 20
-290.20175559929999
 30
0.0
 11
-638.35833425150076
 21
-290.16557297109978
 31
0.0
  0
LINE
  8
DETAIL
  6
CONTINUOUS
 62
     5
 10
-638.35833425150076
 20
-290.16557297109978
 30
0.0
 11
-638.33538036410084
 21
-290.13323761240008
 31
0.0
  0
LINE
  8
DETAIL
  6
CONTINUOUS
 62
     5
 10
-638.33538036410084
 20
-290.13323761240008
 30
0.0
 11
-638.30766547360054
 21
-290.10466058650007
 31
0.0
  0
LINE
  8
DETAIL
  6
CONTINUOUS
 62
     5
 10
-638.30766547360054
 20
-290.10466058650007
 30
0.0
 11
-638.27532918230099
 21
-290.07971637529982
 31
0.0
  0
LINE
  8
DETAIL
  6
CONTINUOUS
 62
     5
 10
-638.27532918230099
 20
-290.07971637529982
 30
0.0
 11
-638.23851141020077
 21
-290.05831889589979
 31
0.0
  0
LINE
  8
DETAIL
  6
CONTINUOUS
 62
     5
 10
-638.23851141020077
 20
-290.05831889589979
 30
0.0
 11
-638.23084981480099
 21
-290.05497528440009
 31
0.0
  0
LINE
  8
DETAIL
  6
CONTINUOUS
 62
     5
 10
-638.40000000000111
 20
299.66476151590001
 30
0.0
 11
-638.39734289680052
 21
299.71349619660009
 31
0.0
  0
LINE
  8
DETAIL
  6
CONTINUOUS
 62
     5
 10
-638.39734289680052
 20
299.71349619660009
 30
0.0
 11
-638.38943690280087
 21
299.75801867569999
 31
0.0
  0
LINE
  8
DETAIL
  6
CONTINUOUS
 62
     5
 10
-638.38943690280087
 20
299.75801867569999
 30
0.0
 11
-638.37639493480083
 21
299.79824440070001
 31
0.0
  0
LINE
  8
DETAIL
  6
CONTINUOUS
 62
     5
 10
-638.37639493480083
 20
299.79824440070001
 30
0.0
 11
-638.35833425150076
 21
299.83442702890022
 31
0.0
  0
LINE
  8
DETAIL
  6
CONTINUOUS
 62
     5
 10
-638.35833425150076
 20
299.83442702890022
 30
0.0
 11
-638.33538036410084
 21
299.86676238759992
 31
0.0
  0
LINE
  8
DETAIL
  6
CONTINUOUS
 62
     5
 10
-638.33538036410084
 20
299.86676238759992
 30
0.0
 11
-638.30766547360054
 21
299.89533941349993
 31
0.0
  0
LINE
  8
DETAIL
  6
CONTINUOUS
 62
     5
 10
-638.30766547360054
 20
299.89533941349993
 30
0.0
 11
-638.27532918230099
 21
299.92028362469972
 31
0.0
  0
LINE
  8
DETAIL
  6
CONTINUOUS
 62
     5
 10
-638.27532918230099
 20
299.92028362469972
 30
0.0
 11
-638.23851141020077
 21
299.94168110409993
 31
0.0
  0
LINE
  8
DETAIL
  6
CONTINUOUS
 62
     5
 10
-638.23851141020077
 20
299.94168110409993
 30
0.0
 11
-638.23084981480099
 21
299.94502471559991
 31
0.0
  0
LINE
  8
DETAIL
  6
CONTINUOUS
 62
     5
 10
-640.00000000000091
 20
299.66476151590001
 30
0.0
 11
-639.99613024160089
 21
299.70665087549992
 31
0.0
  0
LINE
  8
DETAIL
  6
CONTINUOUS
 62
     5
 10
-639.99613024160089
 20
299.70665087549992
 30
0.0
 11
-639.98453521420106
 21
299.74555831759989
 31
0.0
  0
LINE
  8
DETAIL
  6
CONTINUOUS
 62
     5
 10
-639.98453521420106
 20
299.74555831759989
 30
0.0
 11
-639.96525183590074
 21
299.7814463238999
 31
0.0
  0
LINE
  8
DETAIL
  6
CONTINUOUS
 62
     5
 10
-639.96525183590074
 20
299.7814463238999
 30
0.0
 11
-639.93832924000071
 21
299.81442744930001
 31
0.0
  0
LINE
  8
DETAIL
  6
CONTINUOUS
 62
     5
 10
-639.93832924000071
 20
299.81442744930001
 30
0.0
 11
-639.90382172120098
 21
299.84459549149977
 31
0.0
  0
LINE
  8
DETAIL
  6
CONTINUOUS
 62
     5
 10
-639.90382172120098
 20
299.84459549149977
 30
0.0
 11
-639.86183611190052
 21
299.87196920370002
 31
0.0
  0
LINE
  8
DETAIL
  6
CONTINUOUS
 62
     5
 10
-639.86183611190052
 20
299.87196920370002
 30
0.0
 11
-639.81252399450102
 21
299.89658257130009
 31
0.0
  0
LINE
  8
DETAIL
  6
CONTINUOUS
 62
     5
 10
-639.81252399450102
 20
299.89658257130009
 30
0.0
 11
-639.75597800820105
 21
299.91848369639979
 31
0.0
  0
LINE
  8
DETAIL
  6
CONTINUOUS
 62
     5
 10
-639.75597800820105
 20
299.91848369639979
 30
0.0
 11
-639.69228490440082
 21
299.93772472209992
 31
0.0
  0
LINE
  8
DETAIL
  6
CONTINUOUS
 62
     5
 10
-639.69228490440082
 20
299.93772472209992
 30
0.0
 11
-639.62163807270053
 21
299.95432751170011
 31
0.0
  0
LINE
  8
DETAIL
  6
CONTINUOUS
 62
     5
 10
-639.62163807270053
 20
299.95432751170011
 30
0.0
 11
-639.54426169810085
 21
299.96832187999962
 31
0.0
  0
LINE
  8
DETAIL
  6
CONTINUOUS
 62
     5
 10
-639.54426169810085
 20
299.96832187999962
 30
0.0
 11
-639.46030073240081
 21
299.97973611529977
 31
0.0
  0
LINE
  8
DETAIL
  6
CONTINUOUS
 62
     5
 10
-639.46030073240081
 20
299.97973611529977
 30
0.0
 11
-639.36989921380109
 21
299.98860920739992
 31
0.0
  0
LINE
  8
DETAIL
  6
CONTINUOUS
 62
     5
 10
-639.36989921380109
 20
299.98860920739992
 30
0.0
 11
-639.27332544320109
 21
299.99493886589988
 31
0.0
  0
LINE
  8
DETAIL
  6
CONTINUOUS
 62
     5
 10
-639.27332544320109
 20
299.99493886589988
 30
0.0
 11
-639.17087019710073
 21
299.99873592580002
 31
0.0
  0
LINE
  8
DETAIL
  6
CONTINUOUS
 62
     5
 10
-639.17087019710073
 20
299.99873592580002
 30
0.0
 11
-639.06274169980099
 21
299.99999999999989
 31
0.0
  0
LINE
  8
DETAIL
  6
CONTINUOUS
 62
     5
 10
-299.66476151590092
 20
-638.40000000000032
 30
0.0
 11
-299.7134926370008
 21
-638.39734337810012
 31
0.0
  0
LINE
  8
DETAIL
  6
CONTINUOUS
 62
     5
 10
-299.7134926370008
 20
-638.39734337810012
 30
0.0
 11
-299.75802062890119
 21
-638.3894359650003
 31
0.0
  0
LINE
  8
DETAIL
  6
CONTINUOUS
 62
     5
 10
-299.75802062890119
 20
-638.3894359650003
 30
0.0
 11
-299.79826624610092
 21
-638.3763841271001
 31
0.0
  0
LINE
  8
DETAIL
  6
CONTINUOUS
 62
     5
 10
-299.79826624610092
 20
-638.3763841271001
 30
0.0
 11
-299.83446722530061
 21
-638.35830796960011
 31
0.0
  0
LINE
  8
DETAIL
  6
CONTINUOUS
 62
     5
 10
-299.83446722530061
 20
-638.35830796960011
 30
0.0
 11
-299.86680033360062
 21
-638.3353467308001
 31
0.0
  0
LINE
  8
DETAIL
  6
CONTINUOUS
 62
     5
 10
-299.86680033360062
 20
-638.3353467308001
 30
0.0
 11
-299.89536923430057
 21
-638.30762985730018
 31
0.0
  0
LINE
  8
DETAIL
  6
CONTINUOUS
 62
     5
 10
-299.89536923430057
 20
-638.30762985730018
 30
0.0
 11
-299.92030784500088
 21
-638.27529542340028
 31
0.0
  0
LINE
  8
DETAIL
  6
CONTINUOUS
 62
     5
 10
-299.92030784500088
 20
-638.27529542340028
 30
0.0
 11
-299.94170216980092
 21
-638.2384765234001
 31
0.0
  0
LINE
  8
DETAIL
  6
CONTINUOUS
 62
     5
 10
-299.94170216980092
 20
-638.2384765234001
 30
0.0
 11
-299.9450300003009
 21
-638.23084811870012
 31
0.0
  0
LINE
  8
DETAIL
  6
CONTINUOUS
 62
     5
 10
-299.66476151590092
 20
-640.00000000000011
 30
0.0
 11
-299.70664915520052
 21
-639.9961305047002
 31
0.0
  0
LINE
  8
DETAIL
  6
CONTINUOUS
 62
     5
 10
-299.70664915520052
 20
-639.9961305047002
 30
0.0
 11
-299.74555699280057
 21
-639.98453516530003
 31
0.0
  0
LINE
  8
DETAIL
  6
CONTINUOUS
 62
     5
 10
-299.74555699280057
 20
-639.98453516530003
 30
0.0
 11
-299.78144851370052
 21
-639.96524848080026
 31
0.0
  0
LINE
  8
DETAIL
  6
CONTINUOUS
 62
     5
 10
-299.78144851370052
 20
-639.96524848080026
 30
0.0
 11
-299.81443326330088
 21
-639.93832029230043
 31
0.0
  0
LINE
  8
DETAIL
  6
CONTINUOUS
 62
     5
 10
-299.81443326330088
 20
-639.93832029230043
 30
0.0
 11
-299.84460084430083
 21
-639.90381027740011
 31
0.0
  0
LINE
  8
DETAIL
  6
CONTINUOUS
 62
     5
 10
-299.84460084430083
 20
-639.90381027740011
 30
0.0
 11
-299.87197456980078
 21
-639.86182117330009
 31
0.0
  0
LINE
  8
DETAIL
  6
CONTINUOUS
 62
     5
 10
-299.87197456980078
 20
-639.86182117330009
 30
0.0
 11
-299.89659469670119
 21
-639.81248996120019
 31
0.0
  0
LINE
  8
DETAIL
  6
CONTINUOUS
 62
     5
 10
-299.89659469670119
 20
-639.81248996120019
 30
0.0
 11
-299.91849999530092
 21
-639.75593138450029
 31
0.0
  0
LINE
  8
DETAIL
  6
CONTINUOUS
 62
     5
 10
-299.91849999530092
 20
-639.75593138450029
 30
0.0
 11
-299.93772996640109
 21
-639.6922847433998
 31
0.0
  0
LINE
  8
DETAIL
  6
CONTINUOUS
 62
     5
 10
-299.93772996640109
 20
-639.6922847433998
 30
0.0
 11
-299.95432267600057
 21
-639.62168632300018
 31
0.0
  0
LINE
  8
DETAIL
  6
CONTINUOUS
 62
     5
 10
-299.95432267600057
 20
-639.62168632300018
 30
0.0
 11
-299.96832593790077
 21
-639.54425849320012
 31
0.0
  0
LINE
  8
DETAIL
  6
CONTINUOUS
 62
     5
 10
-299.96832593790077
 20
-639.54425849320012
 30
0.0
 11
-299.97975000900078
 21
-639.46023545719993
 31
0.0
  0
LINE
  8
DETAIL
  6
CONTINUOUS
 62
     5
 10
-299.97975000900078
 20
-639.46023545719993
 30
0.0
 11
-299.98861749260089
 21
-639.36988453660013
 31
0.0
  0
LINE
  8
DETAIL
  6
CONTINUOUS
 62
     5
 10
-299.98861749260089
 20
-639.36988453660013
 30
0.0
 11
-299.99493916400058
 21
-639.27337939149993
 31
0.0
  0
LINE
  8
DETAIL
  6
CONTINUOUS
 62
     5
 10
-299.99493916400058
 20
-639.27337939149993
 30
0.0
 11
-299.99873562190078
 21
-639.17091249860027
 31
0.0
  0
LINE
  8
DETAIL
  6
CONTINUOUS
 62
     5
 10
-299.99873562190078
 20
-639.17091249860027
 30
0.0
 11
-300.00000000000091
 21
-639.06274169980043
 31
0.0
  0
LINE
  8
DETAIL
  6
CONTINUOUS
 62
     5
 10
636.79999999999927
 20
-632.87636479150012
 30
0.0
 11
636.96796596019919
 21
-632.83993342520012
 31
0.0
  0
LINE
  8
DETAIL
  6
CONTINUOUS
 62
     5
 10
636.96796596019919
 20
-632.83993342520012
 30
0.0
 11
637.13540754199903
 21
-632.80619217079993
 31
0.0
  0
LINE
  8
DETAIL
  6
CONTINUOUS
 62
     5
 10
637.13540754199903
 20
-632.80619217079993
 30
0.0
 11
637.30188517099941
 21
-632.77516171740012
 31
0.0
  0
LINE
  8
DETAIL
  6
CONTINUOUS
 62
     5
 10
637.30188517099941
 20
-632.77516171740012
 30
0.0
 11
637.46687896239928
 21
-632.74677999770029
 31
0.0
  0
LINE
  8
DETAIL
  6
CONTINUOUS
 62
     5
 10
637.46687896239928
 20
-632.74677999770029
 30
0.0
 11
637.62984410459921
 21
-632.72100557140016
 31
0.0
  0
LINE
  8
DETAIL
  6
CONTINUOUS
 62
     5
 10
637.62984410459921
 20
-632.72100557140016
 30
0.0
 11
637.790457095899
 21
-632.69779724680029
 31
0.0
  0
LINE
  8
DETAIL
  6
CONTINUOUS
 62
     5
 10
637.790457095899
 20
-632.69779724680029
 30
0.0
 11
637.94840611729887
 21
-632.67710156630028
 31
0.0
  0
LINE
  8
DETAIL
  6
CONTINUOUS
 62
     5
 10
637.94840611729887
 20
-632.67710156630028
 30
0.0
 11
638.10313441269909
 21
-632.65891388680029
 31
0.0
  0
LINE
  8
DETAIL
  6
CONTINUOUS
 62
     5
 10
638.10313441269909
 20
-632.65891388680029
 30
0.0
 11
638.25408264859925
 21
-632.64322550130009
 31
0.0
  0
LINE
  8
DETAIL
  6
CONTINUOUS
 62
     5
 10
638.25408264859925
 20
-632.64322550130009
 30
0.0
 11
638.40103508309903
 21
-632.62999514410012
 31
0.0
  0
LINE
  8
DETAIL
  6
CONTINUOUS
 62
     5
 10
638.40103508309903
 20
-632.62999514410012
 30
0.0
 11
638.5437961357992
 21
-632.6191766334
 31
0.0
  0
LINE
  8
DETAIL
  6
CONTINUOUS
 62
     5
 10
638.5437961357992
 20
-632.6191766334
 30
0.0
 11
638.68174664619892
 21
-632.6107760105001
 31
0.0
  0
LINE
  8
DETAIL
  6
CONTINUOUS
 62
     5
 10
638.68174664619892
 20
-632.6107760105001
 30
0.0
 11
638.8142951411993
 21
-632.60478699440011
 31
0.0
  0
LINE
  8
DETAIL
  6
CONTINUOUS
 62
     5
 10
638.8142951411993
 20
-632.60478699440011
 30
0.0
 11
638.94133632269939
 21
-632.60120037000013
 31
0.0
  0
LINE
  8
DETAIL
  6
CONTINUOUS
 62
     5
 10
638.94133632269939
 20
-632.60120037000013
 30
0.0
 11
639.06274169979918
 21
-632.60000341490013
 31
0.0
  0
LINE
  8
DETAIL
  6
CONTINUOUS
 62
     5
 10
-632.87636479150069
 20
-636.79999999999995
 30
0.0
 11
-632.83993342530084
 21
-636.96796596019999
 31
0.0
  0
LINE
  8
DETAIL
  6
CONTINUOUS
 62
     5
 10
-632.83993342530084
 20
-636.96796596019999
 30
0.0
 11
-632.80619217090089
 21
-637.13540754200005
 31
0.0
  0
LINE
  8
DETAIL
  6
CONTINUOUS
 62
     5
 10
-632.80619217090089
 20
-637.13540754200005
 30
0.0
 11
-632.77516171740081
 21
-637.30188517090005
 31
0.0
  0
LINE
  8
DETAIL
  6
CONTINUOUS
 62
     5
 10
-632.77516171740081
 20
-637.30188517090005
 30
0.0
 11
-632.74677999770086
 21
-637.46687896239996
 31
0.0
  0
LINE
  8
DETAIL
  6
CONTINUOUS
 62
     5
 10
-632.74677999770086
 20
-637.46687896239996
 30
0.0
 11
-632.72100557140072
 21
-637.62984410459967
 31
0.0
  0
LINE
  8
DETAIL
  6
CONTINUOUS
 62
     5
 10
-632.72100557140072
 20
-637.62984410459967
 30
0.0
 11
-632.69779724690079
 21
-637.7904570958998
 31
0.0
  0
LINE
  8
DETAIL
  6
CONTINUOUS
 62
     5
 10
-632.69779724690079
 20
-637.7904570958998
 30
0.0
 11
-632.67710156630085
 21
-637.94840611729978
 31
0.0
  0
LINE
  8
DETAIL
  6
CONTINUOUS
 62
     5
 10
-632.67710156630085
 20
-637.94840611729978
 30
0.0
 11
-632.65891388680075
 21
-638.1031344127
 31
0.0
  0
LINE
  8
DETAIL
  6
CONTINUOUS
 62
     5
 10
-632.65891388680075
 20
-638.1031344127
 30
0.0
 11
-632.643225501301
 21
-638.25408264859971
 31
0.0
  0
LINE
  8
DETAIL
  6
CONTINUOUS
 62
     5
 10
-632.643225501301
 20
-638.25408264859971
 30
0.0
 11
-632.62999514410103
 21
-638.40103508310006
 31
0.0
  0
LINE
  8
DETAIL
  6
CONTINUOUS
 62
     5
 10
-632.62999514410103
 20
-638.40103508310006
 30
0.0
 11
-632.61917663350107
 21
-638.54379613579999
 31
0.0
  0
LINE
  8
DETAIL
  6
CONTINUOUS
 62
     5
 10
-632.61917663350107
 20
-638.54379613579999
 30
0.0
 11
-632.61077601060049
 21
-638.68174664619971
 31
0.0
  0
LINE
  8
DETAIL
  6
CONTINUOUS
 62
     5
 10
-632.61077601060049
 20
-638.68174664619971
 30
0.0
 11
-632.60478699440091
 21
-638.81429514119986
 31
0.0
  0
LINE
  8
DETAIL
  6
CONTINUOUS
 62
     5
 10
-632.60478699440091
 20
-638.81429514119986
 30
0.0
 11
-632.6012003700007
 21
-638.94133632269995
 31
0.0
  0
LINE
  8
DETAIL
  6
CONTINUOUS
 62
     5
 10
-632.6012003700007
 20
-638.94133632269995
 30
0.0
 11
-632.60000341500051
 21
-639.0627416998002
 31
0.0
  0
CIRCLE
  8
DETAIL
  6
CONTINUOUS
 62
     5
 10
604.9999999999992
 20
374.99999999999977
 30
0.0
 40
7.5
  0
CIRCLE
  8
DETAIL
  6
CONTINUOUS
 62
     5
 10
604.9999999999992
 20
604.99999999999977
 30
0.0
 40
7.5
  0
CIRCLE
  8
DETAIL
  6
CONTINUOUS
 62
     5
 10
374.99999999999909
 20
604.99999999999977
 30
0.0
 40
7.5
  0
CIRCLE
  8
DETAIL
  6
CONTINUOUS
 62
     5
 10
339.99999999999909
 20
559.99999999999977
 30
0.0
 40
6.5
  0
ARC
  8
DETAIL
  6
CONTINUOUS
 62
     5
 10
638.59999999999945
 20
638.59999999999968
 30
0.0
 40
6.0
 50
197.45760312370911
 51
252.54239687632159
  0
ARC
  8
DETAIL
  6
CONTINUOUS
 62
     5
 10
294.99999999999909
 20
638.59999999999968
 30
0.0
 40
5.0
 50
201.10019602409471
 51
338.89980397590529
  0
ARC
  8
DETAIL
  6
CONTINUOUS
 62
     5
 10
638.59999999999945
 20
294.99999999999977
 30
0.0
 40
5.0
 50
111.1001960240729
 51
248.89980397587129
  0
CIRCLE
  8
DETAIL
  6
CONTINUOUS
 62
     5
 10
604.9999999999992
 20
-605.00000000000011
 30
0.0
 40
7.5
  0
CIRCLE
  8
DETAIL
  6
CONTINUOUS
 62
     5
 10
604.9999999999992
 20
-375.00000000000011
 30
0.0
 40
7.5
  0
CIRCLE
  8
DETAIL
  6
CONTINUOUS
 62
     5
 10
374.99999999999909
 20
-605.00000000000011
 30
0.0
 40
7.5
  0
ARC
  8
DETAIL
  6
CONTINUOUS
 62
     5
 10
638.59999999999945
 20
-638.60000000000014
 30
0.0
 40
6.0
 50
107.4576031236784
 51
162.54239687629089
  0
CIRCLE
  8
DETAIL
  6
CONTINUOUS
 62
     5
 10
91.094717153599078
 20
-16.062456434200161
 30
0.0
 40
5.0
  0
ARC
  8
DETAIL
  6
CONTINUOUS
 62
     5
 10
638.59999999999945
 20
-295.0
 30
0.0
 40
5.0
 50
111.1001960240729
 51
248.89980397587129
  0
ARC
  8
DETAIL
  6
CONTINUOUS
 62
     5
 10
294.99999999999909
 20
-638.60000000000014
 30
0.0
 40
5.0
 50
21.100196024094721
 51
158.89980397590529
  0
CIRCLE
  8
DETAIL
  6
CONTINUOUS
 62
     5
 10
-375.00000000000091
 20
605.0
 30
0.0
 40
7.5
  0
CIRCLE
  8
DETAIL
  6
CONTINUOUS
 62
     5
 10
-605.00000000000091
 20
605.0
 30
0.0
 40
7.5
  0
CIRCLE
  8
DETAIL
  6
CONTINUOUS
 62
     5
 10
-605.00000000000091
 20
374.99999999999989
 30
0.0
 40
7.5
  0
ARC
  8
DETAIL
  6
CONTINUOUS
 62
     5
 10
-638.6000000000007
 20
638.59999999999968
 30
0.0
 40
6.0
 50
287.45760312367838
 51
342.54239687629092
  0
CIRCLE
  8
DETAIL
  6
CONTINUOUS
 62
     5
 10
-31.636863257600911
 20
86.921567422699809
 30
0.0
 40
5.0
  0
ARC
  8
DETAIL
  6
CONTINUOUS
 62
     5
 10
-638.6000000000007
 20
294.99999999999989
 30
0.0
 40
5.0
 50
291.10019602407289
 51
68.899803975871265
  0
ARC
  8
DETAIL
  6
CONTINUOUS
 62
     5
 10
-295.00000000000091
 20
638.59999999999968
 30
0.0
 40
5.0
 50
201.10019602409471
 51
338.89980397590529
  0
CIRCLE
  8
DETAIL
  6
CONTINUOUS
 62
     5
 10
-0.0000000000009095
 20
-0.0000000000001137
 30
0.0
 40
588.75
  0
CIRCLE
  8
DETAIL
  6
CONTINUOUS
 62
     5
 10
-0.0000000000009095
 20
-0.0000000000001137
 30
0.0
 40
525.0
  0
ARC
  8
DETAIL
  6
CONTINUOUS
 62
     5
 10
-0.0000000000009095
 20
-0.0000000000001137
 30
0.0
 40
145.0
 50
304.31524481560899
 51
312.99999995098761
  0
ARC
  8
DETAIL
  6
CONTINUOUS
 62
     5
 10
-0.0000000000009095
 20
-0.0000000000001137
 30
0.0
 40
145.0
 50
184.31524339429541
 51
192.99999995090269
  0
ARC
  8
DETAIL
  6
CONTINUOUS
 62
     5
 10
-0.0000000000009095
 20
-0.0000000000001137
 30
0.0
 40
145.0
 50
64.315242444896967
 51
72.999999951521175
  0
CIRCLE
  8
DETAIL
  6
CONTINUOUS
 62
     5
 10
-0.0000000000009095
 20
-0.0000000000001137
 30
0.0
 40
75.0
  0
CIRCLE
  8
DETAIL
  6
CONTINUOUS
 62
     5
 10
-0.0000000000009095
 20
-0.0000000000001137
 30
0.0
 40
27.5
  0
CIRCLE
  8
DETAIL
  6
CONTINUOUS
 62
     5
 10
-0.0000000000009095
 20
-0.0000000000001137
 30
0.0
 40
27.0
  0
CIRCLE
  8
DETAIL
  6
CONTINUOUS
 62
     5
 10
-0.0000000000009095
 20
-0.0000000000001137
 30
0.0
 40
18.5
  0
CIRCLE
  8
DETAIL
  6
CONTINUOUS
 62
     5
 10
-0.0000000000009095
 20
-0.0000000000001137
 30
0.0
 40
15.0
  0
CIRCLE
  8
DETAIL
  6
CONTINUOUS
 62
     5
 10
-0.0000000000009095
 20
-0.0000000000001137
 30
0.0
 40
10.5196152423
  0
CIRCLE
  8
DETAIL
  6
CONTINUOUS
 62
     5
 10
-0.0000000000009095
 20
-0.0000000000001137
 30
0.0
 40
10.0
  0
CIRCLE
  8
DETAIL
  6
CONTINUOUS
 62
     5
 10
-59.45785389600087
 20
-70.859110988500092
 30
0.0
 40
5.0
  0
ARC
  8
DETAIL
  6
CONTINUOUS
 62
     5
 10
-295.00000000000091
 20
-638.60000000000014
 30
0.0
 40
5.0
 50
21.100196024094721
 51
158.89980397590529
  0
ARC
  8
DETAIL
  6
CONTINUOUS
 62
     5
 10
-638.6000000000007
 20
-294.99999999999972
 30
0.0
 40
5.0
 50
291.10019602407289
 51
68.899803975871265
  0
CIRCLE
  8
DETAIL
  6
CONTINUOUS
 62
     5
 10
-605.00000000000091
 20
-374.99999999999977
 30
0.0
 40
7.5
  0
CIRCLE
  8
DETAIL
  6
CONTINUOUS
 62
     5
 10
-605.00000000000091
 20
-605.0
 30
0.0
 40
7.5
  0
CIRCLE
  8
DETAIL
  6
CONTINUOUS
 62
     5
 10
-375.00000000000091
 20
-605.00000000000011
 30
0.0
 40
7.5
  0
CIRCLE
  8
DETAIL
  6
CONTINUOUS
 62
     5
 10
-340.00000000000091
 20
-560.00000000000011
 30
0.0
 40
6.5
  0
ARC
  8
DETAIL
  6
CONTINUOUS
 62
     5
 10
-638.6000000000007
 20
-638.59999999999968
 30
0.0
 40
6.0
 50
17.457603123709099
 51
72.542396876321618
  0
LINE
  8
OUTLINE
  6
CONTINUOUS
 62
     3
 10
639.9999999999992
 20
638.39999999999986
 30
0.0
 11
639.9999999999992
 21
299.66476151589961
 31
0.0
  0
LINE
  8
OUTLINE
  6
CONTINUOUS
 62
     3
 10
639.9999999999992
 20
299.66476151589961
 30
0.0
 11
639.9999999999992
 21
290.33523848419992
 31
0.0
  0
LINE
  8
OUTLINE
  6
CONTINUOUS
 62
     3
 10
639.9999999999992
 20
290.33523848419992
 30
0.0
 11
639.9999999999992
 21
-290.33523848409999
 31
0.0
  0
LINE
  8
OUTLINE
  6
CONTINUOUS
 62
     3
 10
639.9999999999992
 20
-290.33523848409999
 30
0.0
 11
639.9999999999992
 21
-299.66476151580008
 31
0.0
  0
LINE
  8
OUTLINE
  6
CONTINUOUS
 62
     3
 10
639.9999999999992
 20
-299.66476151580008
 30
0.0
 11
639.9999999999992
 21
-638.40000000000032
 31
0.0
  0
LINE
  8
OUTLINE
  6
CONTINUOUS
 62
     3
 10
638.3999999999993
 20
-640.00000000000011
 30
0.0
 11
638.3999999999993
 21
-638.40000000000032
 31
0.0
  0
LINE
  8
OUTLINE
  6
CONTINUOUS
 62
     3
 10
638.3999999999993
 20
639.99999999999977
 30
0.0
 11
638.3999999999993
 21
638.39999999999986
 31
0.0
  0
LINE
  8
OUTLINE
  6
CONTINUOUS
 62
     3
 10
-638.40000000000111
 20
640.0
 30
0.0
 11
-299.66476151590092
 21
640.0
 31
0.0
  0
LINE
  8
OUTLINE
  6
CONTINUOUS
 62
     3
 10
-299.66476151590092
 20
640.0
 30
0.0
 11
-290.3352384841009
 21
640.0
 31
0.0
  0
LINE
  8
OUTLINE
  6
CONTINUOUS
 62
     3
 10
-290.3352384841009
 20
640.0
 30
0.0
 11
290.33523848409902
 21
639.99999999999977
 31
0.0
  0
LINE
  8
OUTLINE
  6
CONTINUOUS
 62
     3
 10
290.33523848409902
 20
639.99999999999977
 30
0.0
 11
299.66476151589882
 21
639.99999999999977
 31
0.0
  0
LINE
  8
OUTLINE
  6
CONTINUOUS
 62
     3
 10
299.66476151589882
 20
639.99999999999977
 30
0.0
 11
638.3999999999993
 21
639.99999999999977
 31
0.0
  0
LINE
  8
OUTLINE
  6
CONTINUOUS
 62
     3
 10
-640.00000000000091
 20
638.39999999999986
 30
0.0
 11
-638.40000000000111
 21
638.39999999999986
 31
0.0
  0
LINE
  8
OUTLINE
  6
CONTINUOUS
 62
     3
 10
639.9999999999992
 20
638.39999999999986
 30
0.0
 11
638.3999999999993
 21
638.39999999999986
 31
0.0
  0
LINE
  8
OUTLINE
  6
CONTINUOUS
 62
     3
 10
-640.00000000000091
 20
-638.39999999999986
 30
0.0
 11
-638.40000000000111
 21
-638.39999999999986
 31
0.0
  0
LINE
  8
OUTLINE
  6
CONTINUOUS
 62
     3
 10
639.9999999999992
 20
-638.40000000000032
 30
0.0
 11
638.3999999999993
 21
-638.40000000000032
 31
0.0
  0
LINE
  8
OUTLINE
  6
CONTINUOUS
 62
     3
 10
638.3999999999993
 20
-640.00000000000011
 30
0.0
 11
299.66476151589882
 21
-640.00000000000011
 31
0.0
  0
LINE
  8
OUTLINE
  6
CONTINUOUS
 62
     3
 10
299.66476151589882
 20
-640.00000000000011
 30
0.0
 11
290.33523848409902
 21
-640.00000000000011
 31
0.0
  0
LINE
  8
OUTLINE
  6
CONTINUOUS
 62
     3
 10
290.33523848409902
 20
-640.00000000000011
 30
0.0
 11
-290.3352384841009
 21
-640.00000000000011
 31
0.0
  0
LINE
  8
OUTLINE
  6
CONTINUOUS
 62
     3
 10
-290.3352384841009
 20
-640.00000000000011
 30
0.0
 11
-299.66476151590092
 21
-640.00000000000011
 31
0.0
  0
LINE
  8
OUTLINE
  6
CONTINUOUS
 62
     3
 10
-299.66476151590092
 20
-640.00000000000011
 30
0.0
 11
-638.40000000000111
 21
-640.0
 31
0.0
  0
LINE
  8
OUTLINE
  6
CONTINUOUS
 62
     3
 10
-638.40000000000111
 20
-640.0
 30
0.0
 11
-638.40000000000111
 21
-638.39999999999986
 31
0.0
  0
LINE
  8
OUTLINE
  6
CONTINUOUS
 62
     3
 10
-638.40000000000111
 20
640.0
 30
0.0
 11
-638.40000000000111
 21
638.39999999999986
 31
0.0
  0
LINE
  8
OUTLINE
  6
CONTINUOUS
 62
     3
 10
-640.00000000000091
 20
-638.39999999999986
 30
0.0
 11
-640.00000000000091
 21
-299.66476151580008
 31
0.0
  0
LINE
  8
OUTLINE
  6
CONTINUOUS
 62
     3
 10
-640.00000000000091
 20
-299.66476151580008
 30
0.0
 11
-640.00000000000091
 21
-290.33523848409982
 31
0.0
  0
LINE
  8
OUTLINE
  6
CONTINUOUS
 62
     3
 10
-640.00000000000091
 20
-290.33523848409982
 30
0.0
 11
-640.00000000000091
 21
290.33523848419992
 31
0.0
  0
LINE
  8
OUTLINE
  6
CONTINUOUS
 62
     3
 10
-640.00000000000091
 20
290.33523848419992
 30
0.0
 11
-640.00000000000091
 21
299.66476151590001
 31
0.0
  0
LINE
  8
OUTLINE
  6
CONTINUOUS
 62
     3
 10
-640.00000000000091
 20
299.66476151590001
 30
0.0
 11
-640.00000000000091
 21
638.39999999999986
 31
0.0
  0
CIRCLE
  8
FIX
  6
CONTINUOUS
 62
    11
 10
-605.00000000000091
 20
605.0
 30
0.0
 40
7.0
  0
LINE
  8
NOTE
  6
CONTINUOUS
 62
     4
 10
-569.49539392416
 20
605.0
 30
0.0
 11
-640.50460607584228
 21
605.0
 31
0.0
  0
LINE
  8
NOTE
  6
CONTINUOUS
 62
     4
 10
-605.00000000000148
 20
569.49539392415841
 30
0.0
 11
-605.00000000000148
 21
640.50460607661751
 31
0.0
  0
LINE
  8
BASIS
  6
DASHDOT
 62
     6
 10
699.10483958140992
 20
0.0
 30
0.0
 11
-705.1707576080031
 21
0.0
 31
0.0
  0
LINE
  8
BASIS
  6
DASHDOT
 62
     6
 10
-0.0000000000004547
 20
-703.58327340815879
 30
0.0
 11
-0.0000000000004547
 21
705.26715092741551
 31
0.0
  0
LINE
  8
SIZE
  6
CONTINUOUS
 62
    30
 10
-375.00000000000091
 20
660.0
 30
0.0
 11
-375.00000000000091
 21
804.60951674754722
 31
0.0
  0
LINE
  8
SIZE
  6
CONTINUOUS
 62
    30
 10
374.99999999999909
 20
660.50460607661739
 30
0.0
 11
374.99999999999909
 21
804.60951674754722
 31
0.0
  0
LINE
  8
SIZE
  6
CONTINUOUS
 62
    30
 10
-363.00000000000091
 20
784.60951674754733
 30
0.0
 11
362.99999999999909
 21
784.60951674754733
 31
0.0
  0
CIRCLE
  8
SIZE
  6
CONTINUOUS
 62
    30
 10
-375.00000000000091
 20
784.60951674754733
 30
0.0
 40
6.0
  0
LINE
  8
SIZE
  6
CONTINUOUS
 62
    30
 10
-375.00000000000091
 20
784.60951674754733
 30
0.0
 11
-363.00000000000091
 21
784.60951674754733
 31
0.0
  0
CIRCLE
  8
SIZE
  6
CONTINUOUS
 62
    30
 10
374.99999999999909
 20
784.60951674754733
 30
0.0
 40
6.0
  0
LINE
  8
SIZE
  6
CONTINUOUS
 62
    30
 10
374.99999999999909
 20
784.60951674754733
 30
0.0
 11
362.99999999999909
 21
784.60951674754733
 31
0.0
  0
TEXT
  8
SIZE
  6
CONTINUOUS
 62
    30
 10
-74.057142857143774
 20
809.60951674754722
 30
0.0
 40
64.0
  1
750
 41
0.9
 72
     1
 11
-0.0000000000009095
 21
809.60951674754722
 31
0.0
  0
POINT
  8
DEFPOINTS
  6
CONTINUOUS
 62
    30
 10
-375.00000000000091
 20
640.0
 30
0.0
  0
POINT
  8
DEFPOINTS
  6
CONTINUOUS
 62
    30
 10
374.99999999999909
 20
640.50460607661739
 30
0.0
  0
POINT
  8
DEFPOINTS
  6
CONTINUOUS
 62
    30
 10
374.99999999999909
 20
784.60951674754733
 30
0.0
  0
LINE
  8
SIZE
  6
CONTINUOUS
 62
    30
 10
-605.00000000000148
 20
660.0
 30
0.0
 11
-605.00000000000148
 21
971.66247123479923
 31
0.0
  0
LINE
  8
SIZE
  6
CONTINUOUS
 62
    30
 10
604.9999999999992
 20
660.50460607661739
 30
0.0
 11
604.9999999999992
 21
971.66247123479923
 31
0.0
  0
LINE
  8
SIZE
  6
CONTINUOUS
 62
    30
 10
-593.00000000000148
 20
951.66247123479923
 30
0.0
 11
592.9999999999992
 21
951.66247123479923
 31
0.0
  0
CIRCLE
  8
SIZE
  6
CONTINUOUS
 62
    30
 10
-605.00000000000148
 20
951.66247123479923
 30
0.0
 40
6.0
  0
LINE
  8
SIZE
  6
CONTINUOUS
 62
    30
 10
-605.00000000000148
 20
951.66247123479923
 30
0.0
 11
-593.00000000000148
 21
951.66247123479923
 31
0.0
  0
CIRCLE
  8
SIZE
  6
CONTINUOUS
 62
    30
 10
604.9999999999992
 20
951.66247123479923
 30
0.0
 40
6.0
  0
LINE
  8
SIZE
  6
CONTINUOUS
 62
    30
 10
604.9999999999992
 20
951.66247123479923
 30
0.0
 11
592.9999999999992
 21
951.66247123479923
 31
0.0
  0
TEXT
  8
SIZE
  6
CONTINUOUS
 62
    30
 10
-90.514285714286842
 20
976.66247123479877
 30
0.0
 40
64.0
  1
1210
 41
0.9
 72
     1
 11
-0.0000000000011369
 21
976.66247123479877
 31
0.0
  0
POINT
  8
DEFPOINTS
  6
CONTINUOUS
 62
    30
 10
-605.00000000000148
 20
640.0
 30
0.0
  0
POINT
  8
DEFPOINTS
  6
CONTINUOUS
 62
    30
 10
604.9999999999992
 20
640.50460607661739
 30
0.0
  0
POINT
  8
DEFPOINTS
  6
CONTINUOUS
 62
    30
 10
604.9999999999992
 20
951.66247123479923
 30
0.0
  0
LINE
  8
SIZE
  6
CONTINUOUS
 62
    30
 10
-640.00000000000091
 20
658.39999999999986
 30
0.0
 11
-640.00000000000091
 21
1171.6624712347991
 31
0.0
  0
LINE
  8
SIZE
  6
CONTINUOUS
 62
    30
 10
639.99999999999966
 20
658.39999999999986
 30
0.0
 11
639.99999999999966
 21
1171.6624712347991
 31
0.0
  0
LINE
  8
SIZE
  6
CONTINUOUS
 62
    30
 10
-628.00000000000091
 20
1151.6624712347991
 30
0.0
 11
627.99999999999966
 21
1151.6624712347991
 31
0.0
  0
CIRCLE
  8
SIZE
  6
CONTINUOUS
 62
    30
 10
-640.00000000000091
 20
1151.6624712347991
 30
0.0
 40
6.0
  0
LINE
  8
SIZE
  6
CONTINUOUS
 62
    30
 10
-640.00000000000091
 20
1151.6624712347991
 30
0.0
 11
-628.00000000000091
 21
1151.6624712347991
 31
0.0
  0
CIRCLE
  8
SIZE
  6
CONTINUOUS
 62
    30
 10
639.99999999999966
 20
1151.6624712347991
 30
0.0
 40
6.0
  0
LINE
  8
SIZE
  6
CONTINUOUS
 62
    30
 10
639.99999999999966
 20
1151.6624712347991
 30
0.0
 11
627.99999999999966
 21
1151.6624712347991
 31
0.0
  0
TEXT
  8
SIZE
  6
CONTINUOUS
 62
    30
 10
-96.000000000000696
 20
1176.6624712347991
 30
0.0
 40
64.0
  1
1280
 41
0.9
 72
     1
 11
-0.0000000000006821
 21
1176.6624712347991
 31
0.0
  0
POINT
  8
DEFPOINTS
  6
CONTINUOUS
 62
    30
 10
-640.00000000000091
 20
638.39999999999986
 30
0.0
  0
POINT
  8
DEFPOINTS
  6
CONTINUOUS
 62
    30
 10
639.99999999999966
 20
638.39999999999986
 30
0.0
  0
POINT
  8
DEFPOINTS
  6
CONTINUOUS
 62
    30
 10
639.99999999999966
 20
1151.6624712347991
 30
0.0
  0
LINE
  8
SIZE
  6
CONTINUOUS
 62
    30
 10
-660.00000000000102
 20
374.99999999999989
 30
0.0
 11
-891.64565894584644
 21
374.99999999999989
 31
0.0
  0
LINE
  8
SIZE
  6
CONTINUOUS
 62
    30
 10
-660.00000000000102
 20
-375.00000000000011
 30
0.0
 11
-891.64565894584609
 21
-375.00000000000011
 31
0.0
  0
LINE
  8
SIZE
  6
CONTINUOUS
 62
    30
 10
-871.64565894584644
 20
362.99999999999989
 30
0.0
 11
-871.64565894584609
 21
-363.00000000000011
 31
0.0
  0
CIRCLE
  8
SIZE
  6
CONTINUOUS
 62
    30
 10
-871.64565894584644
 20
374.99999999999989
 30
0.0
 40
6.0
  0
LINE
  8
SIZE
  6
CONTINUOUS
 62
    30
 10
-871.64565894584644
 20
374.99999999999989
 30
0.0
 11
-871.64565894584644
 21
362.99999999999989
 31
0.0
  0
CIRCLE
  8
SIZE
  6
CONTINUOUS
 62
    30
 10
-871.64565894584609
 20
-375.00000000000011
 30
0.0
 40
6.0
  0
LINE
  8
SIZE
  6
CONTINUOUS
 62
    30
 10
-871.64565894584609
 20
-375.00000000000011
 30
0.0
 11
-871.64565894584609
 21
-363.00000000000011
 31
0.0
  0
TEXT
  8
SIZE
  6
CONTINUOUS
 62
    30
 10
-896.64565894584609
 20
-74.057142857142637
 30
0.0
 40
64.0
  1
750
 50
90.0
 41
0.9
 72
     1
 11
-896.64565894584609
 21
0.0000000000002274
 31
0.0
  0
POINT
  8
DEFPOINTS
  6
CONTINUOUS
 62
    30
 10
-640.00000000000102
 20
374.99999999999989
 30
0.0
  0
POINT
  8
DEFPOINTS
  6
CONTINUOUS
 62
    30
 10
-640.00000000000102
 20
-375.00000000000011
 30
0.0
  0
POINT
  8
DEFPOINTS
  6
CONTINUOUS
 62
    30
 10
-871.64565894584609
 20
-375.00000000000011
 30
0.0
  0
LINE
  8
SIZE
  6
CONTINUOUS
 62
    30
 10
-660.5046060758425
 20
-605.0
 30
0.0
 11
-1126.741928593186
 21
-605.00000000000011
 31
0.0
  0
LINE
  8
SIZE
  6
CONTINUOUS
 62
    30
 10
-660.5046060758425
 20
605.0
 30
0.0
 11
-1126.741928593186
 21
605.0
 31
0.0
  0
LINE
  8
SIZE
  6
CONTINUOUS
 62
    30
 10
-1106.741928593186
 20
-593.00000000000011
 30
0.0
 11
-1106.741928593186
 21
593.0
 31
0.0
  0
CIRCLE
  8
SIZE
  6
CONTINUOUS
 62
    30
 10
-1106.741928593186
 20
-605.00000000000011
 30
0.0
 40
6.0
  0
LINE
  8
SIZE
  6
CONTINUOUS
 62
    30
 10
-1106.741928593186
 20
-605.00000000000011
 30
0.0
 11
-1106.741928593186
 21
-593.00000000000011
 31
0.0
  0
CIRCLE
  8
SIZE
  6
CONTINUOUS
 62
    30
 10
-1106.741928593186
 20
605.0
 30
0.0
 40
6.0
  0
LINE
  8
SIZE
  6
CONTINUOUS
 62
    30
 10
-1106.741928593186
 20
605.0
 30
0.0
 11
-1106.741928593186
 21
593.0
 31
0.0
  0
TEXT
  8
SIZE
  6
CONTINUOUS
 62
    30
 10
-1131.741928593186
 20
-90.514285714285393
 30
0.0
 40
64.0
  1
1210
 50
90.0
 41
0.9
 72
     1
 11
-1131.741928593186
 21
0.0000000000003126
 31
0.0
  0
POINT
  8
DEFPOINTS
  6
CONTINUOUS
 62
    30
 10
-640.5046060758425
 20
-605.0
 30
0.0
  0
POINT
  8
DEFPOINTS
  6
CONTINUOUS
 62
    30
 10
-640.5046060758425
 20
605.0
 30
0.0
  0
POINT
  8
DEFPOINTS
  6
CONTINUOUS
 62
    30
 10
-1106.741928593186
 20
605.0
 30
0.0
  0
LINE
  8
SIZE
  6
CONTINUOUS
 62
    30
 10
-658.40000000000077
 20
640.0
 30
0.0
 11
-1326.741928593188
 21
640.0
 31
0.0
  0
LINE
  8
SIZE
  6
CONTINUOUS
 62
    30
 10
-658.40000000000077
 20
-640.00000000000011
 30
0.0
 11
-1326.741928593188
 21
-640.00000000000023
 31
0.0
  0
LINE
  8
SIZE
  6
CONTINUOUS
 62
    30
 10
-1306.741928593188
 20
628.0
 30
0.0
 11
-1306.741928593188
 21
-628.00000000000023
 31
0.0
  0
CIRCLE
  8
SIZE
  6
CONTINUOUS
 62
    30
 10
-1306.741928593188
 20
640.0
 30
0.0
 40
6.0
  0
LINE
  8
SIZE
  6
CONTINUOUS
 62
    30
 10
-1306.741928593188
 20
640.0
 30
0.0
 11
-1306.741928593188
 21
628.0
 31
0.0
  0
CIRCLE
  8
SIZE
  6
CONTINUOUS
 62
    30
 10
-1306.741928593188
 20
-640.00000000000023
 30
0.0
 40
6.0
  0
LINE
  8
SIZE
  6
CONTINUOUS
 62
    30
 10
-1306.741928593188
 20
-640.00000000000023
 30
0.0
 11
-1306.741928593188
 21
-628.00000000000023
 31
0.0
  0
TEXT
  8
SIZE
  6
CONTINUOUS
 62
    30
 10
-1331.741928593188
 20
-95.999999999999758
 30
0.0
 40
64.0
  1
1280
 50
90.0
 41
0.9
 72
     1
 11
-1331.741928593188
 21
0.0000000000002558
 31
0.0
  0
POINT
  8
DEFPOINTS
  6
CONTINUOUS
 62
    30
 10
-638.40000000000077
 20
640.0
 30
0.0
  0
POINT
  8
DEFPOINTS
  6
CONTINUOUS
 62
    30
 10
-638.40000000000077
 20
-640.00000000000011
 30
0.0
  0
POINT
  8
DEFPOINTS
  6
CONTINUOUS
 62
    30
 10
-1306.741928593188
 20
-640.00000000000023
 30
0.0
  0
LINE
  8
SIZE
  6
CONTINUOUS
 62
    30
 10
997.62454427755142
 20
-314.59066955682198
 30
0.0
 11
502.6029292328576
 21
-158.49067962044381
 31
0.0
  0
LINE
  8
SIZE
  6
CONTINUOUS
 62
    30
 10
-502.60292923285942
 20
158.4906796204445
 30
0.0
 11
-514.04739820969871
 21
162.0995755510807
 31
0.0
  0
TEXT
  8
SIZE
  6
CONTINUOUS
 62
    30
 10
734.8846674518835
 20
-205.52480771403299
 30
0.0
 40
64.0
  1
φ1030
 50
342.49786559397768
 41
0.9
 72
     1
 11
864.89383502877763
 21
-246.52186548606161
 31
0.0
  0
LINE
  8
SIZE
  6
CONTINUOUS
 62
    30
 10
-491.15846025602008
 20
154.88178368980809
 30
0.0
 11
491.15846025601832
 21
-154.88178368980741
 31
0.0
  0
CIRCLE
  8
SIZE
  6
CONTINUOUS
 62
    30
 10
-491.15846025602008
 20
154.88178368980809
 30
0.0
 40
6.0
  0
LINE
  8
SIZE
  6
CONTINUOUS
 62
    30
 10
-491.15846025602008
 20
154.88178368980809
 30
0.0
 11
-502.60292923285942
 21
158.4906796204445
 31
0.0
  0
CIRCLE
  8
SIZE
  6
CONTINUOUS
 62
    30
 10
491.15846025601832
 20
-154.88178368980741
 30
0.0
 40
6.0
  0
LINE
  8
SIZE
  6
CONTINUOUS
 62
    30
 10
491.15846025601832
 20
-154.88178368980741
 30
0.0
 11
502.6029292328576
 21
-158.49067962044381
 31
0.0
  0
POINT
  8
DEFPOINTS
  6
CONTINUOUS
 62
    30
 10
491.15846025601832
 20
-154.88178368980741
 30
0.0
  0
POINT
  8
DEFPOINTS
  6
CONTINUOUS
 62
    30
 10
-491.15846025602008
 20
154.88178368980809
 30
0.0
  0
LINE
  8
SIZE
  6
CONTINUOUS
 62
    30
 10
967.28898209741465
 20
203.82059522620639
 30
0.0
 11
525.46142553060849
 21
110.72167935566721
 31
0.0
  0
LINE
  8
SIZE
  6
CONTINUOUS
 62
    30
 10
-525.46142553061009
 20
-110.72167935566731
 30
0.0
 11
-537.20358029107092
 21
-113.19590682730239
 31
0.0
  0
TEXT
  8
SIZE
  6
CONTINUOUS
 62
    30
 10
684.84615261436579
 20
169.85512500295059
 30
0.0
 40
64.0
  1
φ1050
 50
11.898913075182641
 41
0.9
 72
     1
 11
818.23703069319777
 21
197.96234908072449
 31
0.0
  0
LINE
  8
SIZE
  6
CONTINUOUS
 62
    30
 10
-513.71927077014971
 20
-108.2474518840323
 30
0.0
 11
513.71927077014789
 21
108.2474518840322
 31
0.0
  0
CIRCLE
  8
SIZE
  6
CONTINUOUS
 62
    30
 10
-513.71927077014971
 20
-108.2474518840323
 30
0.0
 40
6.0
  0
LINE
  8
SIZE
  6
CONTINUOUS
 62
    30
 10
-513.71927077014971
 20
-108.2474518840323
 30
0.0
 11
-525.46142553061031
 21
-110.72167935566731
 31
0.0
  0
CIRCLE
  8
SIZE
  6
CONTINUOUS
 62
    30
 10
513.71927077014789
 20
108.2474518840322
 30
0.0
 40
6.0
  0
LINE
  8
SIZE
  6
CONTINUOUS
 62
    30
 10
513.71927077014789
 20
108.2474518840322
 30
0.0
 11
525.46142553060849
 21
110.72167935566721
 31
0.0
  0
POINT
  8
DEFPOINTS
  6
CONTINUOUS
 62
    30
 10
513.71927077014789
 20
108.2474518840322
 30
0.0
  0
POINT
  8
DEFPOINTS
  6
CONTINUOUS
 62
    30
 10
-513.71927077014971
 20
-108.2474518840323
 30
0.0
  0
TEXT
  8
NOTE
  6
CONTINUOUS
 62
     4
 10
-1018.9454177994349
 20
694.6326654285283
 30
0.0
 40
64.0
  1
12-φ15
 41
0.9
  0
LINE
  8
NOTE
  6
CONTINUOUS
 62
     4
 10
-607.76339863963358
 20
610.56312207743827
 30
0.0
 11
-605.00000000000148
 21
605.0
 31
0.0
  0
LINE
  8
NOTE
  6
CONTINUOUS
 62
     4
 10
-605.00000000000148
 20
605.0
 30
0.0
 11
-610.17473963943701
 21
608.43609792556185
 31
0.0
  0
LINE
  8
NOTE
  6
CONTINUOUS
 62
     4
 10
-605.00000000000148
 20
605.0
 30
0.0
 11
-612.93813827906934
 21
613.99922000299989
 31
0.0
  0
LINE
  8
NOTE
  6
CONTINUOUS
 62
     4
 10
-612.93813827906934
 20
613.99922000299989
 30
0.0
 11
-661.10359287950314
 21
668.60289497761551
 31
0.0
  0
LINE
  8
NOTE
  6
CONTINUOUS
 62
     4
 10
-661.10359287950314
 20
668.60289497761551
 30
0.0
 11
-1026.06886840332
 21
668.76434982679598
 31
0.0
  0
TEXT
  8
ETC
  6
CONTINUOUS
 62
    61
 10
736.67272686324031
 20
1095.250809767615
 30
0.0
 40
64.0
  1
EWH-105MTA2-Q-50_3
 41
0.9
  0
TEXT
  8
ETC
  6
CONTINUOUS
 62
    61
 10
732.48673286323992
 20
977.29549975278394
 30
0.0
 40
64.0
  1
有圧換気扇
 41
0.9
  0
TEXT
  8
ETC
  6
CONTINUOUS
 62
    61
 10
783.77337343943896
 20
869.5922449565993
 30
0.0
 40
40.0
  1
EWH-105MTA2-Q-50
 41
0.9
  0
TEXT
  8
ETC
  6
CONTINUOUS
 62
    61
 10
783.77337343943896
 20
787.11088367223681
 30
0.0
 40
40.0
  1
EWH-105MTA2-Q-60
 41
0.9
  0
CIRCLE
  8
FIX
  6
CONTINUOUS
 62
    11
 10
-605.00000000000057
 20
-374.99999999999977
 30
0.0
 40
7.0
  0
LINE
  8
NOTE
  6
CONTINUOUS
 62
     4
 10
-569.49539392415943
 20
-374.99999999999977
 30
0.0
 11
-640.50460607584182
 21
-374.99999999999977
 31
0.0
  0
LINE
  8
NOTE
  6
CONTINUOUS
 62
     4
 10
-605.00000000000091
 20
-410.50460607584102
 30
0.0
 11
-605.00000000000091
 21
-339.4953939233821
 31
0.0
  0
CIRCLE
  8
FIX
  6
CONTINUOUS
 62
    11
 10
-605.00000000000057
 20
-605.0
 30
0.0
 40
7.0
  0
LINE
  8
NOTE
  6
CONTINUOUS
 62
     4
 10
-569.49539392415943
 20
-605.0
 30
0.0
 11
-640.50460607584182
 21
-605.0
 31
0.0
  0
LINE
  8
NOTE
  6
CONTINUOUS
 62
     4
 10
-605.00000000000091
 20
-640.50460607584137
 30
0.0
 11
-605.00000000000091
 21
-569.49539392338249
 31
0.0
  0
CIRCLE
  8
FIX
  6
CONTINUOUS
 62
    11
 10
-375.0000000000004
 20
-605.00000000000011
 30
0.0
 40
7.0
  0
LINE
  8
NOTE
  6
CONTINUOUS
 62
     4
 10
-339.49539392415949
 20
-605.00000000000011
 30
0.0
 11
-410.50460607584182
 21
-605.00000000000011
 31
0.0
  0
LINE
  8
NOTE
  6
CONTINUOUS
 62
     4
 10
-375.00000000000091
 20
-640.50460607584159
 30
0.0
 11
-375.00000000000091
 21
-569.49539392338249
 31
0.0
  0
CIRCLE
  8
FIX
  6
CONTINUOUS
 62
    11
 10
374.9999999999996
 20
-605.00000000000011
 30
0.0
 40
7.0
  0
LINE
  8
NOTE
  6
CONTINUOUS
 62
     4
 10
410.50460607584051
 20
-605.00000000000011
 30
0.0
 11
339.49539392415812
 21
-605.00000000000011
 31
0.0
  0
LINE
  8
NOTE
  6
CONTINUOUS
 62
     4
 10
374.99999999999909
 20
-640.50460607584159
 30
0.0
 11
374.99999999999909
 21
-569.49539392338249
 31
0.0
  0
CIRCLE
  8
FIX
  6
CONTINUOUS
 62
    11
 10
604.99999999999966
 20
-605.00000000000011
 30
0.0
 40
7.0
  0
LINE
  8
NOTE
  6
CONTINUOUS
 62
     4
 10
640.50460607584057
 20
-605.00000000000011
 30
0.0
 11
569.49539392415807
 21
-605.00000000000011
 31
0.0
  0
LINE
  8
NOTE
  6
CONTINUOUS
 62
     4
 10
604.9999999999992
 20
-640.50460607584159
 30
0.0
 11
604.9999999999992
 21
-569.49539392338249
 31
0.0
  0
CIRCLE
  8
FIX
  6
CONTINUOUS
 62
    11
 10
604.99999999999966
 20
-375.00000000000011
 30
0.0
 40
7.0
  0
LINE
  8
NOTE
  6
CONTINUOUS
 62
     4
 10
640.50460607584057
 20
-375.00000000000011
 30
0.0
 11
569.49539392415807
 21
-375.00000000000011
 31
0.0
  0
LINE
  8
NOTE
  6
CONTINUOUS
 62
     4
 10
604.9999999999992
 20
-410.50460607584131
 30
0.0
 11
604.9999999999992
 21
-339.49539392338238
 31
0.0
  0
CIRCLE
  8
FIX
  6
CONTINUOUS
 62
    11
 10
604.99999999999966
 20
374.99999999999977
 30
0.0
 40
7.0
  0
LINE
  8
NOTE
  6
CONTINUOUS
 62
     4
 10
640.50460607584057
 20
374.99999999999977
 30
0.0
 11
569.49539392415807
 21
374.99999999999977
 31
0.0
  0
LINE
  8
NOTE
  6
CONTINUOUS
 62
     4
 10
604.9999999999992
 20
339.49539392415841
 30
0.0
 11
604.9999999999992
 21
410.50460607661739
 31
0.0
  0
CIRCLE
  8
FIX
  6
CONTINUOUS
 62
    11
 10
604.99999999999966
 20
604.99999999999977
 30
0.0
 40
7.0
  0
LINE
  8
NOTE
  6
CONTINUOUS
 62
     4
 10
640.50460607584057
 20
604.99999999999977
 30
0.0
 11
569.49539392415807
 21
604.99999999999977
 31
0.0
  0
LINE
  8
NOTE
  6
CONTINUOUS
 62
     4
 10
604.9999999999992
 20
569.49539392415841
 30
0.0
 11
604.9999999999992
 21
640.50460607661739
 31
0.0
  0
CIRCLE
  8
FIX
  6
CONTINUOUS
 62
    11
 10
374.9999999999996
 20
604.99999999999977
 30
0.0
 40
7.0
  0
LINE
  8
NOTE
  6
CONTINUOUS
 62
     4
 10
410.50460607584051
 20
604.99999999999977
 30
0.0
 11
339.49539392415812
 21
604.99999999999977
 31
0.0
  0
LINE
  8
NOTE
  6
CONTINUOUS
 62
     4
 10
374.99999999999909
 20
569.49539392415841
 30
0.0
 11
374.99999999999909
 21
640.50460607661739
 31
0.0
  0
CIRCLE
  8
FIX
  6
CONTINUOUS
 62
    11
 10
-375.0000000000004
 20
604.99999999999977
 30
0.0
 40
7.0
  0
LINE
  8
NOTE
  6
CONTINUOUS
 62
     4
 10
-339.49539392415949
 20
604.99999999999977
 30
0.0
 11
-410.50460607584182
 21
604.99999999999977
 31
0.0
  0
LINE
  8
NOTE
  6
CONTINUOUS
 62
     4
 10
-375.00000000000091
 20
569.49539392415841
 30
0.0
 11
-375.00000000000091
 21
640.50460607661739
 31
0.0
  0
CIRCLE
  8
FIX
  6
CONTINUOUS
 62
    11
 10
-605.00000000000057
 20
374.99999999999977
 30
0.0
 40
7.0
  0
LINE
  8
NOTE
  6
CONTINUOUS
 62
     4
 10
-569.49539392415943
 20
374.99999999999977
 30
0.0
 11
-640.50460607584182
 21
374.99999999999977
 31
0.0
  0
LINE
  8
NOTE
  6
CONTINUOUS
 62
     4
 10
-605.00000000000091
 20
339.49539392415841
 30
0.0
 11
-605.00000000000091
 21
410.50460607661739
 31
0.0
  0
CIRCLE
  8
DETAIL
  6
CONTINUOUS
 62
     5
 10
572.89735213410017
 20
473.90240276799989
 30
0.0
 40
9.5
  0
CIRCLE
  8
DETAIL
  6
CONTINUOUS
 62
     5
 10
473.90240276799977
 20
572.89735213419976
 30
0.0
 40
9.5
  0
CIRCLE
  8
DETAIL
  6
CONTINUOUS
 62
     5
 10
572.89735213410017
 20
-473.90240276800017
 30
0.0
 40
9.5
  0
CIRCLE
  8
DETAIL
  6
CONTINUOUS
 62
     5
 10
473.90240276799977
 20
-572.89735213410017
 30
0.0
 40
9.5
  0
CIRCLE
  8
DETAIL
  6
CONTINUOUS
 62
     5
 10
-473.90240276800017
 20
572.89735213419999
 30
0.0
 40
9.5
  0
CIRCLE
  8
DETAIL
  6
CONTINUOUS
 62
     5
 10
-572.8973521341004
 20
473.90240276799989
 30
0.0
 40
9.5
  0
CIRCLE
  8
DETAIL
  6
CONTINUOUS
 62
     5
 10
-572.8973521341004
 20
-473.90240276800017
 30
0.0
 40
9.5
  0
CIRCLE
  8
DETAIL
  6
CONTINUOUS
 62
     5
 10
-473.90240276800017
 20
-572.89735213410017
 30
0.0
 40
9.5
  0
CIRCLE
  8
DETAIL
  6
CONTINUOUS
 62
     5
 10
-572.8973521341004
 20
473.90240276799989
 30
0.0
 40
31.258449344799999
  0
CIRCLE
  8
DETAIL
  6
CONTINUOUS
 62
     5
 10
-572.8973521341004
 20
473.90240276799989
 30
0.0
 40
20.370775291699999
  0
CIRCLE
  8
DETAIL
  6
CONTINUOUS
 62
     5
 10
-473.90240276800017
 20
572.89735213419999
 30
0.0
 40
31.258449344799999
  0
CIRCLE
  8
DETAIL
  6
CONTINUOUS
 62
     5
 10
-473.90240276800017
 20
572.89735213419999
 30
0.0
 40
20.370775291699999
  0
CIRCLE
  8
DETAIL
  6
CONTINUOUS
 62
     5
 10
473.90240276799977
 20
572.89735213419976
 30
0.0
 40
31.258449344799999
  0
CIRCLE
  8
DETAIL
  6
CONTINUOUS
 62
     5
 10
473.90240276799977
 20
572.89735213419976
 30
0.0
 40
20.370775291699999
  0
CIRCLE
  8
DETAIL
  6
CONTINUOUS
 62
     5
 10
572.89735213410017
 20
473.90240276799989
 30
0.0
 40
31.258449344799999
  0
CIRCLE
  8
DETAIL
  6
CONTINUOUS
 62
     5
 10
572.89735213410017
 20
473.90240276799989
 30
0.0
 40
20.370775291699999
  0
CIRCLE
  8
DETAIL
  6
CONTINUOUS
 62
     5
 10
572.89735213410017
 20
-473.90240276800017
 30
0.0
 40
31.258449344799999
  0
CIRCLE
  8
DETAIL
  6
CONTINUOUS
 62
     5
 10
572.89735213410017
 20
-473.90240276800017
 30
0.0
 40
20.370775291699999
  0
CIRCLE
  8
DETAIL
  6
CONTINUOUS
 62
     5
 10
473.90240276799977
 20
-572.89735213410017
 30
0.0
 40
31.258449344799999
  0
CIRCLE
  8
DETAIL
  6
CONTINUOUS
 62
     5
 10
473.90240276799977
 20
-572.89735213410017
 30
0.0
 40
20.370775291699999
  0
CIRCLE
  8
DETAIL
  6
CONTINUOUS
 62
     5
 10
-473.90240276800017
 20
-572.89735213410017
 30
0.0
 40
31.258449344799999
  0
CIRCLE
  8
DETAIL
  6
CONTINUOUS
 62
     5
 10
-473.90240276800017
 20
-572.89735213410017
 30
0.0
 40
20.370775291699999
  0
CIRCLE
  8
DETAIL
  6
CONTINUOUS
 62
     5
 10
-572.8973521341004
 20
-473.90240276800017
 30
0.0
 40
31.258449344799999
  0
CIRCLE
  8
DETAIL
  6
CONTINUOUS
 62
     5
 10
-572.8973521341004
 20
-473.90240276800017
 30
0.0
 40
20.370775291699999
  0
ARC
  8
DETAIL
  6
CONTINUOUS
 62
     5
 10
918.1019428664199
 20
-503.99930062888478
 30
0.0
 40
1161.696784658249
 50
160.65900516226429
 51
177.20692203237891
  0
ARC
  8
DETAIL
  6
CONTINUOUS
 62
     5
 10
-169.5136509202068
 20
-131.18334865397179
 30
0.0
 40
14.6566436527885
 50
44.480305658648291
 51
125.5421729785905
  0
ARC
  8
DETAIL
  6
CONTINUOUS
 62
     5
 10
-175.38139873298371
 20
-77.333821154873576
 30
0.0
 40
46.537501281856791
 50
290.53596598090229
 51
7.7375880145689102
  0
ARC
  8
DETAIL
  6
CONTINUOUS
 62
     5
 10
-1.277099536170226
 20
-3.9826758406993288
 30
0.0
 40
504.64025323763087
 50
241.48137301780719
 51
301.35076134522251
  0
ARC
  8
DETAIL
  6
CONTINUOUS
 62
     5
 10
257.71300951401918
 20
-431.36749674699468
 30
0.0
 40
5.0481325900548324
 50
314.87963235457079
 51
77.329576422341262
  0
ARC
  8
DETAIL
  6
CONTINUOUS
 62
     5
 10
324.93675146323852
 20
-175.66955655186561
 30
0.0
 40
259.41441806704961
 50
179.39768075852291
 51
255.2961855350936
  0
ARC
  8
DETAIL
  6
CONTINUOUS
 62
     5
 10
78.263751756554257
 20
873.667062245588
 30
0.0
 40
974.91200760593597
 50
276.71711890118053
 51
296.41098526789631
  0
ARC
  8
DETAIL
  6
CONTINUOUS
 62
     5
 10
194.5103050152498
 20
-83.009819151753845
 30
0.0
 40
11.75340826574068
 50
150.87801982303429
 51
259.14445881364469
  0
ARC
  8
DETAIL
  6
CONTINUOUS
 62
     5
 10
153.92304730373829
 20
-124.0884692544271
 30
0.0
 40
55.761979231662067
 50
57.061850066990267
 51
157.320769375384
  0
ARC
  8
DETAIL
  6
CONTINUOUS
 62
     5
 10
-5.8208805698636752
 20
-7.905940680248932
 30
0.0
 40
517.80062341382211
 50
0.9312876561329787
 51
60.658736164016247
  0
ARC
  8
DETAIL
  6
CONTINUOUS
 62
     5
 10
-50.204835833386369
 20
388.2077323713051
 30
0.0
 40
295.07721967478301
 50
305.3659747625278
 51
8.9051077949989939
  0
ARC
  8
DETAIL
  6
CONTINUOUS
 62
     5
 10
58.090919265542773
 20
458.41461002708797
 30
0.0
 40
332.46069884054032
 50
272.84737616813658
 51
283.40749046962873
  0
ARC
  8
DETAIL
  6
CONTINUOUS
 62
     5
 10
-13886.52498086406
 20
-16136.716097419219
 30
0.0
 40
21479.698530815629
 50
49.247807908463322
 51
49.299180802884521
  0
ARC
  8
DETAIL
  6
CONTINUOUS
 62
     5
 10
-968.99316305751324
 20
-534.45259269664268
 30
0.0
 40
1210.4287314630619
 50
38.244831720337949
 51
53.825961571031961
  0
ARC
  8
DETAIL
  6
CONTINUOUS
 62
     5
 10
8.9090180184009569
 20
-3.1264094158494231
 30
0.0
 40
517.800623413822
 50
120.58416481216869
 51
180.31161332029589
  0
ARC
  8
DETAIL
  6
CONTINUOUS
 62
     5
 10
-503.02146776785429
 20
-5.64304748981084
 30
0.0
 40
5.870124914295082
 50
182.92455268333089
 51
347.34709945224529
  0
ARC
  8
DETAIL
  6
CONTINUOUS
 62
     5
 10
-299.76160901392473
 20
-209.52064380132489
 30
0.0
 40
282.953061099634
 50
69.352602566035344
 51
134.2755448713568
  0
ARC
  8
DETAIL
  6
CONTINUOUS
 62
     5
 10
-492.1386329994254
 20
-175.4850709231215
 30
0.0
 40
387.10343741839392
 50
26.962455476508289
 51
40.15828648961083
  0
ARC
  8
DETAIL
  6
CONTINUOUS
 62
     5
 10
20881.631299570508
 20
-4060.903285963841
 30
0.0
 40
21479.698530815629
 50
168.90068506468961
 51
168.95205795907339
  0
ARC
  8
DETAIL
  6
CONTINUOUS
 62
     5
 10
-1561.9894407688589
 20
-697.7555827807538
 30
0.0
 40
1049.6531715739541
 50
358.98704695293458
 51
3.1542068319012788
  0
ARC
  8
DETAIL
  6
CONTINUOUS
 62
     5
 10
-1493.4131852709361
 20
-690.8412624953753
 30
0.0
 40
971.57935083004361
 50
358.67165083601009
 51
2.999570574790384
  0
LINE
  8
DETAIL
  6
CONTINUOUS
 62
     5
 10
-512.5003047075661
 20
-716.31181851411202
 30
0.0
 11
-522.09493515296708
 21
-713.36440497361082
 31
0.0
  0
ARC
  8
DETAIL
  6
CONTINUOUS
 62
     5
 10
-464.81768083558927
 20
-724.09941315992046
 30
0.0
 40
48.314379326281447
 50
170.72426569435029
 51
207.0207089860435
  0
ARC
  8
DETAIL
  6
CONTINUOUS
 62
     5
 10
-465.05180693396318
 20
-724.23415973811962
 30
0.0
 40
51.349002294770898
 50
170.03842779613851
 51
206.91427267794779
  0
ARC
  8
DETAIL
  6
CONTINUOUS
 62
     5
 10
-432.30284859168012
 20
-733.29344892273002
 30
0.0
 40
85.257853065428932
 50
167.84670484524111
 51
188.94059456596679
  0
ARC
  8
DETAIL
  6
CONTINUOUS
 62
     5
 10
-421.9487503269483
 20
-733.62578447383521
 30
0.0
 40
98.759488139597707
 50
168.75812127347811
 51
187.7733531918955
  0
ARC
  8
DETAIL
  6
CONTINUOUS
 62
     5
 10
-31331.817880934359
 20
5431.2763907825083
 30
0.0
 40
31419.902117052108
 50
348.65954104968512
 51
348.72038009611401
  0
ARC
  8
DETAIL
  6
CONTINUOUS
 62
     5
 10
-1787.6648050703409
 20
-481.72640776754872
 30
0.0
 40
1286.5936644458959
 50
348.12676288025068
 51
349.62792506496032
  0
LINE
  8
DETAIL
  6
CONTINUOUS
 62
     5
 10
-507.85817729365579
 20
-746.04924036486761
 30
0.0
 11
-510.83893167720822
 21
-747.47763719771683
 31
0.0
  0
LINE
  8
DETAIL
  6
CONTINUOUS
 62
     5
 10
-516.52481909465496
 20
-746.54339963654581
 30
0.0
 11
-519.80072283255504
 21
-746.98347792562527
 31
0.0
  0
LINE
  8
DETAIL
  6
CONTINUOUS
 62
     5
 10
-525.35641550180299
 20
-747.0875531720817
 30
0.0
 11
-528.59755938269882
 21
-746.43932439394075
 31
0.0
  0
ARC
  8
DETAIL
  6
CONTINUOUS
 62
     5
 10
868.86113883708197
 20
-592.17761945188454
 30
0.0
 40
918.75219547850054
 50
149.2333304369827
 51
153.27032015171599
  0
ARC
  8
DETAIL
  6
CONTINUOUS
 62
     5
 10
2146.244507309651
 20
-6185.0962856803562
 30
0.0
 40
6362.023102835974
 50
109.0898979656989
 51
109.2543579634102
  0
ARC
  8
DETAIL
  6
CONTINUOUS
 62
     5
 10
-26.584623915651719
 20
207.24581634451999
 30
0.0
 40
11.19158753083255
 50
280.26480548017702
 51
42.667013986860027
  0
ARC
  8
DETAIL
  6
CONTINUOUS
 62
     5
 10
48.742239224618402
 20
214.69868548254041
 30
0.0
 40
75.621629670670941
 50
194.1334124649546
 51
261.51177642821921
  0
ARC
  8
DETAIL
  6
CONTINUOUS
 62
     5
 10
245.2666489389633
 20
438.22656011935072
 30
0.0
 40
5.870124914295082
 50
63.271675527073143
 51
227.69422229607
  0
ENDSEC
  0
EOF
