  0
SECTION
  2
HEADER
  9
$ACADVER
  1
AC1009
  9
$DWGCODEPAGE
  3
dos932
  9
$INSBASE
 10
0.0
 20
0.0
 30
0.0
  9
$EXTMIN
 10
-1122.994979136851
 20
-582.55003728269367
 30
-0.0015258207003583
  9
$EXTMAX
 10
1479.652416880303
 20
1049.7436608999781
 30
0.0000000349246037
  9
$LIMMIN
 10
-2970.0
 20
-2100.0
  9
$LIMMAX
 10
2970.0
 20
2100.0
  9
$ORTHOMODE
 70
     1
  9
$REGENMODE
 70
     1
  9
$FILLMODE
 70
     1
  9
$QTEXTMODE
 70
     0
  9
$MIRRTEXT
 70
     0
  9
$LTSCALE
 40
20.0
  9
$ATTMODE
 70
     1
  9
$TEXTSIZE
 40
64.0
  9
$TRACEWID
 40
0.05
  9
$TEXTSTYLE
  7
STANDARD
  9
$CLAYER
  8
SIZE
  9
$CELTYPE
  6
CONTINUOUS
  9
$CECOLOR
 62
     7
  9
$DIMSCALE
 40
1.0
  9
$DIMASZ
 40
12.0
  9
$DIMEXO
 40
20.0
  9
$DIMDLI
 40
200.0
  9
$DIMRND
 40
0.0
  9
$DIMDLE
 40
0.0
  9
$DIMEXE
 40
20.0
  9
$DIMTP
 40
0.0
  9
$DIMTM
 40
0.0
  9
$DIMTXT
 40
64.0
  9
$DIMCEN
 40
0.09
  9
$DIMTSZ
 40
0.0
  9
$DIMTOL
 70
     0
  9
$DIMLIM
 70
     0
  9
$DIMTIH
 70
     0
  9
$DIMTOH
 70
     0
  9
$DIMSE1
 70
     0
  9
$DIMSE2
 70
     0
  9
$DIMTAD
 70
     1
  9
$DIMZIN
 70
     8
  9
$DIMBLK
  1

  9
$DIMASO
 70
     1
  9
$DIMSHO
 70
     0
  9
$DIMPOST
  1

  9
$DIMAPOST
  1

  9
$DIMALT
 70
     0
  9
$DIMALTD
 70
     2
  9
$DIMALTF
 40
25.399999999999999
  9
$DIMLFAC
 40
1.0
  9
$DIMTOFL
 70
     1
  9
$DIMTVP
 40
0.0
  9
$DIMTIX
 70
     1
  9
$DIMSOXD
 70
     0
  9
$DIMSAH
 70
     0
  9
$DIMBLK1
  1

  9
$DIMBLK2
  1

  9
$DIMSTYLE
  2
STANDARD
  9
$DIMCLRD
 70
     7
  9
$DIMCLRE
 70
     7
  9
$DIMCLRT
 70
     7
  9
$DIMTFAC
 40
1.0
  9
$DIMGAP
 40
25.0
  9
$LUNITS
 70
     2
  9
$LUPREC
 70
     4
  9
$SKETCHINC
 40
0.1
  9
$FILLETRAD
 40
3.0
  9
$AUNITS
 70
     1
  9
$AUPREC
 70
     3
  9
$MENU
  1
ACAD
  9
$ELEVATION
 40
0.0
  9
$PELEVATION
 40
0.0
  9
$THICKNESS
 40
0.0
  9
$LIMCHECK
 70
     0
  9
$CHAMFERA
 40
0.0
  9
$CHAMFERB
 40
0.0
  9
$SKPOLY
 70
     0
  9
$TDCREATE
 40
2453019.62301037
  9
$TDUPDATE
 40
2458949.460919468
  9
$TDINDWG
 40
1.7133840394
  9
$TDUSRTIMER
 40
1.7133840394
  9
$USRTIMER
 70
     1
  9
$ANGBASE
 50
0.0
  9
$ANGDIR
 70
     0
  9
$PDMODE
 70
     3
  9
$PDSIZE
 40
-2.0
  9
$PLINEWID
 40
0.0
  9
$SPLFRAME
 70
     0
  9
$SPLINETYPE
 70
     6
  9
$SPLINESEGS
 70
     8
  9
$SURFTAB1
 70
     6
  9
$SURFTAB2
 70
     6
  9
$SURFTYPE
 70
     6
  9
$SURFU
 70
     6
  9
$SURFV
 70
     6
  9
$UCSNAME
  2

  9
$UCSORG
 10
0.0
 20
0.0
 30
0.0
  9
$UCSXDIR
 10
1.0
 20
0.0
 30
0.0
  9
$UCSYDIR
 10
0.0
 20
1.0
 30
0.0
  9
$PUCSNAME
  2

  9
$PUCSORG
 10
0.0
 20
0.0
 30
0.0
  9
$PUCSXDIR
 10
1.0
 20
0.0
 30
0.0
  9
$PUCSYDIR
 10
0.0
 20
1.0
 30
0.0
  9
$USERI1
 70
     0
  9
$USERI2
 70
     0
  9
$USERI3
 70
     0
  9
$USERI4
 70
     0
  9
$USERI5
 70
     0
  9
$USERR1
 40
20.0
  9
$USERR2
 40
0.0
  9
$USERR3
 40
0.0
  9
$USERR4
 40
0.0
  9
$USERR5
 40
0.0
  9
$WORLDVIEW
 70
     1
  9
$SHADEDGE
 70
     3
  9
$SHADEDIF
 70
    70
  9
$TILEMODE
 70
     1
  9
$MAXACTVP
 70
    48
  9
$PINSBASE
 10
0.0
 20
0.0
 30
0.0
  9
$PLIMCHECK
 70
     0
  9
$PEXTMIN
 10
-100000000000000000000.0
 20
-100000000000000000000.0
 30
-100000000000000000000.0
  9
$PEXTMAX
 10
100000000000000000000.0
 20
100000000000000000000.0
 30
100000000000000000000.0
  9
$PLIMMIN
 10
0.0
 20
0.0
  9
$PLIMMAX
 10
12.0
 20
9.0
  9
$UNITMODE
 70
     0
  9
$VISRETAIN
 70
     0
  9
$PLINEGEN
 70
     0
  9
$PSLTSCALE
 70
     0
  9
$TREEDEPTH
 70
  3020
  9
$ATTDIA
 70
     0
  9
$ATTREQ
 70
     1
  9
$BLIPMODE
 70
     1
  9
$COORDS
 70
     1
  9
$DRAGMODE
 70
     2
  9
$OSMODE
 70
     0
  9
$HANDLING
 70
     0
  9
$HANDSEED
  5
126AF
  0
ENDSEC
  0
SECTION
  2
TABLES
  0
TABLE
  2
LTYPE
 70
     2
  0
LTYPE
  2
CONTINUOUS
 70
     0
  3
実線
 72
    65
 73
     0
 40
0.0
  0
LTYPE
  2
DASHDOT
 70
     0
  3
____ _ ____ _ ____ _ ____ _ ____ _ ____ _ ____
 72
    65
 73
     4
 40
5.5
 49
4.0
 49
-0.6
 49
0.3
 49
-0.6
  0
ENDTAB
  0
TABLE
  2
LAYER
 70
    12
  0
LAYER
  2
0
 70
     0
 62
     7
  6
CONTINUOUS
  0
LAYER
  2
BASIS
 70
     0
 62
     6
  6
DASHDOT
  0
LAYER
  2
OUTLINE
 70
     0
 62
     3
  6
CONTINUOUS
  0
LAYER
  2
DETAIL
 70
     0
 62
     5
  6
CONTINUOUS
  0
LAYER
  2
SIZE
 70
     0
 62
    30
  6
CONTINUOUS
  0
LAYER
  2
ARRANGE
 70
     0
 62
     1
  6
CONTINUOUS
  0
LAYER
  2
DEFPOINTS
 70
     0
 62
     7
  6
CONTINUOUS
  0
LAYER
  2
ETC
 70
     0
 62
    61
  6
CONTINUOUS
  0
LAYER
  2
FIX
 70
     0
 62
    11
  6
CONTINUOUS
  0
LAYER
  2
NOTE
 70
     0
 62
     4
  6
CONTINUOUS
  0
LAYER
  2
SERVICESPACE
 70
    64
 62
     2
  6
DASHDOT
  0
LAYER
  2
SYMBOLLINE
 70
    64
 62
    15
  6
CONTINUOUS
  0
ENDTAB
  0
TABLE
  2
STYLE
 70
     1
  0
STYLE
  2
STANDARD
 70
     0
 40
64.0
 41
0.9
 50
0.0
 71
     0
 42
64.0
  3
SIMPLEX.shx
  4
BIGFONT.shx
  0
ENDTAB
  0
TABLE
  2
APPID
 70
    19
  0
APPID
  2
ACAD
 70
     0
  0
APPID
  2
AUTOCAD_POSTSCRIPT_FIGURE
 70
     0
  0
APPID
  2
ACAD_EXEMPT_FROM_CAD_STANDARDS
 70
     0
  0
APPID
  2
ACAD_PSEXT
 70
     0
  0
APPID
  2
ACAUTHENVIRON
 70
     0
  0
APPID
  2
GENIUS_GENOENT_13
 70
     0
  0
APPID
  2
GENIUS_GENCFG_13
 70
     0
  0
APPID
  2
GENIUS_GENCFG0_13
 70
     0
  0
APPID
  2
GENIUS_GENCFG1_13
 70
     0
  0
APPID
  2
GENIUS_GENCFG2_13
 70
     0
  0
APPID
  2
GENIUS_GENCFG3_13
 70
     0
  0
APPID
  2
GENIUS_GENCFG4_13
 70
     0
  0
APPID
  2
GENIUS_GEVCFG0_13
 70
     0
  0
APPID
  2
CONTENTBLOCKICON
 70
     0
  0
APPID
  2
CONTENTBLOCKDESCRIPTION
 70
     0
  0
APPID
  2
ACAD_NAV_VCDISPLAY
 70
     0
  0
APPID
  2
ACAD_MLEADERVER
 70
     0
  0
APPID
  2
ACDBDYNAMICBLOCKTRUENAME
 70
     0
  0
APPID
  2
ACDBDYNAMICBLOCKGUID
 70
     0
  0
ENDTAB
  0
TABLE
  2
DIMSTYLE
 70
     1
  0
DIMSTYLE
  2
STANDARD
 70
     0
  3

  4

  5
_ORIGIN
  6

  7

 40
1.0
 41
12.0
 42
20.0
 43
200.0
 44
20.0
 45
0.0
 46
0.0
 47
0.0
 48
0.0
140
64.0
141
0.09
142
0.0
143
25.399999999999999
144
1.0
145
0.0
146
1.0
147
25.0
 71
     0
 72
     0
 73
     0
 74
     0
 75
     0
 76
     0
 77
     1
 78
     8
170
     0
171
     2
172
     1
173
     0
174
     1
175
     0
176
     7
177
     7
178
     7
  0
ENDTAB
  0
TABLE
  2
VIEW
 70
     1
  0
VIEW
  2
ALL
 70
     0
 40
4282.6198079999986
 10
0.0
 20
41.309904000000003
 41
5940.0
 11
0.0
 21
0.0
 31
1.0
 12
0.0
 22
0.0
 32
0.0
 42
50.0
 43
0.0
 44
0.0
 50
0.0
 71
     0
  0
ENDTAB
  0
TABLE
  2
UCS
 70
     0
  0
ENDTAB
  0
TABLE
  2
VPORT
 70
     1
  0
VPORT
  2
*ACTIVE
 70
     0
 10
0.0
 20
0.0
 11
1.0
 21
1.0
 12
178.3287188717259
 22
233.59681180864209
 13
0.0
 23
0.0
 14
1.0
 24
1.0
 15
0.0
 25
0.0
 16
0.0
 26
0.0
 36
1.0
 17
0.0
 27
0.0
 37
0.0
 40
1643.1155348557061
 41
1.747787610619469
 42
50.0
 43
0.0
 44
0.0
 50
0.0
 51
0.0
 71
     0
 72
  1000
 73
     1
 74
     3
 75
     0
 76
     0
 77
     0
 78
     0
  0
ENDTAB
  0
ENDSEC
  0
SECTION
  2
BLOCKS
  0
BLOCK
  8
0
  2
_ORIGIN
 70
     0
 10
0.0
 20
0.0
 30
0.0
  3
_ORIGIN
  1
_ORIGIN
  0
CIRCLE
  8
0
  6
CONTINUOUS
 62
     7
 10
0.0
 20
0.0
 30
0.0
 40
0.5
  0
LINE
  8
0
  6
CONTINUOUS
 62
     7
 10
0.0
 20
0.0
 30
0.0
 11
-1.0
 21
0.0
 31
0.0
  0
ENDBLK
  8
0
  0
ENDSEC
  0
SECTION
  2
ENTITIES
  0
POINT
  8
ARRANGE
  6
CONTINUOUS
 62
     1
 10
0.0
 20
0.0
 30
0.0
  0
LINE
  8
DETAIL
  6
CONTINUOUS
 62
     5
 10
472.60000000000218
 20
472.59999999999991
 30
0.0
 11
472.51054293760262
 21
472.72998870980001
 31
0.0
  0
LINE
  8
DETAIL
  6
CONTINUOUS
 62
     5
 10
472.51054293760262
 20
472.72998870980001
 30
0.0
 11
472.42625222670267
 21
472.86069694270009
 31
0.0
  0
LINE
  8
DETAIL
  6
CONTINUOUS
 62
     5
 10
472.42625222670267
 20
472.86069694270009
 30
0.0
 11
472.34723695170209
 21
472.99183322469997
 31
0.0
  0
LINE
  8
DETAIL
  6
CONTINUOUS
 62
     5
 10
472.34723695170209
 20
472.99183322469997
 30
0.0
 11
472.27316985910238
 21
473.12263394010012
 31
0.0
  0
LINE
  8
DETAIL
  6
CONTINUOUS
 62
     5
 10
472.27316985910238
 20
473.12263394010012
 30
0.0
 11
472.20380581230262
 21
473.25241071739993
 31
0.0
  0
LINE
  8
DETAIL
  6
CONTINUOUS
 62
     5
 10
472.20380581230262
 20
473.25241071739993
 30
0.0
 11
472.13900754410218
 21
473.38062241059993
 31
0.0
  0
LINE
  8
DETAIL
  6
CONTINUOUS
 62
     5
 10
472.13900754410218
 20
473.38062241059993
 30
0.0
 11
472.07863790000192
 21
473.50667076240012
 31
0.0
  0
LINE
  8
DETAIL
  6
CONTINUOUS
 62
     5
 10
472.07863790000192
 20
473.50667076240012
 30
0.0
 11
472.02245140570182
 21
473.63008019019998
 31
0.0
  0
LINE
  8
DETAIL
  6
CONTINUOUS
 62
     5
 10
472.02245140570182
 20
473.63008019019998
 30
0.0
 11
471.97021567120191
 21
473.75031265489997
 31
0.0
  0
LINE
  8
DETAIL
  6
CONTINUOUS
 62
     5
 10
471.97021567120191
 20
473.75031265489997
 30
0.0
 11
471.92175428960218
 21
473.86703535359987
 31
0.0
  0
LINE
  8
DETAIL
  6
CONTINUOUS
 62
     5
 10
471.92175428960218
 20
473.86703535359987
 30
0.0
 11
471.87682286280233
 21
473.9799202442
 31
0.0
  0
LINE
  8
DETAIL
  6
CONTINUOUS
 62
     5
 10
471.87682286280233
 20
473.9799202442
 30
0.0
 11
471.83539297400239
 21
474.08846239309992
 31
0.0
  0
LINE
  8
DETAIL
  6
CONTINUOUS
 62
     5
 10
471.83539297400239
 20
474.08846239309992
 30
0.0
 11
471.79740187720199
 21
474.19217285309992
 31
0.0
  0
LINE
  8
DETAIL
  6
CONTINUOUS
 62
     5
 10
471.79740187720199
 20
474.19217285309992
 30
0.0
 11
471.76270816230209
 21
474.29083395250001
 31
0.0
  0
LINE
  8
DETAIL
  6
CONTINUOUS
 62
     5
 10
471.76270816230209
 20
474.29083395250001
 30
0.0
 11
471.73117017480217
 21
474.38421655460002
 31
0.0
  0
LINE
  8
DETAIL
  6
CONTINUOUS
 62
     5
 10
471.73117017480217
 20
474.38421655460002
 30
0.0
 11
471.70272590110199
 21
474.47190977529999
 31
0.0
  0
LINE
  8
DETAIL
  6
CONTINUOUS
 62
     5
 10
471.70272590110199
 20
474.47190977529999
 30
0.0
 11
471.677290468102
 21
474.55354279220001
 31
0.0
  0
LINE
  8
DETAIL
  6
CONTINUOUS
 62
     5
 10
471.677290468102
 20
474.55354279220001
 30
0.0
 11
471.65479079890241
 21
474.62895915889999
 31
0.0
  0
LINE
  8
DETAIL
  6
CONTINUOUS
 62
     5
 10
471.65479079890241
 20
474.62895915889999
 30
0.0
 11
471.63512653170261
 21
474.69799005739992
 31
0.0
  0
LINE
  8
DETAIL
  6
CONTINUOUS
 62
     5
 10
471.63512653170261
 20
474.69799005739992
 30
0.0
 11
471.61829464810222
 21
474.76034329370009
 31
0.0
  0
LINE
  8
DETAIL
  6
CONTINUOUS
 62
     5
 10
471.61829464810222
 20
474.76034329370009
 30
0.0
 11
471.60427357920253
 21
474.81577764330001
 31
0.0
  0
LINE
  8
DETAIL
  6
CONTINUOUS
 62
     5
 10
471.60427357920253
 20
474.81577764330001
 30
0.0
 11
471.5930186145024
 21
474.86417270219999
 31
0.0
  0
LINE
  8
DETAIL
  6
CONTINUOUS
 62
     5
 10
471.5930186145024
 20
474.86417270219999
 30
0.0
 11
471.58448180250252
 21
474.90540323919998
 31
0.0
  0
LINE
  8
DETAIL
  6
CONTINUOUS
 62
     5
 10
471.58448180250252
 20
474.90540323919998
 30
0.0
 11
471.57865129700178
 21
474.93931612989991
 31
0.0
  0
LINE
  8
DETAIL
  6
CONTINUOUS
 62
     5
 10
471.57865129700178
 20
474.93931612989991
 30
0.0
 11
471.57549706220198
 21
474.96579584689988
 31
0.0
  0
LINE
  8
DETAIL
  6
CONTINUOUS
 62
     5
 10
471.57549706220198
 20
474.96579584689988
 30
0.0
 11
471.57488509680189
 21
474.97948532400011
 31
0.0
  0
LINE
  8
DETAIL
  6
CONTINUOUS
 62
     5
 10
472.60000000000218
 20
-472.60000000000002
 30
0.0
 11
472.72998870970241
 21
-472.51054293770011
 31
0.0
  0
LINE
  8
DETAIL
  6
CONTINUOUS
 62
     5
 10
472.72998870970241
 20
-472.51054293770011
 30
0.0
 11
472.86069694270191
 21
-472.42625222669989
 31
0.0
  0
LINE
  8
DETAIL
  6
CONTINUOUS
 62
     5
 10
472.86069694270191
 20
-472.42625222669989
 30
0.0
 11
472.9918332246026
 21
-472.34723695180003
 31
0.0
  0
LINE
  8
DETAIL
  6
CONTINUOUS
 62
     5
 10
472.9918332246026
 20
-472.34723695180003
 30
0.0
 11
473.12263394010188
 21
-472.27316985910011
 31
0.0
  0
LINE
  8
DETAIL
  6
CONTINUOUS
 62
     5
 10
473.12263394010188
 20
-472.27316985910011
 30
0.0
 11
473.2524107174022
 21
-472.20380581230012
 31
0.0
  0
LINE
  8
DETAIL
  6
CONTINUOUS
 62
     5
 10
473.2524107174022
 20
-472.20380581230012
 30
0.0
 11
473.38062241060197
 21
-472.13900754420001
 31
0.0
  0
LINE
  8
DETAIL
  6
CONTINUOUS
 62
     5
 10
473.38062241060197
 20
-472.13900754420001
 30
0.0
 11
473.50667076240188
 21
-472.07863789999999
 31
0.0
  0
LINE
  8
DETAIL
  6
CONTINUOUS
 62
     5
 10
473.50667076240188
 20
-472.07863789999999
 30
0.0
 11
473.63008019020248
 21
-472.02245140569988
 31
0.0
  0
LINE
  8
DETAIL
  6
CONTINUOUS
 62
     5
 10
473.63008019020248
 20
-472.02245140569988
 30
0.0
 11
473.75031265490179
 21
-471.97021567119992
 31
0.0
  0
LINE
  8
DETAIL
  6
CONTINUOUS
 62
     5
 10
473.75031265490179
 20
-471.97021567119992
 30
0.0
 11
473.86703535360272
 21
-471.92175428960002
 31
0.0
  0
LINE
  8
DETAIL
  6
CONTINUOUS
 62
     5
 10
473.86703535360272
 20
-471.92175428960002
 30
0.0
 11
473.97992024420182
 21
-471.87682286280011
 31
0.0
  0
LINE
  8
DETAIL
  6
CONTINUOUS
 62
     5
 10
473.97992024420182
 20
-471.87682286280011
 30
0.0
 11
474.08846239300249
 21
-471.83539297410022
 31
0.0
  0
LINE
  8
DETAIL
  6
CONTINUOUS
 62
     5
 10
474.08846239300249
 20
-471.83539297410022
 30
0.0
 11
474.19217285310242
 21
-471.79740187729999
 31
0.0
  0
LINE
  8
DETAIL
  6
CONTINUOUS
 62
     5
 10
474.19217285310242
 20
-471.79740187729999
 30
0.0
 11
474.29083395240201
 21
-471.76270816229999
 31
0.0
  0
LINE
  8
DETAIL
  6
CONTINUOUS
 62
     5
 10
474.29083395240201
 20
-471.76270816229999
 30
0.0
 11
474.38421655460212
 21
-471.73117017490011
 31
0.0
  0
LINE
  8
DETAIL
  6
CONTINUOUS
 62
     5
 10
474.38421655460212
 20
-471.73117017490011
 30
0.0
 11
474.47190977530232
 21
-471.70272590109988
 31
0.0
  0
LINE
  8
DETAIL
  6
CONTINUOUS
 62
     5
 10
474.47190977530232
 20
-471.70272590109988
 30
0.0
 11
474.55354279210218
 21
-471.67729046810001
 31
0.0
  0
LINE
  8
DETAIL
  6
CONTINUOUS
 62
     5
 10
474.55354279210218
 20
-471.67729046810001
 30
0.0
 11
474.62895915890198
 21
-471.65479079890002
 31
0.0
  0
LINE
  8
DETAIL
  6
CONTINUOUS
 62
     5
 10
474.62895915890198
 20
-471.65479079890002
 30
0.0
 11
474.69799005740242
 21
-471.63512653179993
 31
0.0
  0
LINE
  8
DETAIL
  6
CONTINUOUS
 62
     5
 10
474.69799005740242
 20
-471.63512653179993
 30
0.0
 11
474.76034329370208
 21
-471.61829464819988
 31
0.0
  0
LINE
  8
DETAIL
  6
CONTINUOUS
 62
     5
 10
474.76034329370208
 20
-471.61829464819988
 30
0.0
 11
474.81577764320258
 21
-471.60427357929979
 31
0.0
  0
LINE
  8
DETAIL
  6
CONTINUOUS
 62
     5
 10
474.81577764320258
 20
-471.60427357929979
 30
0.0
 11
474.86417270220232
 21
-471.59301861459988
 31
0.0
  0
LINE
  8
DETAIL
  6
CONTINUOUS
 62
     5
 10
474.86417270220232
 20
-471.59301861459988
 30
0.0
 11
474.90540323920231
 21
-471.58448180260012
 31
0.0
  0
LINE
  8
DETAIL
  6
CONTINUOUS
 62
     5
 10
474.90540323920231
 20
-471.58448180260012
 30
0.0
 11
474.93931612990218
 21
-471.57865129710001
 31
0.0
  0
LINE
  8
DETAIL
  6
CONTINUOUS
 62
     5
 10
474.93931612990218
 20
-471.57865129710001
 30
0.0
 11
474.96579584680239
 21
-471.57549706229997
 31
0.0
  0
LINE
  8
DETAIL
  6
CONTINUOUS
 62
     5
 10
474.96579584680239
 20
-471.57549706229997
 30
0.0
 11
474.97948532400193
 21
-471.5748850969
 31
0.0
  0
LINE
  8
DETAIL
  6
CONTINUOUS
 62
     5
 10
-473.79999999999831
 20
475.0
 30
0.0
 11
-471.58212150069812
 21
475.0
 31
0.0
  0
LINE
  8
DETAIL
  6
CONTINUOUS
 62
     5
 10
-471.58212150069812
 20
475.0
 30
0.0
 11
-3.4927522334974128
 21
475.0
 31
0.0
  0
LINE
  8
DETAIL
  6
CONTINUOUS
 62
     5
 10
-3.4927522334974128
 20
475.0
 30
0.0
 11
3.4927522334019159
 21
475.0
 31
0.0
  0
LINE
  8
DETAIL
  6
CONTINUOUS
 62
     5
 10
3.4927522334019159
 20
475.0
 30
0.0
 11
471.58212150070273
 21
475.0
 31
0.0
  0
LINE
  8
DETAIL
  6
CONTINUOUS
 62
     5
 10
471.58212150070273
 20
475.0
 30
0.0
 11
473.800000000002
 21
475.0
 31
0.0
  0
LINE
  8
DETAIL
  6
CONTINUOUS
 62
     5
 10
-473.79999999999831
 20
473.80000000000018
 30
0.0
 11
-471.9495862870981
 21
473.80000000000018
 31
0.0
  0
LINE
  8
DETAIL
  6
CONTINUOUS
 62
     5
 10
-3.1253233469979018
 20
473.80000000000018
 30
0.0
 11
3.1253233469024049
 21
473.80000000000018
 31
0.0
  0
LINE
  8
DETAIL
  6
CONTINUOUS
 62
     5
 10
471.94958628700181
 20
473.80000000000001
 30
0.0
 11
473.800000000002
 21
473.80000000000001
 31
0.0
  0
LINE
  8
DETAIL
  6
CONTINUOUS
 62
     5
 10
473.800000000002
 20
473.80000000000001
 30
0.0
 11
475.00000000000182
 21
473.80000000000001
 31
0.0
  0
LINE
  8
DETAIL
  6
CONTINUOUS
 62
     5
 10
-473.79999999999831
 20
473.80000000000018
 30
0.0
 11
-474.99999999999818
 21
473.80000000000018
 31
0.0
  0
LINE
  8
DETAIL
  6
CONTINUOUS
 62
     5
 10
474.97948532400193
 20
471.57488509680002
 30
0.0
 11
474.96579584680239
 21
471.57549706219987
 31
0.0
  0
LINE
  8
DETAIL
  6
CONTINUOUS
 62
     5
 10
474.96579584680239
 20
471.57549706219987
 30
0.0
 11
474.93931612990218
 21
471.57865129700008
 31
0.0
  0
LINE
  8
DETAIL
  6
CONTINUOUS
 62
     5
 10
474.93931612990218
 20
471.57865129700008
 30
0.0
 11
474.90540323920231
 21
471.58448180260012
 31
0.0
  0
LINE
  8
DETAIL
  6
CONTINUOUS
 62
     5
 10
474.90540323920231
 20
471.58448180260012
 30
0.0
 11
474.86417270220232
 21
471.5930186144999
 31
0.0
  0
LINE
  8
DETAIL
  6
CONTINUOUS
 62
     5
 10
474.86417270220232
 20
471.5930186144999
 30
0.0
 11
474.81577764320258
 21
471.60427357930013
 31
0.0
  0
LINE
  8
DETAIL
  6
CONTINUOUS
 62
     5
 10
474.81577764320258
 20
471.60427357930013
 30
0.0
 11
474.76034329370208
 21
471.61829464809989
 31
0.0
  0
LINE
  8
DETAIL
  6
CONTINUOUS
 62
     5
 10
474.76034329370208
 20
471.61829464809989
 30
0.0
 11
474.69799005740242
 21
471.63512653170011
 31
0.0
  0
LINE
  8
DETAIL
  6
CONTINUOUS
 62
     5
 10
474.69799005740242
 20
471.63512653170011
 30
0.0
 11
474.62895915890198
 21
471.65479079890002
 31
0.0
  0
LINE
  8
DETAIL
  6
CONTINUOUS
 62
     5
 10
474.62895915890198
 20
471.65479079890002
 30
0.0
 11
474.55354279210218
 21
471.67729046810001
 31
0.0
  0
LINE
  8
DETAIL
  6
CONTINUOUS
 62
     5
 10
474.55354279210218
 20
471.67729046810001
 30
0.0
 11
474.47190977530232
 21
471.70272590109988
 31
0.0
  0
LINE
  8
DETAIL
  6
CONTINUOUS
 62
     5
 10
474.47190977530232
 20
471.70272590109988
 30
0.0
 11
474.38421655460212
 21
471.73117017489989
 31
0.0
  0
LINE
  8
DETAIL
  6
CONTINUOUS
 62
     5
 10
474.38421655460212
 20
471.73117017489989
 30
0.0
 11
474.29083395240201
 21
471.76270816229999
 31
0.0
  0
LINE
  8
DETAIL
  6
CONTINUOUS
 62
     5
 10
474.29083395240201
 20
471.76270816229999
 30
0.0
 11
474.19217285310242
 21
471.79740187729999
 31
0.0
  0
LINE
  8
DETAIL
  6
CONTINUOUS
 62
     5
 10
474.19217285310242
 20
471.79740187729999
 30
0.0
 11
474.08846239300249
 21
471.83539297400011
 31
0.0
  0
LINE
  8
DETAIL
  6
CONTINUOUS
 62
     5
 10
474.08846239300249
 20
471.83539297400011
 30
0.0
 11
473.97992024420182
 21
471.87682286280011
 31
0.0
  0
LINE
  8
DETAIL
  6
CONTINUOUS
 62
     5
 10
473.97992024420182
 20
471.87682286280011
 30
0.0
 11
473.86703535360272
 21
471.9217542895999
 31
0.0
  0
LINE
  8
DETAIL
  6
CONTINUOUS
 62
     5
 10
473.86703535360272
 20
471.9217542895999
 30
0.0
 11
473.75031265490179
 21
471.97021567120009
 31
0.0
  0
LINE
  8
DETAIL
  6
CONTINUOUS
 62
     5
 10
473.75031265490179
 20
471.97021567120009
 30
0.0
 11
473.63008019020248
 21
472.02245140569988
 31
0.0
  0
LINE
  8
DETAIL
  6
CONTINUOUS
 62
     5
 10
473.63008019020248
 20
472.02245140569988
 30
0.0
 11
473.50667076240188
 21
472.0786379000001
 31
0.0
  0
LINE
  8
DETAIL
  6
CONTINUOUS
 62
     5
 10
473.50667076240188
 20
472.0786379000001
 30
0.0
 11
473.38062241060197
 21
472.13900754420001
 31
0.0
  0
LINE
  8
DETAIL
  6
CONTINUOUS
 62
     5
 10
473.38062241060197
 20
472.13900754420001
 30
0.0
 11
473.2524107174022
 21
472.20380581230012
 31
0.0
  0
LINE
  8
DETAIL
  6
CONTINUOUS
 62
     5
 10
473.2524107174022
 20
472.20380581230012
 30
0.0
 11
473.12263394010188
 21
472.27316985910011
 31
0.0
  0
LINE
  8
DETAIL
  6
CONTINUOUS
 62
     5
 10
473.12263394010188
 20
472.27316985910011
 30
0.0
 11
472.9918332246026
 21
472.34723695179991
 31
0.0
  0
LINE
  8
DETAIL
  6
CONTINUOUS
 62
     5
 10
472.9918332246026
 20
472.34723695179991
 30
0.0
 11
472.86069694270191
 21
472.42625222669989
 31
0.0
  0
LINE
  8
DETAIL
  6
CONTINUOUS
 62
     5
 10
472.86069694270191
 20
472.42625222669989
 30
0.0
 11
472.72998870970241
 21
472.51054293759989
 31
0.0
  0
LINE
  8
DETAIL
  6
CONTINUOUS
 62
     5
 10
472.72998870970241
 20
472.51054293759989
 30
0.0
 11
472.60000000000218
 21
472.59999999999991
 31
0.0
  0
LINE
  8
DETAIL
  6
CONTINUOUS
 62
     5
 10
3.4927522334019159
 20
475.0
 30
0.0
 11
3.494968079502542
 21
474.99942820880011
 31
0.0
  0
LINE
  8
DETAIL
  6
CONTINUOUS
 62
     5
 10
3.494968079502542
 20
474.99942820880011
 30
0.0
 11
3.4967805546020831
 21
474.9977130876
 31
0.0
  0
LINE
  8
DETAIL
  6
CONTINUOUS
 62
     5
 10
3.4967805546020831
 20
474.9977130876
 30
0.0
 11
3.4981894554020978
 21
474.99485537890001
 31
0.0
  0
LINE
  8
DETAIL
  6
CONTINUOUS
 62
     5
 10
3.4981894554020978
 20
474.99485537890001
 30
0.0
 11
3.499195392102592
 21
474.99085654930008
 31
0.0
  0
LINE
  8
DETAIL
  6
CONTINUOUS
 62
     5
 10
3.499195392102592
 20
474.99085654930008
 30
0.0
 11
3.4997989747016618
 21
474.98571878870013
 31
0.0
  0
LINE
  8
DETAIL
  6
CONTINUOUS
 62
     5
 10
3.4997989747016618
 20
474.98571878870013
 30
0.0
 11
3.500000000001819
 21
474.97944464910012
 31
0.0
  0
LINE
  8
DETAIL
  6
CONTINUOUS
 62
     5
 10
475.00000000000182
 20
473.80000000000001
 30
0.0
 11
475.00000000000182
 21
471.58212150069988
 31
0.0
  0
LINE
  8
DETAIL
  6
CONTINUOUS
 62
     5
 10
475.00000000000182
 20
471.58212150069988
 30
0.0
 11
475.00000000000182
 21
3.4927522335000281
 31
0.0
  0
LINE
  8
DETAIL
  6
CONTINUOUS
 62
     5
 10
475.00000000000182
 20
3.4927522335000281
 30
0.0
 11
475.00000000000182
 21
-3.4927522335000281
 31
0.0
  0
LINE
  8
DETAIL
  6
CONTINUOUS
 62
     5
 10
475.00000000000182
 20
-3.4927522335000281
 30
0.0
 11
475.00000000000182
 21
-471.58212150069988
 31
0.0
  0
LINE
  8
DETAIL
  6
CONTINUOUS
 62
     5
 10
475.00000000000182
 20
-471.58212150069988
 30
0.0
 11
475.00000000000182
 21
-473.80000000000001
 31
0.0
  0
LINE
  8
DETAIL
  6
CONTINUOUS
 62
     5
 10
473.800000000002
 20
473.80000000000001
 30
0.0
 11
473.800000000002
 21
475.0
 31
0.0
  0
LINE
  8
DETAIL
  6
CONTINUOUS
 62
     5
 10
473.800000000002
 20
473.80000000000001
 30
0.0
 11
473.800000000002
 21
471.94958628699999
 31
0.0
  0
LINE
  8
DETAIL
  6
CONTINUOUS
 62
     5
 10
473.800000000002
 20
3.1253233469000179
 30
0.0
 11
473.800000000002
 21
-3.1253233469000179
 31
0.0
  0
LINE
  8
DETAIL
  6
CONTINUOUS
 62
     5
 10
473.800000000002
 20
-471.94958628709992
 30
0.0
 11
473.800000000002
 21
-473.80000000000001
 31
0.0
  0
LINE
  8
DETAIL
  6
CONTINUOUS
 62
     5
 10
473.800000000002
 20
-473.80000000000001
 30
0.0
 11
473.800000000002
 21
-475.0
 31
0.0
  0
LINE
  8
DETAIL
  6
CONTINUOUS
 62
     5
 10
471.57488509680189
 20
-474.97948532400011
 30
0.0
 11
471.57549706220198
 21
-474.96579584690011
 31
0.0
  0
LINE
  8
DETAIL
  6
CONTINUOUS
 62
     5
 10
471.57549706220198
 20
-474.96579584690011
 30
0.0
 11
471.57865129700178
 21
-474.93931613000001
 31
0.0
  0
LINE
  8
DETAIL
  6
CONTINUOUS
 62
     5
 10
471.57865129700178
 20
-474.93931613000001
 30
0.0
 11
471.58448180250252
 21
-474.90540323919998
 31
0.0
  0
LINE
  8
DETAIL
  6
CONTINUOUS
 62
     5
 10
471.58448180250252
 20
-474.90540323919998
 30
0.0
 11
471.5930186145024
 21
-474.86417270220011
 31
0.0
  0
LINE
  8
DETAIL
  6
CONTINUOUS
 62
     5
 10
471.5930186145024
 20
-474.86417270220011
 30
0.0
 11
471.60427357920253
 21
-474.81577764330001
 31
0.0
  0
LINE
  8
DETAIL
  6
CONTINUOUS
 62
     5
 10
471.60427357920253
 20
-474.81577764330001
 30
0.0
 11
471.61829464810222
 21
-474.76034329380008
 31
0.0
  0
LINE
  8
DETAIL
  6
CONTINUOUS
 62
     5
 10
471.61829464810222
 20
-474.76034329380008
 30
0.0
 11
471.63512653170261
 21
-474.69799005739998
 31
0.0
  0
LINE
  8
DETAIL
  6
CONTINUOUS
 62
     5
 10
471.63512653170261
 20
-474.69799005739998
 30
0.0
 11
471.65479079890241
 21
-474.62895915899998
 31
0.0
  0
LINE
  8
DETAIL
  6
CONTINUOUS
 62
     5
 10
471.65479079890241
 20
-474.62895915899998
 30
0.0
 11
471.677290468102
 21
-474.55354279220001
 31
0.0
  0
LINE
  8
DETAIL
  6
CONTINUOUS
 62
     5
 10
471.677290468102
 20
-474.55354279220001
 30
0.0
 11
471.70272590110199
 21
-474.47190977529999
 31
0.0
  0
LINE
  8
DETAIL
  6
CONTINUOUS
 62
     5
 10
471.70272590110199
 20
-474.47190977529999
 30
0.0
 11
471.73117017480217
 21
-474.38421655460002
 31
0.0
  0
LINE
  8
DETAIL
  6
CONTINUOUS
 62
     5
 10
471.73117017480217
 20
-474.38421655460002
 30
0.0
 11
471.76270816230209
 21
-474.29083395250001
 31
0.0
  0
LINE
  8
DETAIL
  6
CONTINUOUS
 62
     5
 10
471.76270816230209
 20
-474.29083395250001
 30
0.0
 11
471.79740187720199
 21
-474.19217285309998
 31
0.0
  0
LINE
  8
DETAIL
  6
CONTINUOUS
 62
     5
 10
471.79740187720199
 20
-474.19217285309998
 30
0.0
 11
471.83539297400239
 21
-474.08846239309997
 31
0.0
  0
LINE
  8
DETAIL
  6
CONTINUOUS
 62
     5
 10
471.83539297400239
 20
-474.08846239309997
 30
0.0
 11
471.87682286280233
 21
-473.97992024419989
 31
0.0
  0
LINE
  8
DETAIL
  6
CONTINUOUS
 62
     5
 10
471.87682286280233
 20
-473.97992024419989
 30
0.0
 11
471.92175428960218
 21
-473.86703535359987
 31
0.0
  0
LINE
  8
DETAIL
  6
CONTINUOUS
 62
     5
 10
471.92175428960218
 20
-473.86703535359987
 30
0.0
 11
471.97021567120191
 21
-473.75031265489997
 31
0.0
  0
LINE
  8
DETAIL
  6
CONTINUOUS
 62
     5
 10
471.97021567120191
 20
-473.75031265489997
 30
0.0
 11
472.02245140570182
 21
-473.63008019019998
 31
0.0
  0
LINE
  8
DETAIL
  6
CONTINUOUS
 62
     5
 10
472.02245140570182
 20
-473.63008019019998
 30
0.0
 11
472.07863790000192
 21
-473.50667076240012
 31
0.0
  0
LINE
  8
DETAIL
  6
CONTINUOUS
 62
     5
 10
472.07863790000192
 20
-473.50667076240012
 30
0.0
 11
472.13900754410218
 21
-473.38062241059998
 31
0.0
  0
LINE
  8
DETAIL
  6
CONTINUOUS
 62
     5
 10
472.13900754410218
 20
-473.38062241059998
 30
0.0
 11
472.20380581230262
 21
-473.25241071740021
 31
0.0
  0
LINE
  8
DETAIL
  6
CONTINUOUS
 62
     5
 10
472.20380581230262
 20
-473.25241071740021
 30
0.0
 11
472.27316985910238
 21
-473.12263394010012
 31
0.0
  0
LINE
  8
DETAIL
  6
CONTINUOUS
 62
     5
 10
472.27316985910238
 20
-473.12263394010012
 30
0.0
 11
472.34723695170209
 21
-472.99183322469997
 31
0.0
  0
LINE
  8
DETAIL
  6
CONTINUOUS
 62
     5
 10
472.34723695170209
 20
-472.99183322469997
 30
0.0
 11
472.42625222670267
 21
-472.8606969427999
 31
0.0
  0
LINE
  8
DETAIL
  6
CONTINUOUS
 62
     5
 10
472.42625222670267
 20
-472.8606969427999
 30
0.0
 11
472.51054293760262
 21
-472.72998870980001
 31
0.0
  0
LINE
  8
DETAIL
  6
CONTINUOUS
 62
     5
 10
472.51054293760262
 20
-472.72998870980001
 30
0.0
 11
472.60000000000218
 21
-472.60000000000002
 31
0.0
  0
LINE
  8
DETAIL
  6
CONTINUOUS
 62
     5
 10
-474.97948532399732
 20
471.57488509680002
 30
0.0
 11
-474.98477306339828
 21
471.57502571530023
 31
0.0
  0
LINE
  8
DETAIL
  6
CONTINUOUS
 62
     5
 10
-474.98477306339828
 20
471.57502571530023
 30
0.0
 11
-474.9961892760976
 21
471.57723343710018
 31
0.0
  0
LINE
  8
DETAIL
  6
CONTINUOUS
 62
     5
 10
-474.9961892760976
 20
471.57723343710018
 30
0.0
 11
-474.99999999999818
 21
471.58212150070023
 31
0.0
  0
LINE
  8
DETAIL
  6
CONTINUOUS
 62
     5
 10
471.57488509680189
 20
474.97948532400011
 30
0.0
 11
471.57502571530222
 21
474.9847730634001
 31
0.0
  0
LINE
  8
DETAIL
  6
CONTINUOUS
 62
     5
 10
471.57502571530222
 20
474.9847730634001
 30
0.0
 11
471.57723343710222
 21
474.99618927609998
 31
0.0
  0
LINE
  8
DETAIL
  6
CONTINUOUS
 62
     5
 10
471.57723343710222
 20
474.99618927609998
 30
0.0
 11
471.58212150060263
 21
475.0
 31
0.0
  0
LINE
  8
DETAIL
  6
CONTINUOUS
 62
     5
 10
475.00000000000182
 20
-3.4927522335000281
 30
0.0
 11
474.99942820870177
 21
-3.4949680796000848
 31
0.0
  0
LINE
  8
DETAIL
  6
CONTINUOUS
 62
     5
 10
474.99942820870177
 20
-3.4949680796000848
 30
0.0
 11
474.99771308750218
 21
-3.4967805547000812
 31
0.0
  0
LINE
  8
DETAIL
  6
CONTINUOUS
 62
     5
 10
474.99771308750218
 20
-3.4967805547000812
 30
0.0
 11
474.99485537880258
 21
-3.4981894554999831
 31
0.0
  0
LINE
  8
DETAIL
  6
CONTINUOUS
 62
     5
 10
474.99485537880258
 20
-3.4981894554999831
 30
0.0
 11
474.99085654930241
 21
-3.4991953920999781
 31
0.0
  0
LINE
  8
DETAIL
  6
CONTINUOUS
 62
     5
 10
474.99085654930241
 20
-3.4991953920999781
 30
0.0
 11
474.98571878860179
 21
-3.4997989747998872
 31
0.0
  0
LINE
  8
DETAIL
  6
CONTINUOUS
 62
     5
 10
474.98571878860179
 20
-3.4997989747998872
 30
0.0
 11
474.97944464900229
 21
-3.5
 31
0.0
  0
LINE
  8
DETAIL
  6
CONTINUOUS
 62
     5
 10
-2.474873734197899
 20
472.60000000000008
 30
0.0
 11
-2.5633164101973311
 21
472.72842811930008
 31
0.0
  0
LINE
  8
DETAIL
  6
CONTINUOUS
 62
     5
 10
-2.5633164101973311
 20
472.72842811930008
 30
0.0
 11
-2.646700061997763
 21
472.85755562880013
 31
0.0
  0
LINE
  8
DETAIL
  6
CONTINUOUS
 62
     5
 10
-2.646700061997763
 20
472.85755562880013
 30
0.0
 11
-2.724924608597576
 21
472.98710732740011
 31
0.0
  0
LINE
  8
DETAIL
  6
CONTINUOUS
 62
     5
 10
-2.724924608597576
 20
472.98710732740011
 30
0.0
 11
-2.7982902927979012
 21
473.11633113130011
 31
0.0
  0
LINE
  8
DETAIL
  6
CONTINUOUS
 62
     5
 10
-2.7982902927979012
 20
473.11633113130011
 30
0.0
 11
-2.8670029714976408
 21
473.24453467879988
 31
0.0
  0
LINE
  8
DETAIL
  6
CONTINUOUS
 62
     5
 10
-2.8670029714976408
 20
473.24453467879988
 30
0.0
 11
-2.9312457205978721
 21
473.37124400500011
 31
0.0
  0
LINE
  8
DETAIL
  6
CONTINUOUS
 62
     5
 10
-2.9312457205978721
 20
473.37124400500011
 30
0.0
 11
-2.991199823797615
 21
473.49593037139988
 31
0.0
  0
LINE
  8
DETAIL
  6
CONTINUOUS
 62
     5
 10
-2.991199823797615
 20
473.49593037139988
 30
0.0
 11
-3.047076515497793
 21
473.61809339299998
 31
0.0
  0
LINE
  8
DETAIL
  6
CONTINUOUS
 62
     5
 10
-3.047076515497793
 20
473.61809339299998
 30
0.0
 11
-3.0990985100979742
 21
473.73719612340011
 31
0.0
  0
LINE
  8
DETAIL
  6
CONTINUOUS
 62
     5
 10
-3.0990985100979742
 20
473.73719612340011
 30
0.0
 11
-3.1474126510975111
 21
473.85290000250012
 31
0.0
  0
LINE
  8
DETAIL
  6
CONTINUOUS
 62
     5
 10
-3.1474126510975111
 20
473.85290000250012
 30
0.0
 11
-3.1922176010975818
 21
473.96484277130003
 31
0.0
  0
LINE
  8
DETAIL
  6
CONTINUOUS
 62
     5
 10
-3.1922176010975818
 20
473.96484277130003
 30
0.0
 11
-3.233580617797998
 21
474.07261710960012
 31
0.0
  0
LINE
  8
DETAIL
  6
CONTINUOUS
 62
     5
 10
-3.233580617797998
 20
474.07261710960012
 30
0.0
 11
-3.271596083198347
 21
474.17584635359998
 31
0.0
  0
LINE
  8
DETAIL
  6
CONTINUOUS
 62
     5
 10
-3.271596083198347
 20
474.17584635359998
 30
0.0
 11
-3.306381286697615
 21
474.27418122750009
 31
0.0
  0
LINE
  8
DETAIL
  6
CONTINUOUS
 62
     5
 10
-3.306381286697615
 20
474.27418122750009
 30
0.0
 11
-3.3380538118981349
 21
474.36726166379998
 31
0.0
  0
LINE
  8
DETAIL
  6
CONTINUOUS
 62
     5
 10
-3.3380538118981349
 20
474.36726166379998
 30
0.0
 11
-3.3667071583977299
 21
474.45486888880009
 31
0.0
  0
LINE
  8
DETAIL
  6
CONTINUOUS
 62
     5
 10
-3.3667071583977299
 20
474.45486888880009
 30
0.0
 11
-3.392470047997449
 21
474.5367956604
 31
0.0
  0
LINE
  8
DETAIL
  6
CONTINUOUS
 62
     5
 10
-3.392470047997449
 20
474.5367956604
 30
0.0
 11
-3.4153543980983159
 21
474.61270107840011
 31
0.0
  0
LINE
  8
DETAIL
  6
CONTINUOUS
 62
     5
 10
-3.4153543980983159
 20
474.61270107840011
 30
0.0
 11
-3.4353947458976108
 21
474.68228290809998
 31
0.0
  0
LINE
  8
DETAIL
  6
CONTINUOUS
 62
     5
 10
-3.4353947458976108
 20
474.68228290809998
 30
0.0
 11
-3.4526519525979888
 21
474.74540822500012
 31
0.0
  0
LINE
  8
DETAIL
  6
CONTINUOUS
 62
     5
 10
-3.4526519525979888
 20
474.74540822500012
 30
0.0
 11
-3.467191194597945
 21
474.80193469969998
 31
0.0
  0
LINE
  8
DETAIL
  6
CONTINUOUS
 62
     5
 10
-3.467191194597945
 20
474.80193469969998
 30
0.0
 11
-3.4790340633981032
 21
474.85163495329988
 31
0.0
  0
LINE
  8
DETAIL
  6
CONTINUOUS
 62
     5
 10
-3.4790340633981032
 20
474.85163495329988
 30
0.0
 11
-3.4882187689972848
 21
474.89432692409991
 31
0.0
  0
LINE
  8
DETAIL
  6
CONTINUOUS
 62
     5
 10
-3.4882187689972848
 20
474.89432692409991
 30
0.0
 11
-3.4947606317973618
 21
474.92992270949998
 31
0.0
  0
LINE
  8
DETAIL
  6
CONTINUOUS
 62
     5
 10
-3.4947606317973618
 20
474.92992270949998
 30
0.0
 11
-3.4986912159974959
 21
474.95832927869998
 31
0.0
  0
LINE
  8
DETAIL
  6
CONTINUOUS
 62
     5
 10
-3.4986912159974959
 20
474.95832927869998
 30
0.0
 11
-3.499999999998181
 21
474.97944464910012
 31
0.0
  0
LINE
  8
DETAIL
  6
CONTINUOUS
 62
     5
 10
472.60000000000218
 20
2.4748737341000151
 30
0.0
 11
472.72842811920242
 21
2.5633164101000152
 31
0.0
  0
LINE
  8
DETAIL
  6
CONTINUOUS
 62
     5
 10
472.72842811920242
 20
2.5633164101000152
 30
0.0
 11
472.8575556288024
 21
2.6467000618999919
 31
0.0
  0
LINE
  8
DETAIL
  6
CONTINUOUS
 62
     5
 10
472.8575556288024
 20
2.6467000618999919
 30
0.0
 11
472.98710732740261
 21
2.7249246086000771
 31
0.0
  0
LINE
  8
DETAIL
  6
CONTINUOUS
 62
     5
 10
472.98710732740261
 20
2.7249246086000771
 30
0.0
 11
473.1163311313021
 21
2.7982902927000168
 31
0.0
  0
LINE
  8
DETAIL
  6
CONTINUOUS
 62
     5
 10
473.1163311313021
 20
2.7982902927000168
 30
0.0
 11
473.24453467880181
 21
2.8670029713999838
 31
0.0
  0
LINE
  8
DETAIL
  6
CONTINUOUS
 62
     5
 10
473.24453467880181
 20
2.8670029713999838
 30
0.0
 11
473.37124400500198
 21
2.9312457205999181
 31
0.0
  0
LINE
  8
DETAIL
  6
CONTINUOUS
 62
     5
 10
473.37124400500198
 20
2.9312457205999181
 30
0.0
 11
473.49593037140221
 21
2.9911998238001161
 31
0.0
  0
LINE
  8
DETAIL
  6
CONTINUOUS
 62
     5
 10
473.49593037140221
 20
2.9911998238001161
 30
0.0
 11
473.61809339290181
 21
3.0470765154999531
 31
0.0
  0
LINE
  8
DETAIL
  6
CONTINUOUS
 62
     5
 10
473.61809339290181
 20
3.0470765154999531
 30
0.0
 11
473.73719612330211
 21
3.0990985099999762
 31
0.0
  0
LINE
  8
DETAIL
  6
CONTINUOUS
 62
     5
 10
473.73719612330211
 20
3.0990985099999762
 30
0.0
 11
473.85290000250188
 21
3.1474126511000118
 31
0.0
  0
LINE
  8
DETAIL
  6
CONTINUOUS
 62
     5
 10
473.85290000250188
 20
3.1474126511000118
 30
0.0
 11
473.96484277130179
 21
3.1922176010999692
 31
0.0
  0
LINE
  8
DETAIL
  6
CONTINUOUS
 62
     5
 10
473.96484277130179
 20
3.1922176010999692
 30
0.0
 11
474.07261710950212
 21
3.233580617699999
 31
0.0
  0
LINE
  8
DETAIL
  6
CONTINUOUS
 62
     5
 10
474.07261710950212
 20
3.233580617699999
 30
0.0
 11
474.17584635360248
 21
3.271596083100007
 31
0.0
  0
LINE
  8
DETAIL
  6
CONTINUOUS
 62
     5
 10
474.17584635360248
 20
3.271596083100007
 30
0.0
 11
474.27418122740261
 21
3.306381286700002
 31
0.0
  0
LINE
  8
DETAIL
  6
CONTINUOUS
 62
     5
 10
474.27418122740261
 20
3.306381286700002
 30
0.0
 11
474.36726166380231
 21
3.338053811799909
 31
0.0
  0
LINE
  8
DETAIL
  6
CONTINUOUS
 62
     5
 10
474.36726166380231
 20
3.338053811799909
 30
0.0
 11
474.4548688888018
 21
3.3667071583000729
 31
0.0
  0
LINE
  8
DETAIL
  6
CONTINUOUS
 62
     5
 10
474.4548688888018
 20
3.3667071583000729
 30
0.0
 11
474.53679566040228
 21
3.3924700479999501
 31
0.0
  0
LINE
  8
DETAIL
  6
CONTINUOUS
 62
     5
 10
474.53679566040228
 20
3.3924700479999501
 30
0.0
 11
474.6127010784021
 21
3.415354398099907
 31
0.0
  0
LINE
  8
DETAIL
  6
CONTINUOUS
 62
     5
 10
474.6127010784021
 20
3.415354398099907
 30
0.0
 11
474.68228290800198
 21
3.435394745800068
 31
0.0
  0
LINE
  8
DETAIL
  6
CONTINUOUS
 62
     5
 10
474.68228290800198
 20
3.435394745800068
 30
0.0
 11
474.74540822500239
 21
3.4526519524999908
 31
0.0
  0
LINE
  8
DETAIL
  6
CONTINUOUS
 62
     5
 10
474.74540822500239
 20
3.4526519524999908
 30
0.0
 11
474.80193469970158
 21
3.4671911945000602
 31
0.0
  0
LINE
  8
DETAIL
  6
CONTINUOUS
 62
     5
 10
474.80193469970158
 20
3.4671911945000602
 30
0.0
 11
474.85163495330198
 21
3.479034063299991
 31
0.0
  0
LINE
  8
DETAIL
  6
CONTINUOUS
 62
     5
 10
474.85163495330198
 20
3.479034063299991
 30
0.0
 11
474.89432692410168
 21
3.4882187688999688
 31
0.0
  0
LINE
  8
DETAIL
  6
CONTINUOUS
 62
     5
 10
474.89432692410168
 20
3.4882187688999688
 30
0.0
 11
474.9299227094026
 21
3.4947606317999771
 31
0.0
  0
LINE
  8
DETAIL
  6
CONTINUOUS
 62
     5
 10
474.9299227094026
 20
3.4947606317999771
 30
0.0
 11
474.95832927860192
 21
3.498691215899953
 31
0.0
  0
LINE
  8
DETAIL
  6
CONTINUOUS
 62
     5
 10
474.95832927860192
 20
3.498691215899953
 30
0.0
 11
474.97944464900229
 21
3.5
 31
0.0
  0
LINE
  8
DETAIL
  6
CONTINUOUS
 62
     5
 10
64.420926441202027
 20
108.9871708476001
 30
0.0
 11
63.546785825202278
 21
109.15075894420001
 31
0.0
  0
LINE
  8
DETAIL
  6
CONTINUOUS
 62
     5
 10
63.546785825202278
 20
109.15075894420001
 30
0.0
 11
62.678680619802442
 21
109.3397772177001
 31
0.0
  0
LINE
  8
DETAIL
  6
CONTINUOUS
 62
     5
 10
62.678680619802442
 20
109.3397772177001
 30
0.0
 11
61.816355946301883
 21
109.55428676390009
 31
0.0
  0
LINE
  8
DETAIL
  6
CONTINUOUS
 62
     5
 10
61.816355946301883
 20
109.55428676390009
 30
0.0
 11
60.96057644080247
 21
109.7941042961
 31
0.0
  0
LINE
  8
DETAIL
  6
CONTINUOUS
 62
     5
 10
60.96057644080247
 20
109.7941042961
 30
0.0
 11
60.111690186601663
 21
110.0591695820001
 31
0.0
  0
LINE
  8
DETAIL
  6
CONTINUOUS
 62
     5
 10
60.111690186601663
 20
110.0591695820001
 30
0.0
 11
59.270691963201898
 21
110.34917455510011
 31
0.0
  0
LINE
  8
DETAIL
  6
CONTINUOUS
 62
     5
 10
59.270691963201898
 20
110.34917455510011
 30
0.0
 11
58.43833215630184
 21
110.6639519268001
 31
0.0
  0
LINE
  8
DETAIL
  6
CONTINUOUS
 62
     5
 10
58.43833215630184
 20
110.6639519268001
 30
0.0
 11
57.615692031102299
 21
111.0030191318
 31
0.0
  0
LINE
  8
DETAIL
  6
CONTINUOUS
 62
     5
 10
57.615692031102299
 20
111.0030191318
 30
0.0
 11
56.804269405702136
 21
111.3657705509
 31
0.0
  0
LINE
  8
DETAIL
  6
CONTINUOUS
 62
     5
 10
56.804269405702136
 20
111.3657705509
 30
0.0
 11
56.003565007402358
 21
111.7524080572001
 31
0.0
  0
LINE
  8
DETAIL
  6
CONTINUOUS
 62
     5
 10
56.005307701502723
 20
111.7560361977
 30
0.0
 11
56.575742715402157
 21
111.4820408084001
 31
0.0
  0
LINE
  8
DETAIL
  6
CONTINUOUS
 62
     5
 10
56.575742715402157
 20
111.4820408084001
 30
0.0
 11
57.387486192502372
 21
111.1212670598001
 31
0.0
  0
LINE
  8
DETAIL
  6
CONTINUOUS
 62
     5
 10
57.387486192502372
 20
111.1212670598001
 30
0.0
 11
58.210776475701998
 21
110.7841116349
 31
0.0
  0
LINE
  8
DETAIL
  6
CONTINUOUS
 62
     5
 10
58.210776475701998
 20
110.7841116349
 30
0.0
 11
59.043923277702561
 21
110.4712786186001
 31
0.0
  0
LINE
  8
DETAIL
  6
CONTINUOUS
 62
     5
 10
59.043923277702561
 20
110.4712786186001
 30
0.0
 11
59.885740130302111
 21
110.1833278301
 31
0.0
  0
LINE
  8
DETAIL
  6
CONTINUOUS
 62
     5
 10
59.885740130302111
 20
110.1833278301
 30
0.0
 11
60.735279004802578
 21
109.9204573702001
 31
0.0
  0
LINE
  8
DETAIL
  6
CONTINUOUS
 62
     5
 10
60.735279004802578
 20
109.9204573702001
 30
0.0
 11
61.591344862802544
 21
109.6830428934001
 31
0.0
  0
LINE
  8
DETAIL
  6
CONTINUOUS
 62
     5
 10
61.591344862802544
 20
109.6830428934001
 30
0.0
 11
62.45349226520193
 21
109.47111155820021
 31
0.0
  0
LINE
  8
DETAIL
  6
CONTINUOUS
 62
     5
 10
62.45349226520193
 20
109.47111155820021
 30
0.0
 11
63.320771953502117
 21
109.28483478850001
 31
0.0
  0
LINE
  8
DETAIL
  6
CONTINUOUS
 62
     5
 10
63.320771953502117
 20
109.28483478850001
 30
0.0
 11
64.19350034710169
 21
109.12415544300011
 31
0.0
  0
LINE
  8
DETAIL
  6
CONTINUOUS
 62
     5
 10
76.6202552579025
 20
109.4847384561
 30
0.0
 11
70.071526468402226
 21
116.03346724559999
 31
0.0
  0
LINE
  8
DETAIL
  6
CONTINUOUS
 62
     5
 10
64.264169768602187
 20
109.1129018841001
 30
0.0
 11
63.707565437802259
 21
109.6695062149
 31
0.0
  0
LINE
  8
DETAIL
  6
CONTINUOUS
 62
     5
 10
-471.58212150069812
 20
475.0
 30
0.0
 11
-471.57723343709762
 21
474.99618927609998
 31
0.0
  0
LINE
  8
DETAIL
  6
CONTINUOUS
 62
     5
 10
-471.57723343709762
 20
474.99618927609998
 30
0.0
 11
-471.57502571529761
 21
474.9847730634001
 31
0.0
  0
LINE
  8
DETAIL
  6
CONTINUOUS
 62
     5
 10
-471.57502571529761
 20
474.9847730634001
 30
0.0
 11
-471.57488509689762
 21
474.97948532400011
 31
0.0
  0
LINE
  8
DETAIL
  6
CONTINUOUS
 62
     5
 10
103.4758240076025
 20
-91.455008727499944
 30
0.0
 11
103.11511267570221
 21
-92.141933417299924
 31
0.0
  0
LINE
  8
DETAIL
  6
CONTINUOUS
 62
     5
 10
103.11511267570221
 20
-92.141933417299924
 30
0.0
 11
102.73669662800241
 21
-92.787694777699926
 31
0.0
  0
LINE
  8
DETAIL
  6
CONTINUOUS
 62
     5
 10
102.73669662800241
 20
-92.787694777699926
 30
0.0
 11
102.3429844352022
 21
-93.389921960099983
 31
0.0
  0
LINE
  8
DETAIL
  6
CONTINUOUS
 62
     5
 10
102.3429844352022
 20
-93.389921960099983
 30
0.0
 11
101.92675038490231
 21
-93.95572751039991
 31
0.0
  0
LINE
  8
DETAIL
  6
CONTINUOUS
 62
     5
 10
101.92675038490231
 20
-93.95572751039991
 30
0.0
 11
101.4807687649017
 21
-94.492223974899957
 31
0.0
  0
LINE
  8
DETAIL
  6
CONTINUOUS
 62
     5
 10
101.4807687649017
 20
-94.492223974899957
 30
0.0
 11
101.0074481460024
 21
-94.997040504699953
 31
0.0
  0
LINE
  8
DETAIL
  6
CONTINUOUS
 62
     5
 10
97.465416367502257
 20
-97.465416367600042
 30
0.0
 11
97.10470503560191
 21
-98.152341057299964
 31
0.0
  0
LINE
  8
DETAIL
  6
CONTINUOUS
 62
     5
 10
97.10470503560191
 20
-98.152341057299964
 30
0.0
 11
96.72628898790208
 21
-98.798102417699951
 31
0.0
  0
LINE
  8
DETAIL
  6
CONTINUOUS
 62
     5
 10
96.72628898790208
 20
-98.798102417699951
 30
0.0
 11
96.332576795101886
 21
-99.400329600100008
 31
0.0
  0
LINE
  8
DETAIL
  6
CONTINUOUS
 62
     5
 10
96.332576795101886
 20
-99.400329600100008
 30
0.0
 11
95.916342744902067
 21
-99.96613515039995
 31
0.0
  0
LINE
  8
DETAIL
  6
CONTINUOUS
 62
     5
 10
95.916342744902067
 20
-99.96613515039995
 30
0.0
 11
95.470361124902411
 21
-100.5026316148999
 31
0.0
  0
LINE
  8
DETAIL
  6
CONTINUOUS
 62
     5
 10
95.470361124902411
 20
-100.5026316148999
 30
0.0
 11
94.997040505902078
 21
-101.00744814479989
 31
0.0
  0
LINE
  8
DETAIL
  6
CONTINUOUS
 62
     5
 10
62.175195423702462
 20
-110.2837442571999
 30
0.0
 11
62.753937182002119
 21
-109.6085103171999
 31
0.0
  0
LINE
  8
DETAIL
  6
CONTINUOUS
 62
     5
 10
62.753937182002119
 20
-109.6085103171999
 30
0.0
 11
63.351684408702567
 21
-108.9512182917999
 31
0.0
  0
LINE
  8
DETAIL
  6
CONTINUOUS
 62
     5
 10
63.351684408702567
 20
-108.9512182917999
 30
0.0
 11
63.968617451801947
 21
-108.3116779989
 31
0.0
  0
LINE
  8
DETAIL
  6
CONTINUOUS
 62
     5
 10
63.968617451801947
 20
-108.3116779989
 30
0.0
 11
64.604195267802424
 21
-107.6904599845
 31
0.0
  0
LINE
  8
DETAIL
  6
CONTINUOUS
 62
     5
 10
64.604195267802424
 20
-107.6904599845
 30
0.0
 11
65.258191656502277
 21
-107.0878355780999
 31
0.0
  0
LINE
  8
DETAIL
  6
CONTINUOUS
 62
     5
 10
65.258191656502277
 20
-107.0878355780999
 30
0.0
 11
65.929842436002218
 21
-106.5045122478999
 31
0.0
  0
LINE
  8
DETAIL
  6
CONTINUOUS
 62
     5
 10
65.929842436002218
 20
-106.5045122478999
 30
0.0
 11
66.618627541301976
 21
-105.94105619779999
 31
0.0
  0
LINE
  8
DETAIL
  6
CONTINUOUS
 62
     5
 10
66.618627541301976
 20
-105.94105619779999
 30
0.0
 11
67.323588421301793
 21
-105.3981625511
 31
0.0
  0
LINE
  8
DETAIL
  6
CONTINUOUS
 62
     5
 10
67.323588421301793
 20
-105.3981625511
 30
0.0
 11
68.043451681802253
 21
-104.87682564799989
 31
0.0
  0
LINE
  8
DETAIL
  6
CONTINUOUS
 62
     5
 10
68.043451681802253
 20
-104.87682564799989
 30
0.0
 11
68.778641787602282
 21
-104.3767140417999
 31
0.0
  0
LINE
  8
DETAIL
  6
CONTINUOUS
 62
     5
 10
104.0126519655023
 20
-91.991836685099997
 30
0.0
 11
91.991836685102498
 21
-104.0126519656
 31
0.0
  0
LINE
  8
DETAIL
  6
CONTINUOUS
 62
     5
 10
70.071526468402226
 20
-116.03346724559989
 30
0.0
 11
116.0334672456019
 21
-70.071526468499883
 31
0.0
  0
LINE
  8
DETAIL
  6
CONTINUOUS
 62
     5
 10
94.997040505902078
 20
-101.00744814479989
 30
0.0
 11
94.49174712740205
 21
-101.4811527198999
 31
0.0
  0
LINE
  8
DETAIL
  6
CONTINUOUS
 62
     5
 10
94.49174712740205
 20
-101.4811527198999
 30
0.0
 11
93.954993916501735
 21
-101.9273227849
 31
0.0
  0
LINE
  8
DETAIL
  6
CONTINUOUS
 62
     5
 10
93.954993916501735
 20
-101.9273227849
 30
0.0
 11
93.389179249902554
 21
-102.3435104605999
 31
0.0
  0
LINE
  8
DETAIL
  6
CONTINUOUS
 62
     5
 10
93.389179249902554
 20
-102.3435104605999
 30
0.0
 11
92.787107998102329
 21
-102.7370593843
 31
0.0
  0
LINE
  8
DETAIL
  6
CONTINUOUS
 62
     5
 10
92.787107998102329
 20
-102.7370593843
 30
0.0
 11
92.141585031802606
 21
-103.1153131929
 31
0.0
  0
LINE
  8
DETAIL
  6
CONTINUOUS
 62
     5
 10
92.141585031802606
 20
-103.1153131929
 30
0.0
 11
91.455008727401946
 21
-103.4758240076999
 31
0.0
  0
LINE
  8
DETAIL
  6
CONTINUOUS
 62
     5
 10
101.0074481460024
 20
-94.997040504699953
 30
0.0
 11
100.5021547674023
 21
-95.470745079899984
 31
0.0
  0
LINE
  8
DETAIL
  6
CONTINUOUS
 62
     5
 10
100.5021547674023
 20
-95.470745079899984
 30
0.0
 11
99.965401556602046
 21
-95.916915144799887
 31
0.0
  0
LINE
  8
DETAIL
  6
CONTINUOUS
 62
     5
 10
99.965401556602046
 20
-95.916915144799887
 30
0.0
 11
99.399586890001956
 21
-96.333102820599933
 31
0.0
  0
LINE
  8
DETAIL
  6
CONTINUOUS
 62
     5
 10
99.399586890001956
 20
-96.333102820599933
 30
0.0
 11
98.797515638102595
 21
-96.72665174419987
 31
0.0
  0
LINE
  8
DETAIL
  6
CONTINUOUS
 62
     5
 10
98.797515638102595
 20
-96.72665174419987
 30
0.0
 11
98.151992671902008
 21
-97.104905552899908
 31
0.0
  0
LINE
  8
DETAIL
  6
CONTINUOUS
 62
     5
 10
98.151992671902008
 20
-97.104905552899908
 30
0.0
 11
97.465416367502257
 21
-97.465416367600042
 31
0.0
  0
LINE
  8
DETAIL
  6
CONTINUOUS
 62
     5
 10
474.97944464900229
 20
3.5
 30
0.0
 11
474.98571878860179
 21
3.499798974699956
 31
0.0
  0
LINE
  8
DETAIL
  6
CONTINUOUS
 62
     5
 10
474.98571878860179
 20
3.499798974699956
 30
0.0
 11
474.99085654930241
 21
3.4991953920999781
 31
0.0
  0
LINE
  8
DETAIL
  6
CONTINUOUS
 62
     5
 10
474.99085654930241
 20
3.4991953920999781
 30
0.0
 11
474.99485537880258
 21
3.4981894554999831
 31
0.0
  0
LINE
  8
DETAIL
  6
CONTINUOUS
 62
     5
 10
474.99485537880258
 20
3.4981894554999831
 30
0.0
 11
474.99771308750218
 21
3.4967805547000812
 31
0.0
  0
LINE
  8
DETAIL
  6
CONTINUOUS
 62
     5
 10
474.99771308750218
 20
3.4967805547000812
 30
0.0
 11
474.99942820870177
 21
3.49496807950004
 31
0.0
  0
LINE
  8
DETAIL
  6
CONTINUOUS
 62
     5
 10
474.99942820870177
 20
3.49496807950004
 30
0.0
 11
475.00000000000182
 21
3.4927522335000281
 31
0.0
  0
LINE
  8
DETAIL
  6
CONTINUOUS
 62
     5
 10
474.97944464900229
 20
-3.5
 30
0.0
 11
474.95832927860192
 21
-3.498691215899953
 31
0.0
  0
LINE
  8
DETAIL
  6
CONTINUOUS
 62
     5
 10
474.95832927860192
 20
-3.498691215899953
 30
0.0
 11
474.9299227094026
 21
-3.4947606317999771
 31
0.0
  0
LINE
  8
DETAIL
  6
CONTINUOUS
 62
     5
 10
474.9299227094026
 20
-3.4947606317999771
 30
0.0
 11
474.89432692410168
 21
-3.4882187690000142
 31
0.0
  0
LINE
  8
DETAIL
  6
CONTINUOUS
 62
     5
 10
474.89432692410168
 20
-3.4882187690000142
 30
0.0
 11
474.85163495330198
 21
-3.479034063299991
 31
0.0
  0
LINE
  8
DETAIL
  6
CONTINUOUS
 62
     5
 10
474.85163495330198
 20
-3.479034063299991
 30
0.0
 11
474.80193469970158
 21
-3.4671911944999469
 31
0.0
  0
LINE
  8
DETAIL
  6
CONTINUOUS
 62
     5
 10
474.80193469970158
 20
-3.4671911944999469
 30
0.0
 11
474.74540822500239
 21
-3.4526519524999908
 31
0.0
  0
LINE
  8
DETAIL
  6
CONTINUOUS
 62
     5
 10
474.74540822500239
 20
-3.4526519524999908
 30
0.0
 11
474.68228290800198
 21
-3.4353947458999978
 31
0.0
  0
LINE
  8
DETAIL
  6
CONTINUOUS
 62
     5
 10
474.68228290800198
 20
-3.4353947458999978
 30
0.0
 11
474.6127010784021
 21
-3.415354398099907
 31
0.0
  0
LINE
  8
DETAIL
  6
CONTINUOUS
 62
     5
 10
474.6127010784021
 20
-3.415354398099907
 30
0.0
 11
474.53679566040228
 21
-3.3924700479999501
 31
0.0
  0
LINE
  8
DETAIL
  6
CONTINUOUS
 62
     5
 10
474.53679566040228
 20
-3.3924700479999501
 30
0.0
 11
474.4548688888018
 21
-3.3667071583000729
 31
0.0
  0
LINE
  8
DETAIL
  6
CONTINUOUS
 62
     5
 10
474.4548688888018
 20
-3.3667071583000729
 30
0.0
 11
474.36726166380231
 21
-3.3380538118000231
 31
0.0
  0
LINE
  8
DETAIL
  6
CONTINUOUS
 62
     5
 10
474.36726166380231
 20
-3.3380538118000231
 30
0.0
 11
474.27418122740261
 21
-3.306381286700002
 31
0.0
  0
LINE
  8
DETAIL
  6
CONTINUOUS
 62
     5
 10
474.27418122740261
 20
-3.306381286700002
 30
0.0
 11
474.17584635360248
 21
-3.2715960831999382
 31
0.0
  0
LINE
  8
DETAIL
  6
CONTINUOUS
 62
     5
 10
474.17584635360248
 20
-3.2715960831999382
 30
0.0
 11
474.07261710950212
 21
-3.2335806178000439
 31
0.0
  0
LINE
  8
DETAIL
  6
CONTINUOUS
 62
     5
 10
474.07261710950212
 20
-3.2335806178000439
 30
0.0
 11
473.96484277130179
 21
-3.1922176011000829
 31
0.0
  0
LINE
  8
DETAIL
  6
CONTINUOUS
 62
     5
 10
473.96484277130179
 20
-3.1922176011000829
 30
0.0
 11
473.85290000250188
 21
-3.1474126511000118
 31
0.0
  0
LINE
  8
DETAIL
  6
CONTINUOUS
 62
     5
 10
473.85290000250188
 20
-3.1474126511000118
 30
0.0
 11
473.73719612330211
 21
-3.099098510100021
 31
0.0
  0
LINE
  8
DETAIL
  6
CONTINUOUS
 62
     5
 10
473.73719612330211
 20
-3.099098510100021
 30
0.0
 11
473.61809339290181
 21
-3.0470765154999531
 31
0.0
  0
LINE
  8
DETAIL
  6
CONTINUOUS
 62
     5
 10
473.61809339290181
 20
-3.0470765154999531
 30
0.0
 11
473.49593037140221
 21
-2.9911998238000019
 31
0.0
  0
LINE
  8
DETAIL
  6
CONTINUOUS
 62
     5
 10
473.49593037140221
 20
-2.9911998238000019
 30
0.0
 11
473.37124400500198
 21
-2.9312457205999181
 31
0.0
  0
LINE
  8
DETAIL
  6
CONTINUOUS
 62
     5
 10
473.37124400500198
 20
-2.9312457205999181
 30
0.0
 11
473.24453467880181
 21
-2.8670029713999838
 31
0.0
  0
LINE
  8
DETAIL
  6
CONTINUOUS
 62
     5
 10
473.24453467880181
 20
-2.8670029713999838
 30
0.0
 11
473.1163311313021
 21
-2.798290292799948
 31
0.0
  0
LINE
  8
DETAIL
  6
CONTINUOUS
 62
     5
 10
473.1163311313021
 20
-2.798290292799948
 30
0.0
 11
472.98710732740261
 21
-2.7249246086000771
 31
0.0
  0
LINE
  8
DETAIL
  6
CONTINUOUS
 62
     5
 10
472.98710732740261
 20
-2.7249246086000771
 30
0.0
 11
472.8575556288024
 21
-2.6467000618999919
 31
0.0
  0
LINE
  8
DETAIL
  6
CONTINUOUS
 62
     5
 10
472.8575556288024
 20
-2.6467000618999919
 30
0.0
 11
472.72842811920242
 21
-2.5633164101999451
 31
0.0
  0
LINE
  8
DETAIL
  6
CONTINUOUS
 62
     5
 10
472.72842811920242
 20
-2.5633164101999451
 30
0.0
 11
472.60000000000218
 21
-2.47487373420006
 31
0.0
  0
LINE
  8
DETAIL
  6
CONTINUOUS
 62
     5
 10
15.000000000001821
 20
8.6602540378000867
 30
0.0
 11
0.000000000001819
 21
17.320508075700101
 31
0.0
  0
LINE
  8
DETAIL
  6
CONTINUOUS
 62
     5
 10
116.0334672456019
 20
-70.071526468499883
 30
0.0
 11
114.3820066432026
 21
-68.420065866100003
 31
0.0
  0
LINE
  8
DETAIL
  6
CONTINUOUS
 62
     5
 10
-278.87449361179739
 20
310.69429876520007
 30
0.0
 11
-271.78707782749831
 21
303.60688298079998
 31
0.0
  0
LINE
  8
DETAIL
  6
CONTINUOUS
 62
     5
 10
310.69429876420241
 20
-278.87449361089989
 30
0.0
 11
108.9623994337025
 21
-77.142594280299946
 31
0.0
  0
LINE
  8
DETAIL
  6
CONTINUOUS
 62
     5
 10
104.0126519654022
 20
-91.991836685299944
 30
0.0
 11
99.062904497101954
 21
-87.042089216999912
 31
0.0
  0
LINE
  8
DETAIL
  6
CONTINUOUS
 62
     5
 10
15.000000000001821
 20
-8.6602540378999038
 30
0.0
 11
15.000000000001821
 21
8.6602540378000867
 31
0.0
  0
LINE
  8
DETAIL
  6
CONTINUOUS
 62
     5
 10
3.500000000001819
 20
-474.97944464910012
 30
0.0
 11
3.4997989747016618
 21
-474.98571878870001
 31
0.0
  0
LINE
  8
DETAIL
  6
CONTINUOUS
 62
     5
 10
3.4997989747016618
 20
-474.98571878870001
 30
0.0
 11
3.499195392102592
 21
-474.99085654930002
 31
0.0
  0
LINE
  8
DETAIL
  6
CONTINUOUS
 62
     5
 10
3.499195392102592
 20
-474.99085654930002
 30
0.0
 11
3.4981894554020978
 21
-474.99485537890001
 31
0.0
  0
LINE
  8
DETAIL
  6
CONTINUOUS
 62
     5
 10
3.4981894554020978
 20
-474.99485537890001
 30
0.0
 11
3.4967805546020831
 21
-474.9977130876
 31
0.0
  0
LINE
  8
DETAIL
  6
CONTINUOUS
 62
     5
 10
3.4967805546020831
 20
-474.9977130876
 30
0.0
 11
3.494968079502542
 21
-474.99942820880011
 31
0.0
  0
LINE
  8
DETAIL
  6
CONTINUOUS
 62
     5
 10
3.494968079502542
 20
-474.99942820880011
 30
0.0
 11
3.4927522334019159
 21
-475.0
 31
0.0
  0
LINE
  8
DETAIL
  6
CONTINUOUS
 62
     5
 10
-3.499999999998181
 20
-474.97944464909989
 30
0.0
 11
-3.4986912159974959
 21
-474.95832927869998
 31
0.0
  0
LINE
  8
DETAIL
  6
CONTINUOUS
 62
     5
 10
-3.4986912159974959
 20
-474.95832927869998
 30
0.0
 11
-3.4947606317973618
 21
-474.92992270949998
 31
0.0
  0
LINE
  8
DETAIL
  6
CONTINUOUS
 62
     5
 10
-3.4947606317973618
 20
-474.92992270949998
 30
0.0
 11
-3.4882187689972848
 21
-474.89432692420002
 31
0.0
  0
LINE
  8
DETAIL
  6
CONTINUOUS
 62
     5
 10
-3.4882187689972848
 20
-474.89432692420002
 30
0.0
 11
-3.4790340633981032
 21
-474.85163495329988
 31
0.0
  0
LINE
  8
DETAIL
  6
CONTINUOUS
 62
     5
 10
-3.4790340633981032
 20
-474.85163495329988
 30
0.0
 11
-3.467191194597945
 21
-474.80193469969993
 31
0.0
  0
LINE
  8
DETAIL
  6
CONTINUOUS
 62
     5
 10
-3.467191194597945
 20
-474.80193469969993
 30
0.0
 11
-3.4526519525979888
 21
-474.74540822499989
 31
0.0
  0
LINE
  8
DETAIL
  6
CONTINUOUS
 62
     5
 10
-3.4526519525979888
 20
-474.74540822499989
 30
0.0
 11
-3.4353947458976108
 21
-474.68228290809998
 31
0.0
  0
LINE
  8
DETAIL
  6
CONTINUOUS
 62
     5
 10
-3.4353947458976108
 20
-474.68228290809998
 30
0.0
 11
-3.4153543980983159
 21
-474.61270107839988
 31
0.0
  0
LINE
  8
DETAIL
  6
CONTINUOUS
 62
     5
 10
-3.4153543980983159
 20
-474.61270107839988
 30
0.0
 11
-3.392470047997449
 21
-474.53679566039978
 31
0.0
  0
LINE
  8
DETAIL
  6
CONTINUOUS
 62
     5
 10
-3.392470047997449
 20
-474.53679566039978
 30
0.0
 11
-3.3667071583977299
 21
-474.45486888879998
 31
0.0
  0
LINE
  8
DETAIL
  6
CONTINUOUS
 62
     5
 10
-3.3667071583977299
 20
-474.45486888879998
 30
0.0
 11
-3.3380538118981349
 21
-474.36726166379998
 31
0.0
  0
LINE
  8
DETAIL
  6
CONTINUOUS
 62
     5
 10
-3.3380538118981349
 20
-474.36726166379998
 30
0.0
 11
-3.306381286697615
 21
-474.27418122749992
 31
0.0
  0
LINE
  8
DETAIL
  6
CONTINUOUS
 62
     5
 10
-3.306381286697615
 20
-474.27418122749992
 30
0.0
 11
-3.271596083198347
 21
-474.17584635359992
 31
0.0
  0
LINE
  8
DETAIL
  6
CONTINUOUS
 62
     5
 10
-3.271596083198347
 20
-474.17584635359992
 30
0.0
 11
-3.233580617797998
 21
-474.07261710959978
 31
0.0
  0
LINE
  8
DETAIL
  6
CONTINUOUS
 62
     5
 10
-3.233580617797998
 20
-474.07261710959978
 30
0.0
 11
-3.1922176010975818
 21
-473.96484277139979
 31
0.0
  0
LINE
  8
DETAIL
  6
CONTINUOUS
 62
     5
 10
-3.1922176010975818
 20
-473.96484277139979
 30
0.0
 11
-3.1474126510975111
 21
-473.85290000250001
 31
0.0
  0
LINE
  8
DETAIL
  6
CONTINUOUS
 62
     5
 10
-3.1474126510975111
 20
-473.85290000250001
 30
0.0
 11
-3.0990985100979742
 21
-473.73719612339988
 31
0.0
  0
LINE
  8
DETAIL
  6
CONTINUOUS
 62
     5
 10
-3.0990985100979742
 20
-473.73719612339988
 30
0.0
 11
-3.047076515497793
 21
-473.61809339299998
 31
0.0
  0
LINE
  8
DETAIL
  6
CONTINUOUS
 62
     5
 10
-3.047076515497793
 20
-473.61809339299998
 30
0.0
 11
-2.991199823797615
 21
-473.49593037139988
 31
0.0
  0
LINE
  8
DETAIL
  6
CONTINUOUS
 62
     5
 10
-2.991199823797615
 20
-473.49593037139988
 30
0.0
 11
-2.9312457205978721
 21
-473.37124400499988
 31
0.0
  0
LINE
  8
DETAIL
  6
CONTINUOUS
 62
     5
 10
-2.9312457205978721
 20
-473.37124400499988
 30
0.0
 11
-2.8670029714976408
 21
-473.24453467879999
 31
0.0
  0
LINE
  8
DETAIL
  6
CONTINUOUS
 62
     5
 10
-2.8670029714976408
 20
-473.24453467879999
 30
0.0
 11
-2.7982902927979012
 21
-473.11633113139987
 31
0.0
  0
LINE
  8
DETAIL
  6
CONTINUOUS
 62
     5
 10
-2.7982902927979012
 20
-473.11633113139987
 30
0.0
 11
-2.724924608597576
 21
-472.98710732740011
 31
0.0
  0
LINE
  8
DETAIL
  6
CONTINUOUS
 62
     5
 10
-2.724924608597576
 20
-472.98710732740011
 30
0.0
 11
-2.6467000618977181
 21
-472.8575556287999
 31
0.0
  0
LINE
  8
DETAIL
  6
CONTINUOUS
 62
     5
 10
-2.6467000618977181
 20
-472.8575556287999
 30
0.0
 11
-2.5633164101973311
 21
-472.72842811929979
 31
0.0
  0
LINE
  8
DETAIL
  6
CONTINUOUS
 62
     5
 10
-2.5633164101973311
 20
-472.72842811929979
 30
0.0
 11
-2.474873734197899
 21
-472.59999999999991
 31
0.0
  0
LINE
  8
DETAIL
  6
CONTINUOUS
 62
     5
 10
475.00000000000182
 20
471.58212150069988
 30
0.0
 11
474.99618927600199
 21
471.57723343709989
 31
0.0
  0
LINE
  8
DETAIL
  6
CONTINUOUS
 62
     5
 10
474.99618927600199
 20
471.57723343709989
 30
0.0
 11
474.98477306330187
 21
471.57502571529989
 31
0.0
  0
LINE
  8
DETAIL
  6
CONTINUOUS
 62
     5
 10
474.98477306330187
 20
471.57502571529989
 30
0.0
 11
474.97948532400193
 21
471.57488509680002
 31
0.0
  0
LINE
  8
DETAIL
  6
CONTINUOUS
 62
     5
 10
63.707565437802259
 20
-109.6695062148999
 30
0.0
 11
69.456334394301848
 21
-103.9207372583999
 31
0.0
  0
LINE
  8
DETAIL
  6
CONTINUOUS
 62
     5
 10
83.966114474602364
 20
-92.599630777099932
 30
0.0
 11
84.464118449302077
 21
-92.166776800799994
 31
0.0
  0
LINE
  8
DETAIL
  6
CONTINUOUS
 62
     5
 10
84.464118449302077
 20
-92.166776800799994
 30
0.0
 11
84.979779182001948
 21
-91.755441930599886
 31
0.0
  0
LINE
  8
DETAIL
  6
CONTINUOUS
 62
     5
 10
84.979779182001948
 20
-91.755441930599886
 30
0.0
 11
85.513835974702488
 21
-91.365093358799996
 31
0.0
  0
LINE
  8
DETAIL
  6
CONTINUOUS
 62
     5
 10
85.513835974702488
 20
-91.365093358799996
 30
0.0
 11
86.064070921702296
 21
-90.997329508499874
 31
0.0
  0
LINE
  8
DETAIL
  6
CONTINUOUS
 62
     5
 10
86.064070921702296
 20
-90.997329508499874
 30
0.0
 11
86.628266117802013
 21
-90.653748802799868
 31
0.0
  0
LINE
  8
DETAIL
  6
CONTINUOUS
 62
     5
 10
86.628266117802013
 20
-90.653748802799868
 30
0.0
 11
87.207160864802063
 21
-90.333818434000008
 31
0.0
  0
LINE
  8
DETAIL
  6
CONTINUOUS
 62
     5
 10
87.207160864802063
 20
-90.333818434000008
 30
0.0
 11
87.563174071102367
 21
-90.145013835699956
 31
0.0
  0
LINE
  8
DETAIL
  6
CONTINUOUS
 62
     5
 10
87.563174071102367
 20
-90.145013835699956
 30
0.0
 11
87.929402403202403
 21
-89.960763541599945
 31
0.0
  0
LINE
  8
DETAIL
  6
CONTINUOUS
 62
     5
 10
87.929402403202403
 20
-89.960763541599945
 30
0.0
 11
88.30507549790218
 21
-89.781836418299903
 31
0.0
  0
LINE
  8
DETAIL
  6
CONTINUOUS
 62
     5
 10
88.30507549790218
 20
-89.781836418299903
 30
0.0
 11
88.692314356401766
 21
-89.607512373099894
 31
0.0
  0
LINE
  8
DETAIL
  6
CONTINUOUS
 62
     5
 10
88.692314356401766
 20
-89.607512373099894
 30
0.0
 11
89.092627741802062
 21
-89.437591968999982
 31
0.0
  0
LINE
  8
DETAIL
  6
CONTINUOUS
 62
     5
 10
89.092627741802062
 20
-89.437591968999982
 30
0.0
 11
89.507287104602256
 21
-89.272020238599907
 31
0.0
  0
LINE
  8
DETAIL
  6
CONTINUOUS
 62
     5
 10
89.507287104602256
 20
-89.272020238599907
 30
0.0
 11
89.937781168801848
 21
-89.110828889699974
 31
0.0
  0
LINE
  8
DETAIL
  6
CONTINUOUS
 62
     5
 10
89.937781168801848
 20
-89.110828889699974
 30
0.0
 11
90.385046222701931
 21
-88.954225305499904
 31
0.0
  0
LINE
  8
DETAIL
  6
CONTINUOUS
 62
     5
 10
90.385046222701931
 20
-88.954225305499904
 30
0.0
 11
90.850178971101741
 21
-88.802513770999894
 31
0.0
  0
LINE
  8
DETAIL
  6
CONTINUOUS
 62
     5
 10
90.850178971101741
 20
-88.802513770999894
 30
0.0
 11
91.334105463702144
 21
-88.655888896799979
 31
0.0
  0
LINE
  8
DETAIL
  6
CONTINUOUS
 62
     5
 10
91.334105463702144
 20
-88.655888896799979
 30
0.0
 11
91.838276517301892
 21
-88.514300117599987
 31
0.0
  0
LINE
  8
DETAIL
  6
CONTINUOUS
 62
     5
 10
91.838276517301892
 20
-88.514300117599987
 30
0.0
 11
92.361989408502268
 21
-88.379049480899866
 31
0.0
  0
LINE
  8
DETAIL
  6
CONTINUOUS
 62
     5
 10
-474.97944464909779
 20
-3.4999999999998859
 30
0.0
 11
-474.98571878869842
 21
-3.499798974799774
 31
0.0
  0
LINE
  8
DETAIL
  6
CONTINUOUS
 62
     5
 10
-474.98571878869842
 20
-3.499798974799774
 30
0.0
 11
-474.9908565493979
 21
-3.499195392099864
 31
0.0
  0
LINE
  8
DETAIL
  6
CONTINUOUS
 62
     5
 10
-474.9908565493979
 20
-3.499195392099864
 30
0.0
 11
-474.99485537889711
 21
-3.4981894554998689
 31
0.0
  0
LINE
  8
DETAIL
  6
CONTINUOUS
 62
     5
 10
-474.99485537889711
 20
-3.4981894554998689
 30
0.0
 11
-474.99771308759762
 21
-3.4967805546998529
 31
0.0
  0
LINE
  8
DETAIL
  6
CONTINUOUS
 62
     5
 10
-474.99771308759762
 20
-3.4967805546998529
 30
0.0
 11
-474.99942820879818
 21
-3.494968079599857
 31
0.0
  0
LINE
  8
DETAIL
  6
CONTINUOUS
 62
     5
 10
-474.99942820879818
 20
-3.494968079599857
 30
0.0
 11
-474.99999999999818
 21
-3.4927522334997998
 31
0.0
  0
LINE
  8
DETAIL
  6
CONTINUOUS
 62
     5
 10
-474.97944464909779
 20
3.5000000000001141
 30
0.0
 11
-474.95832927869822
 21
3.49869121590018
 31
0.0
  0
LINE
  8
DETAIL
  6
CONTINUOUS
 62
     5
 10
-474.95832927869822
 20
3.49869121590018
 30
0.0
 11
-474.92992270949799
 21
3.4947606318000912
 31
0.0
  0
LINE
  8
DETAIL
  6
CONTINUOUS
 62
     5
 10
-474.92992270949799
 20
3.4947606318000912
 30
0.0
 11
-474.89432692419808
 21
3.488218768900083
 31
0.0
  0
LINE
  8
DETAIL
  6
CONTINUOUS
 62
     5
 10
-474.89432692419808
 20
3.488218768900083
 30
0.0
 11
-474.85163495339748
 21
3.4790340633001051
 31
0.0
  0
LINE
  8
DETAIL
  6
CONTINUOUS
 62
     5
 10
-474.85163495339748
 20
3.4790340633001051
 30
0.0
 11
-474.80193469979821
 21
3.4671911945001739
 31
0.0
  0
LINE
  8
DETAIL
  6
CONTINUOUS
 62
     5
 10
-474.80193469979821
 20
3.4671911945001739
 30
0.0
 11
-474.74540822509789
 21
3.4526519525001049
 31
0.0
  0
LINE
  8
DETAIL
  6
CONTINUOUS
 62
     5
 10
-474.74540822509789
 20
3.4526519525001049
 30
0.0
 11
-474.68228290809839
 21
3.435394745800068
 31
0.0
  0
LINE
  8
DETAIL
  6
CONTINUOUS
 62
     5
 10
-474.68228290809839
 20
3.435394745800068
 30
0.0
 11
-474.61270107849748
 21
3.4153543981001349
 31
0.0
  0
LINE
  8
DETAIL
  6
CONTINUOUS
 62
     5
 10
-474.61270107849748
 20
3.4153543981001349
 30
0.0
 11
-474.53679566049777
 21
3.392470048000177
 31
0.0
  0
LINE
  8
DETAIL
  6
CONTINUOUS
 62
     5
 10
-474.53679566049777
 20
3.392470048000177
 30
0.0
 11
-474.45486888879822
 21
3.3667071583000729
 31
0.0
  0
LINE
  8
DETAIL
  6
CONTINUOUS
 62
     5
 10
-474.45486888879822
 20
3.3667071583000729
 30
0.0
 11
-474.36726166379782
 21
3.3380538118001368
 31
0.0
  0
LINE
  8
DETAIL
  6
CONTINUOUS
 62
     5
 10
-474.36726166379782
 20
3.3380538118001368
 30
0.0
 11
-474.2741812274981
 21
3.306381286700002
 31
0.0
  0
LINE
  8
DETAIL
  6
CONTINUOUS
 62
     5
 10
-474.2741812274981
 20
3.306381286700002
 30
0.0
 11
-474.17584635369809
 21
3.271596083100007
 31
0.0
  0
LINE
  8
DETAIL
  6
CONTINUOUS
 62
     5
 10
-474.17584635369809
 20
3.271596083100007
 30
0.0
 11
-474.07261710959762
 21
3.2335806177001132
 31
0.0
  0
LINE
  8
DETAIL
  6
CONTINUOUS
 62
     5
 10
-474.07261710959762
 20
3.2335806177001132
 30
0.0
 11
-473.96484277139712
 21
3.1922176011000829
 31
0.0
  0
LINE
  8
DETAIL
  6
CONTINUOUS
 62
     5
 10
-473.96484277139712
 20
3.1922176011000829
 30
0.0
 11
-473.85290000249819
 21
3.1474126511001259
 31
0.0
  0
LINE
  8
DETAIL
  6
CONTINUOUS
 62
     5
 10
-473.85290000249819
 20
3.1474126511001259
 30
0.0
 11
-473.73719612339761
 21
3.0990985100000898
 31
0.0
  0
LINE
  8
DETAIL
  6
CONTINUOUS
 62
     5
 10
-473.73719612339761
 20
3.0990985100000898
 30
0.0
 11
-473.61809339299822
 21
3.0470765155000659
 31
0.0
  0
LINE
  8
DETAIL
  6
CONTINUOUS
 62
     5
 10
-473.61809339299822
 20
3.0470765155000659
 30
0.0
 11
-473.49593037139772
 21
2.9911998238001161
 31
0.0
  0
LINE
  8
DETAIL
  6
CONTINUOUS
 62
     5
 10
-473.49593037139772
 20
2.9911998238001161
 30
0.0
 11
-473.37124400509771
 21
2.931245720600145
 31
0.0
  0
LINE
  8
DETAIL
  6
CONTINUOUS
 62
     5
 10
-473.37124400509771
 20
2.931245720600145
 30
0.0
 11
-473.24453467889822
 21
2.867002971400098
 31
0.0
  0
LINE
  8
DETAIL
  6
CONTINUOUS
 62
     5
 10
-473.24453467889822
 20
2.867002971400098
 30
0.0
 11
-473.11633113139749
 21
2.798290292700131
 31
0.0
  0
LINE
  8
DETAIL
  6
CONTINUOUS
 62
     5
 10
-473.11633113139749
 20
2.798290292700131
 30
0.0
 11
-472.98710732749811
 21
2.7249246086001899
 31
0.0
  0
LINE
  8
DETAIL
  6
CONTINUOUS
 62
     5
 10
-472.98710732749811
 20
2.7249246086001899
 30
0.0
 11
-472.85755562879791
 21
2.646700061900106
 31
0.0
  0
LINE
  8
DETAIL
  6
CONTINUOUS
 62
     5
 10
-472.85755562879791
 20
2.646700061900106
 30
0.0
 11
-472.72842811929792
 21
2.563316410100128
 31
0.0
  0
LINE
  8
DETAIL
  6
CONTINUOUS
 62
     5
 10
-472.72842811929792
 20
2.563316410100128
 30
0.0
 11
-472.59999999999758
 21
2.4748737341001288
 31
0.0
  0
LINE
  8
DETAIL
  6
CONTINUOUS
 62
     5
 10
-14.999999999998179
 20
-8.6602540378999038
 30
0.0
 11
0.000000000001819
 21
-17.32050807569988
 31
0.0
  0
LINE
  8
DETAIL
  6
CONTINUOUS
 62
     5
 10
93.052496857002552
 20
-93.052496856999937
 30
0.0
 11
97.465416367502257
 21
-97.465416367600042
 31
0.0
  0
LINE
  8
DETAIL
  6
CONTINUOUS
 62
     5
 10
87.042089216902241
 20
-99.062904497099908
 30
0.0
 11
91.991836685202543
 21
-104.0126519654999
 31
0.0
  0
LINE
  8
DETAIL
  6
CONTINUOUS
 62
     5
 10
-310.69429876429791
 20
278.87449361090012
 30
0.0
 11
-303.6081286819981
 21
271.78832352860007
 31
0.0
  0
LINE
  8
DETAIL
  6
CONTINUOUS
 62
     5
 10
278.87449361180188
 20
-310.69429876520007
 30
0.0
 11
77.142594280302546
 21
-108.9623994336999
 31
0.0
  0
LINE
  8
DETAIL
  6
CONTINUOUS
 62
     5
 10
70.071526468402226
 20
-116.03346724559989
 30
0.0
 11
63.707565437802259
 21
-109.6695062148999
 31
0.0
  0
LINE
  8
DETAIL
  6
CONTINUOUS
 62
     5
 10
-14.999999999998179
 20
8.6602540378000867
 30
0.0
 11
-14.999999999998179
 21
-8.6602540378999038
 31
0.0
  0
LINE
  8
DETAIL
  6
CONTINUOUS
 62
     5
 10
-3.499999999998181
 20
474.97944464910012
 30
0.0
 11
-3.4997989747980678
 21
474.98571878870013
 31
0.0
  0
LINE
  8
DETAIL
  6
CONTINUOUS
 62
     5
 10
-3.4997989747980678
 20
474.98571878870013
 30
0.0
 11
-3.499195392098045
 21
474.99085654930008
 31
0.0
  0
LINE
  8
DETAIL
  6
CONTINUOUS
 62
     5
 10
-3.499195392098045
 20
474.99085654930008
 30
0.0
 11
-3.4981894554975952
 21
474.99485537890001
 31
0.0
  0
LINE
  8
DETAIL
  6
CONTINUOUS
 62
     5
 10
-3.4981894554975952
 20
474.99485537890001
 30
0.0
 11
-3.4967805546975801
 21
474.9977130876
 31
0.0
  0
LINE
  8
DETAIL
  6
CONTINUOUS
 62
     5
 10
-3.4967805546975801
 20
474.9977130876
 30
0.0
 11
-3.494968079598038
 21
474.99942820880011
 31
0.0
  0
LINE
  8
DETAIL
  6
CONTINUOUS
 62
     5
 10
-3.494968079598038
 20
474.99942820880011
 30
0.0
 11
-3.4927522334974128
 21
475.0
 31
0.0
  0
LINE
  8
DETAIL
  6
CONTINUOUS
 62
     5
 10
3.500000000001819
 20
474.97944464910012
 30
0.0
 11
3.4986912159019989
 21
474.95832927869998
 31
0.0
  0
LINE
  8
DETAIL
  6
CONTINUOUS
 62
     5
 10
3.4986912159019989
 20
474.95832927869998
 30
0.0
 11
3.4947606317018649
 21
474.92992270949998
 31
0.0
  0
LINE
  8
DETAIL
  6
CONTINUOUS
 62
     5
 10
3.4947606317018649
 20
474.92992270949998
 30
0.0
 11
3.4882187689017878
 21
474.89432692409991
 31
0.0
  0
LINE
  8
DETAIL
  6
CONTINUOUS
 62
     5
 10
3.4882187689017878
 20
474.89432692409991
 30
0.0
 11
3.4790340633016972
 21
474.85163495329988
 31
0.0
  0
LINE
  8
DETAIL
  6
CONTINUOUS
 62
     5
 10
3.4790340633016972
 20
474.85163495329988
 30
0.0
 11
3.4671911945024481
 21
474.80193469969998
 31
0.0
  0
LINE
  8
DETAIL
  6
CONTINUOUS
 62
     5
 10
3.4671911945024481
 20
474.80193469969998
 30
0.0
 11
3.4526519525015829
 21
474.74540822500012
 31
0.0
  0
LINE
  8
DETAIL
  6
CONTINUOUS
 62
     5
 10
3.4526519525015829
 20
474.74540822500012
 30
0.0
 11
3.4353947458021139
 21
474.68228290809998
 31
0.0
  0
LINE
  8
DETAIL
  6
CONTINUOUS
 62
     5
 10
3.4353947458021139
 20
474.68228290809998
 30
0.0
 11
3.415354398001909
 21
474.61270107840011
 31
0.0
  0
LINE
  8
DETAIL
  6
CONTINUOUS
 62
     5
 10
3.415354398001909
 20
474.61270107840011
 30
0.0
 11
3.392470048001996
 21
474.5367956604
 31
0.0
  0
LINE
  8
DETAIL
  6
CONTINUOUS
 62
     5
 10
3.392470048001996
 20
474.5367956604
 30
0.0
 11
3.366707158302233
 21
474.45486888880009
 31
0.0
  0
LINE
  8
DETAIL
  6
CONTINUOUS
 62
     5
 10
3.366707158302233
 20
474.45486888880009
 30
0.0
 11
3.3380538118026379
 21
474.36726166379998
 31
0.0
  0
LINE
  8
DETAIL
  6
CONTINUOUS
 62
     5
 10
3.3380538118026379
 20
474.36726166379998
 30
0.0
 11
3.3063812866021181
 21
474.27418122750009
 31
0.0
  0
LINE
  8
DETAIL
  6
CONTINUOUS
 62
     5
 10
3.3063812866021181
 20
474.27418122750009
 30
0.0
 11
3.2715960831019402
 21
474.17584635359998
 31
0.0
  0
LINE
  8
DETAIL
  6
CONTINUOUS
 62
     5
 10
3.2715960831019402
 20
474.17584635359998
 30
0.0
 11
3.233580617702501
 21
474.07261710960012
 31
0.0
  0
LINE
  8
DETAIL
  6
CONTINUOUS
 62
     5
 10
3.233580617702501
 20
474.07261710960012
 30
0.0
 11
3.1922176011021288
 21
473.96484277130003
 31
0.0
  0
LINE
  8
DETAIL
  6
CONTINUOUS
 62
     5
 10
3.1922176011021288
 20
473.96484277130003
 30
0.0
 11
3.147412651102059
 21
473.85290000250012
 31
0.0
  0
LINE
  8
DETAIL
  6
CONTINUOUS
 62
     5
 10
3.147412651102059
 20
473.85290000250012
 30
0.0
 11
3.0990985100024768
 21
473.73719612340011
 31
0.0
  0
LINE
  8
DETAIL
  6
CONTINUOUS
 62
     5
 10
3.0990985100024768
 20
473.73719612340011
 30
0.0
 11
3.0470765154022961
 21
473.61809339299998
 31
0.0
  0
LINE
  8
DETAIL
  6
CONTINUOUS
 62
     5
 10
3.0470765154022961
 20
473.61809339299998
 30
0.0
 11
2.991199823802162
 21
473.49593037139988
 31
0.0
  0
LINE
  8
DETAIL
  6
CONTINUOUS
 62
     5
 10
2.991199823802162
 20
473.49593037139988
 30
0.0
 11
2.9312457206024192
 21
473.37124400500011
 31
0.0
  0
LINE
  8
DETAIL
  6
CONTINUOUS
 62
     5
 10
2.9312457206024192
 20
473.37124400500011
 30
0.0
 11
2.8670029714021439
 21
473.24453467879988
 31
0.0
  0
LINE
  8
DETAIL
  6
CONTINUOUS
 62
     5
 10
2.8670029714021439
 20
473.24453467879988
 30
0.0
 11
2.7982902927024038
 21
473.11633113130011
 31
0.0
  0
LINE
  8
DETAIL
  6
CONTINUOUS
 62
     5
 10
2.7982902927024038
 20
473.11633113130011
 30
0.0
 11
2.7249246085020791
 21
472.98710732740011
 31
0.0
  0
LINE
  8
DETAIL
  6
CONTINUOUS
 62
     5
 10
2.7249246085020791
 20
472.98710732740011
 30
0.0
 11
2.646700061902266
 21
472.85755562880013
 31
0.0
  0
LINE
  8
DETAIL
  6
CONTINUOUS
 62
     5
 10
2.646700061902266
 20
472.85755562880013
 30
0.0
 11
2.5633164101027428
 21
472.72842811930008
 31
0.0
  0
LINE
  8
DETAIL
  6
CONTINUOUS
 62
     5
 10
2.5633164101027428
 20
472.72842811930008
 30
0.0
 11
2.474873734102403
 21
472.60000000000008
 31
0.0
  0
LINE
  8
DETAIL
  6
CONTINUOUS
 62
     5
 10
-214.5433492244531
 20
-261.50636884472522
 30
0.0
 11
-230.85581223819739
 21
-278.18746251169989
 31
0.0
  0
LINE
  8
DETAIL
  6
CONTINUOUS
 62
     5
 10
-230.85581223819739
 20
-278.18746251169989
 30
0.0
 11
-234.78405187449789
 21
-282.20287242939997
 31
0.0
  0
LINE
  8
DETAIL
  6
CONTINUOUS
 62
     5
 10
-234.78405187449789
 20
-282.20287242939997
 30
0.0
 11
-238.71243379989761
 21
-286.21743818579989
 31
0.0
  0
LINE
  8
DETAIL
  6
CONTINUOUS
 62
     5
 10
-238.71243379989761
 20
-286.21743818579989
 30
0.0
 11
-240.61423516249761
 21
-288.15777944169992
 31
0.0
  0
LINE
  8
DETAIL
  6
CONTINUOUS
 62
     5
 10
-240.61423516249761
 20
-288.15777944169992
 30
0.0
 11
-242.53040767449789
 21
-290.10710559389997
 31
0.0
  0
LINE
  8
DETAIL
  6
CONTINUOUS
 62
     5
 10
-242.53040767449789
 20
-290.10710559389997
 30
0.0
 11
-244.4597289906979
 21
-292.06435502549988
 31
0.0
  0
LINE
  8
DETAIL
  6
CONTINUOUS
 62
     5
 10
-244.4597289906979
 20
-292.06435502549988
 30
0.0
 11
-246.40097676619831
 21
-294.02846611969989
 31
0.0
  0
LINE
  8
DETAIL
  6
CONTINUOUS
 62
     5
 10
-246.40097676619831
 20
-294.02846611969989
 30
0.0
 11
-248.35292865599791
 21
-295.99837725949982
 31
0.0
  0
LINE
  8
DETAIL
  6
CONTINUOUS
 62
     5
 10
-248.35292865599791
 20
-295.99837725949982
 30
0.0
 11
-250.31436231499811
 21
-297.97302682799989
 31
0.0
  0
LINE
  8
DETAIL
  6
CONTINUOUS
 62
     5
 10
-250.31436231499811
 20
-297.97302682799989
 30
0.0
 11
-252.2840553982978
 21
-299.95135320830002
 31
0.0
  0
LINE
  8
DETAIL
  6
CONTINUOUS
 62
     5
 10
-252.2840553982978
 20
-299.95135320830002
 30
0.0
 11
-254.26078556079759
 21
-301.93229478339993
 31
0.0
  0
LINE
  8
DETAIL
  6
CONTINUOUS
 62
     5
 10
-254.26078556079759
 20
-301.93229478339993
 30
0.0
 11
-256.24333045739792
 21
-303.91478993649991
 31
0.0
  0
LINE
  8
DETAIL
  6
CONTINUOUS
 62
     5
 10
-256.24333045739792
 20
-303.91478993649991
 30
0.0
 11
-258.2304677432976
 21
-305.89777705059993
 31
0.0
  0
LINE
  8
DETAIL
  6
CONTINUOUS
 62
     5
 10
-256.87299697829809
 20
-307.25269266330002
 30
0.0
 11
-259.34613537359752
 21
-309.72930043289972
 31
0.0
  0
LINE
  8
DETAIL
  6
CONTINUOUS
 62
     5
 10
-260.71106762509771
 20
-308.36771132080008
 30
0.0
 11
-261.79549780339772
 21
-309.44564348710003
 31
0.0
  0
LINE
  8
DETAIL
  6
CONTINUOUS
 62
     5
 10
-261.79549780339772
 20
-309.44564348710003
 30
0.0
 11
-262.8802779639982
 21
-310.52284410859988
 31
0.0
  0
LINE
  8
DETAIL
  6
CONTINUOUS
 62
     5
 10
-262.8802779639982
 20
-310.52284410859988
 30
0.0
 11
-263.96521110939739
 21
-311.59914209139998
 31
0.0
  0
LINE
  8
DETAIL
  6
CONTINUOUS
 62
     5
 10
-263.96521110939739
 20
-311.59914209139998
 30
0.0
 11
-265.05010024199782
 21
-312.67436634130001
 31
0.0
  0
LINE
  8
DETAIL
  6
CONTINUOUS
 62
     5
 10
-265.05010024199782
 20
-312.67436634130001
 30
0.0
 11
-266.13474836439769
 21
-313.74834576440009
 31
0.0
  0
LINE
  8
DETAIL
  6
CONTINUOUS
 62
     5
 10
-266.13474836439769
 20
-313.74834576440009
 30
0.0
 11
-267.21895847909769
 21
-314.82090926670008
 31
0.0
  0
LINE
  8
DETAIL
  6
CONTINUOUS
 62
     5
 10
-267.21895847909769
 20
-314.82090926670008
 30
0.0
 11
-268.30253358849768
 21
-315.89188575429972
 31
0.0
  0
LINE
  8
DETAIL
  6
CONTINUOUS
 62
     5
 10
-268.30253358849768
 20
-315.89188575429972
 30
0.0
 11
-269.38527669529788
 21
-316.96110413319991
 31
0.0
  0
LINE
  8
DETAIL
  6
CONTINUOUS
 62
     5
 10
-269.38527669529788
 20
-316.96110413319991
 30
0.0
 11
-270.46699080179769
 21
-318.02839330929987
 31
0.0
  0
LINE
  8
DETAIL
  6
CONTINUOUS
 62
     5
 10
-267.2223414682976
 20
-301.86778706849992
 30
0.0
 11
-268.35679830439761
 21
-302.99537468630001
 31
0.0
  0
LINE
  8
DETAIL
  6
CONTINUOUS
 62
     5
 10
-268.35679830439761
 20
-302.99537468630001
 30
0.0
 11
-269.49171230169759
 21
-304.12223488729978
 31
0.0
  0
LINE
  8
DETAIL
  6
CONTINUOUS
 62
     5
 10
-269.49171230169759
 20
-304.12223488729978
 30
0.0
 11
-270.62685482539842
 21
-305.24816879389982
 31
0.0
  0
LINE
  8
DETAIL
  6
CONTINUOUS
 62
     5
 10
-270.62685482539842
 20
-305.24816879389982
 30
0.0
 11
-271.76199724089838
 21
-306.37297752869989
 31
0.0
  0
LINE
  8
DETAIL
  6
CONTINUOUS
 62
     5
 10
-271.76199724089838
 20
-306.37297752869989
 30
0.0
 11
-272.89691091369792
 21
-307.49646221409989
 31
0.0
  0
LINE
  8
DETAIL
  6
CONTINUOUS
 62
     5
 10
-272.89691091369792
 20
-307.49646221409989
 30
0.0
 11
-274.03136720889779
 21
-308.61842397269987
 31
0.0
  0
LINE
  8
DETAIL
  6
CONTINUOUS
 62
     5
 10
-274.03136720889779
 20
-308.61842397269987
 30
0.0
 11
-275.1651374918975
 21
-309.73866392699972
 31
0.0
  0
LINE
  8
DETAIL
  6
CONTINUOUS
 62
     5
 10
-275.1651374918975
 20
-309.73866392699972
 30
0.0
 11
-276.29799312819802
 21
-310.85698319949972
 31
0.0
  0
LINE
  8
DETAIL
  6
CONTINUOUS
 62
     5
 10
-276.29799312819802
 20
-310.85698319949972
 30
0.0
 11
-277.42970548289759
 21
-311.97318291269988
 31
0.0
  0
LINE
  8
DETAIL
  6
CONTINUOUS
 62
     5
 10
471.58212150060263
 20
-475.0
 30
0.0
 11
471.57723343710222
 21
-474.99618927609998
 31
0.0
  0
LINE
  8
DETAIL
  6
CONTINUOUS
 62
     5
 10
471.57723343710222
 20
-474.99618927609998
 30
0.0
 11
471.57502571530222
 21
-474.98477306339998
 31
0.0
  0
LINE
  8
DETAIL
  6
CONTINUOUS
 62
     5
 10
471.57502571530222
 20
-474.98477306339998
 30
0.0
 11
471.57488509680189
 21
-474.97948532400011
 31
0.0
  0
LINE
  8
DETAIL
  6
CONTINUOUS
 62
     5
 10
-210.4706414081765
 20
-244.18304301593881
 30
0.0
 11
-236.48955109519829
 21
-270.79017412619982
 31
0.0
  0
LINE
  8
DETAIL
  6
CONTINUOUS
 62
     5
 10
-236.48955109519829
 20
-270.79017412619982
 30
0.0
 11
-240.8885725974979
 21
-275.28698867929972
 31
0.0
  0
LINE
  8
DETAIL
  6
CONTINUOUS
 62
     5
 10
-240.8885725974979
 20
-275.28698867929972
 30
0.0
 11
-245.2875662001978
 21
-279.78256181419982
 31
0.0
  0
LINE
  8
DETAIL
  6
CONTINUOUS
 62
     5
 10
-245.2875662001978
 20
-279.78256181419982
 30
0.0
 11
-247.00870723799741
 21
-281.53881095929972
 31
0.0
  0
LINE
  8
DETAIL
  6
CONTINUOUS
 62
     5
 10
-247.00870723799741
 20
-281.53881095929972
 30
0.0
 11
-248.74210741479769
 21
-283.30286757599998
 31
0.0
  0
LINE
  8
DETAIL
  6
CONTINUOUS
 62
     5
 10
-248.74210741479769
 20
-283.30286757599998
 30
0.0
 11
-250.4868419619979
 21
-285.07392725569991
 31
0.0
  0
LINE
  8
DETAIL
  6
CONTINUOUS
 62
     5
 10
-250.4868419619979
 20
-285.07392725569991
 30
0.0
 11
-252.24198611079831
 21
-286.85118558979991
 31
0.0
  0
LINE
  8
DETAIL
  6
CONTINUOUS
 62
     5
 10
-252.24198611079831
 20
-286.85118558979991
 30
0.0
 11
-254.00661509239751
 21
-288.63383816969991
 31
0.0
  0
LINE
  8
DETAIL
  6
CONTINUOUS
 62
     5
 10
-254.00661509239751
 20
-288.63383816969991
 30
0.0
 11
-255.77980413819751
 21
-290.42108058679992
 31
0.0
  0
LINE
  8
DETAIL
  6
CONTINUOUS
 62
     5
 10
-255.77980413819751
 20
-290.42108058679992
 30
0.0
 11
-257.56062847939762
 21
-292.21210843249992
 31
0.0
  0
LINE
  8
DETAIL
  6
CONTINUOUS
 62
     5
 10
-257.56062847939762
 20
-292.21210843249992
 30
0.0
 11
-259.34816334719739
 21
-294.00611729809992
 31
0.0
  0
LINE
  8
DETAIL
  6
CONTINUOUS
 62
     5
 10
-259.34816334719739
 20
-294.00611729809992
 30
0.0
 11
-261.14148397299778
 21
-295.8023027750998
 31
0.0
  0
LINE
  8
DETAIL
  6
CONTINUOUS
 62
     5
 10
-261.14148397299778
 20
-295.8023027750998
 30
0.0
 11
-262.93966558779812
 21
-297.59986045489973
 31
0.0
  0
LINE
  8
DETAIL
  6
CONTINUOUS
 62
     5
 10
-262.93966558779812
 20
-297.59986045489973
 30
0.0
 11
-264.74178342319738
 21
-299.39798592879993
 31
0.0
  0
LINE
  8
DETAIL
  6
CONTINUOUS
 62
     5
 10
-178.04950116889819
 20
-141.47851496369989
 30
0.0
 11
-180.52263956419759
 21
-143.95512273339989
 31
0.0
  0
LINE
  8
DETAIL
  6
CONTINUOUS
 62
     5
 10
-300.29319899749771
 20
-263.89369900830002
 30
0.0
 11
-302.76633739289809
 21
-266.37030677799987
 31
0.0
  0
LINE
  8
DETAIL
  6
CONTINUOUS
 62
     5
 10
-278.87449361179739
 20
-310.69429876519968
 30
0.0
 11
-268.63639954739762
 21
-300.45620470069991
 31
0.0
  0
LINE
  8
DETAIL
  6
CONTINUOUS
 62
     5
 10
-266.16130862349752
 20
-297.98111377689997
 30
0.0
 11
-209.82657094682651
 21
-241.64637610022899
 31
0.0
  0
LINE
  8
DETAIL
  6
CONTINUOUS
 62
     5
 10
310.69429876420241
 20
278.8744936109
 30
0.0
 11
303.60540524530188
 21
271.78560009199998
 31
0.0
  0
LINE
  8
DETAIL
  6
CONTINUOUS
 62
     5
 10
-310.69429876429791
 20
-278.87449361089972
 30
0.0
 11
-300.47827598589811
 21
-268.65847083249992
 31
0.0
  0
LINE
  8
DETAIL
  6
CONTINUOUS
 62
     5
 10
-298.00304271599731
 20
-266.18323756249998
 30
0.0
 11
-178.14880500899841
 21
-146.3289998555999
 31
0.0
  0
LINE
  8
DETAIL
  6
CONTINUOUS
 62
     5
 10
-175.6735771288977
 20
-143.85377197539989
 30
0.0
 11
-174.60062073781231
 21
-142.78081558434769
 31
0.0
  0
LINE
  8
DETAIL
  6
CONTINUOUS
 62
     5
 10
278.87449361180188
 20
310.69429876520007
 30
0.0
 11
271.78734874510229
 21
303.60715389849997
 31
0.0
  0
LINE
  8
DETAIL
  6
CONTINUOUS
 62
     5
 10
228.7642970264078
 20
260.58410217980611
 30
0.0
 11
77.810122505002255
 21
109.62992765840011
 31
0.0
  0
LINE
  8
DETAIL
  6
CONTINUOUS
 62
     5
 10
0.000000000001819
 20
-17.32050807569988
 30
0.0
 11
15.000000000001821
 21
-8.6602540378999038
 31
0.0
  0
LINE
  8
DETAIL
  6
CONTINUOUS
 62
     5
 10
92.361989409201669
 20
-88.379049480699905
 30
0.0
 11
92.929757144402174
 21
-88.230456709000009
 31
0.0
  0
LINE
  8
DETAIL
  6
CONTINUOUS
 62
     5
 10
92.929757144402174
 20
-88.230456709000009
 30
0.0
 11
93.489826676202028
 21
-88.064278834499873
 31
0.0
  0
LINE
  8
DETAIL
  6
CONTINUOUS
 62
     5
 10
93.489826676202028
 20
-88.064278834499873
 30
0.0
 11
94.042428390702298
 21
-87.881454489699991
 31
0.0
  0
LINE
  8
DETAIL
  6
CONTINUOUS
 62
     5
 10
94.042428390702298
 20
-87.881454489699991
 30
0.0
 11
94.587346579802215
 21
-87.680371740899872
 31
0.0
  0
LINE
  8
DETAIL
  6
CONTINUOUS
 62
     5
 10
94.587346579802215
 20
-87.680371740899872
 30
0.0
 11
95.125580000002628
 21
-87.459342134599993
 31
0.0
  0
LINE
  8
DETAIL
  6
CONTINUOUS
 62
     5
 10
95.125580000002628
 20
-87.459342134599993
 30
0.0
 11
95.653930528202181
 21
-87.219826374899981
 31
0.0
  0
LINE
  8
DETAIL
  6
CONTINUOUS
 62
     5
 10
95.653930528202181
 20
-87.219826374899981
 30
0.0
 11
96.170327507502407
 21
-86.962367298300023
 31
0.0
  0
LINE
  8
DETAIL
  6
CONTINUOUS
 62
     5
 10
96.170327507502407
 20
-86.962367298300023
 30
0.0
 11
96.673380078002083
 21
-86.688650108899992
 31
0.0
  0
LINE
  8
DETAIL
  6
CONTINUOUS
 62
     5
 10
96.673380078002083
 20
-86.688650108899992
 30
0.0
 11
97.158273544002441
 21
-86.402165213599915
 31
0.0
  0
LINE
  8
DETAIL
  6
CONTINUOUS
 62
     5
 10
97.158273544002441
 20
-86.402165213599915
 30
0.0
 11
97.633932204002122
 21
-86.098350257999883
 31
0.0
  0
LINE
  8
DETAIL
  6
CONTINUOUS
 62
     5
 10
97.633932204002122
 20
-86.098350257999883
 30
0.0
 11
98.103828535102366
 21
-85.776174635699945
 31
0.0
  0
LINE
  8
DETAIL
  6
CONTINUOUS
 62
     5
 10
98.103828535102366
 20
-85.776174635699945
 30
0.0
 11
98.577784975302166
 21
-85.427663550499901
 31
0.0
  0
LINE
  8
DETAIL
  6
CONTINUOUS
 62
     5
 10
98.577784975302166
 20
-85.427663550499901
 30
0.0
 11
99.065954183602088
 21
-85.044817463199934
 31
0.0
  0
LINE
  8
DETAIL
  6
CONTINUOUS
 62
     5
 10
99.065954183602088
 20
-85.044817463199934
 30
0.0
 11
99.568265962302576
 21
-84.625815002199943
 31
0.0
  0
LINE
  8
DETAIL
  6
CONTINUOUS
 62
     5
 10
99.568265962302576
 20
-84.625815002199943
 30
0.0
 11
100.0887644523018
 21
-84.165076947899934
 31
0.0
  0
LINE
  8
DETAIL
  6
CONTINUOUS
 62
     5
 10
100.0887644523018
 20
-84.165076947899934
 30
0.0
 11
100.62456413040221
 21
-83.666042390499911
 31
0.0
  0
LINE
  8
DETAIL
  6
CONTINUOUS
 62
     5
 10
100.62456413040221
 20
-83.666042390499911
 30
0.0
 11
101.17415990950209
 21
-83.128981015899967
 31
0.0
  0
LINE
  8
DETAIL
  6
CONTINUOUS
 62
     5
 10
101.17415990950209
 20
-83.128981015899967
 30
0.0
 11
101.7378845820022
 21
-82.558209381099914
 31
0.0
  0
LINE
  8
DETAIL
  6
CONTINUOUS
 62
     5
 10
101.7378845820022
 20
-82.558209381099914
 30
0.0
 11
102.3147152833016
 21
-81.957962553299922
 31
0.0
  0
LINE
  8
DETAIL
  6
CONTINUOUS
 62
     5
 10
102.3147152833016
 20
-81.957962553299922
 30
0.0
 11
102.90697866850221
 21
-81.328567864099924
 31
0.0
  0
LINE
  8
DETAIL
  6
CONTINUOUS
 62
     5
 10
102.90697866850221
 20
-81.328567864099924
 30
0.0
 11
103.5158953955024
 21
-80.672517788999926
 31
0.0
  0
LINE
  8
DETAIL
  6
CONTINUOUS
 62
     5
 10
103.5158953955024
 20
-80.672517788999926
 30
0.0
 11
104.142934366102
 21
-79.987370968799951
 31
0.0
  0
LINE
  8
DETAIL
  6
CONTINUOUS
 62
     5
 10
104.142934366102
 20
-79.987370968799951
 30
0.0
 11
104.7891469267024
 21
-79.272572879099926
 31
0.0
  0
LINE
  8
DETAIL
  6
CONTINUOUS
 62
     5
 10
104.7891469267024
 20
-79.272572879099926
 30
0.0
 11
105.4565497206023
 21
-78.525408235800001
 31
0.0
  0
LINE
  8
DETAIL
  6
CONTINUOUS
 62
     5
 10
105.4565497206023
 20
-78.525408235800001
 30
0.0
 11
106.1460752907023
 21
-77.744562078599984
 31
0.0
  0
LINE
  8
DETAIL
  6
CONTINUOUS
 62
     5
 10
106.1460752907023
 20
-77.744562078599984
 30
0.0
 11
106.8616568152019
 21
-76.926165978499967
 31
0.0
  0
LINE
  8
DETAIL
  6
CONTINUOUS
 62
     5
 10
106.8616568152019
 20
-76.926165978499967
 30
0.0
 11
107.6073670611022
 21
-76.065335540100008
 31
0.0
  0
LINE
  8
DETAIL
  6
CONTINUOUS
 62
     5
 10
107.6073670611022
 20
-76.065335540100008
 30
0.0
 11
108.3830079762019
 21
-75.165188147899926
 31
0.0
  0
LINE
  8
DETAIL
  6
CONTINUOUS
 62
     5
 10
108.3830079762019
 20
-75.165188147899926
 30
0.0
 11
109.19369031520181
 21
-74.221204574000012
 31
0.0
  0
LINE
  8
DETAIL
  6
CONTINUOUS
 62
     5
 10
109.19369031520181
 20
-74.221204574000012
 30
0.0
 11
110.0276375763023
 21
-73.252636088799932
 31
0.0
  0
LINE
  8
DETAIL
  6
CONTINUOUS
 62
     5
 10
110.0276375763023
 20
-73.252636088799932
 30
0.0
 11
110.8805475188019
 21
-72.269297133199984
 31
0.0
  0
LINE
  8
DETAIL
  6
CONTINUOUS
 62
     5
 10
110.8805475188019
 20
-72.269297133199984
 30
0.0
 11
111.7375918717016
 21
-71.293522328499989
 31
0.0
  0
LINE
  8
DETAIL
  6
CONTINUOUS
 62
     5
 10
111.7375918717016
 20
-71.293522328499989
 30
0.0
 11
112.5864864189026
 21
-70.345370947999854
 31
0.0
  0
LINE
  8
DETAIL
  6
CONTINUOUS
 62
     5
 10
112.5864864189026
 20
-70.345370947999854
 30
0.0
 11
113.41838729330171
 21
-69.436941732899982
 31
0.0
  0
LINE
  8
DETAIL
  6
CONTINUOUS
 62
     5
 10
113.41838729330171
 20
-69.436941732899982
 30
0.0
 11
114.3820066432026
 21
-68.420065866100003
 31
0.0
  0
LINE
  8
DETAIL
  6
CONTINUOUS
 62
     5
 10
-126.5961218619978
 20
1.2965734084001499
 30
0.0
 11
-126.3007229969981
 21
0.4577513759001022
 31
0.0
  0
LINE
  8
DETAIL
  6
CONTINUOUS
 62
     5
 10
-126.3007229969981
 20
0.4577513759001022
 30
0.0
 11
-126.0303650194974
 21
-0.3885589197998343
 31
0.0
  0
LINE
  8
DETAIL
  6
CONTINUOUS
 62
     5
 10
-126.0303650194974
 20
-0.3885589197998343
 30
0.0
 11
-125.78497340059771
 21
-1.242608755999868
 31
0.0
  0
LINE
  8
DETAIL
  6
CONTINUOUS
 62
     5
 10
-125.78497340059771
 20
-1.242608755999868
 30
0.0
 11
-125.5647717265974
 21
-2.1036443008998731
 31
0.0
  0
LINE
  8
DETAIL
  6
CONTINUOUS
 62
     5
 10
-125.5647717265974
 20
-2.1036443008998731
 30
0.0
 11
-125.3698818753974
 21
-2.9713339933998668
 31
0.0
  0
LINE
  8
DETAIL
  6
CONTINUOUS
 62
     5
 10
-125.3698818753974
 20
-2.9713339933998668
 30
0.0
 11
-125.2005344419977
 21
-3.8446622981999781
 31
0.0
  0
LINE
  8
DETAIL
  6
CONTINUOUS
 62
     5
 10
-125.2005344419977
 20
-3.8446622981999781
 30
0.0
 11
-125.0569597403983
 21
-4.7228957229998514
 31
0.0
  0
LINE
  8
DETAIL
  6
CONTINUOUS
 62
     5
 10
-125.0569597403983
 20
-4.7228957229998514
 30
0.0
 11
-124.9392804902982
 21
-5.6048565766999454
 31
0.0
  0
LINE
  8
DETAIL
  6
CONTINUOUS
 62
     5
 10
-124.9392804902982
 20
-5.6048565766999454
 30
0.0
 11
-124.8477211190975
 21
-6.4889448972999162
 31
0.0
  0
LINE
  8
DETAIL
  6
CONTINUOUS
 62
     5
 10
-124.8477211190975
 20
-6.4889448972999162
 30
0.0
 11
-124.78220681749831
 21
-7.375694005499895
 31
0.0
  0
LINE
  8
DETAIL
  6
CONTINUOUS
 62
     5
 10
-474.99999999999818
 20
-471.58212150069983
 30
0.0
 11
-474.9961892760976
 21
-471.57723343709972
 31
0.0
  0
LINE
  8
DETAIL
  6
CONTINUOUS
 62
     5
 10
-474.9961892760976
 20
-471.57723343709972
 30
0.0
 11
-474.98477306339828
 21
-471.57502571529989
 31
0.0
  0
LINE
  8
DETAIL
  6
CONTINUOUS
 62
     5
 10
-474.98477306339828
 20
-471.57502571529989
 30
0.0
 11
-474.97948532399732
 21
-471.57488509689989
 31
0.0
  0
LINE
  8
DETAIL
  6
CONTINUOUS
 62
     5
 10
70.071526468402226
 20
116.03346724559999
 30
0.0
 11
63.707565437802259
 21
109.6695062149
 31
0.0
  0
LINE
  8
DETAIL
  6
CONTINUOUS
 62
     5
 10
0.000000000001819
 20
17.320508075700101
 30
0.0
 11
-14.999999999998179
 21
8.6602540378000867
 31
0.0
  0
LINE
  8
DETAIL
  6
CONTINUOUS
 62
     5
 10
-122.1766898642973
 20
-26.41697284489987
 30
0.0
 11
-122.0508289350974
 21
-27.064686421899982
 31
0.0
  0
LINE
  8
DETAIL
  6
CONTINUOUS
 62
     5
 10
-122.0508289350974
 20
-27.064686421899982
 30
0.0
 11
-121.95243269219741
 21
-27.716930821399959
 31
0.0
  0
LINE
  8
DETAIL
  6
CONTINUOUS
 62
     5
 10
-121.95243269219741
 20
-27.716930821399959
 30
0.0
 11
-121.8814094210984
 21
-28.374612866099941
 31
0.0
  0
LINE
  8
DETAIL
  6
CONTINUOUS
 62
     5
 10
-121.8814094210984
 20
-28.374612866099941
 30
0.0
 11
-121.83803426529811
 21
-29.035012088199888
 31
0.0
  0
LINE
  8
DETAIL
  6
CONTINUOUS
 62
     5
 10
-121.83803426529811
 20
-29.035012088199888
 30
0.0
 11
-121.822582368498
 21
-29.695408020299961
 31
0.0
  0
LINE
  8
DETAIL
  6
CONTINUOUS
 62
     5
 10
-121.822582368498
 20
-29.695408020299961
 30
0.0
 11
-121.83496201619801
 21
-30.356707484899861
 31
0.0
  0
LINE
  8
DETAIL
  6
CONTINUOUS
 62
     5
 10
-176.82740639478129
 20
-147.64934579820451
 30
0.0
 11
-178.06187961849801
 21
-146.4158643584999
 31
0.0
  0
LINE
  8
DETAIL
  6
CONTINUOUS
 62
     5
 10
-175.2781962251712
 20
-144.24960318250569
 30
0.0
 11
-176.69186312099831
 21
-142.83683946490001
 31
0.0
  0
LINE
  8
DETAIL
  6
CONTINUOUS
 62
     5
 10
-178.06187961849801
 20
-146.4158643584999
 30
0.0
 11
-179.16500151639781
 21
-145.31344723459981
 31
0.0
  0
LINE
  8
DETAIL
  6
CONTINUOUS
 62
     5
 10
-176.69186312099831
 20
-142.83683946490001
 30
0.0
 11
-177.93143487449839
 21
-141.59719346139991
 31
0.0
  0
LINE
  8
DETAIL
  6
CONTINUOUS
 62
     5
 10
-177.93143487449839
 20
-141.59719346139991
 30
0.0
 11
-178.03069191199759
 21
-141.49760818269991
 31
0.0
  0
LINE
  8
DETAIL
  6
CONTINUOUS
 62
     5
 10
-178.03069191199759
 20
-141.49760818269991
 30
0.0
 11
-178.04945317609781
 21
-141.47856288930001
 31
0.0
  0
LINE
  8
DETAIL
  6
CONTINUOUS
 62
     5
 10
-179.16500151639781
 20
-145.31344723459981
 30
0.0
 11
-180.40457326989781
 21
-144.07380123109999
 31
0.0
  0
LINE
  8
DETAIL
  6
CONTINUOUS
 62
     5
 10
-180.40457326989781
 20
-144.07380123109999
 30
0.0
 11
-180.5038303072979
 21
-143.97421595239999
 31
0.0
  0
LINE
  8
DETAIL
  6
CONTINUOUS
 62
     5
 10
-180.5038303072979
 20
-143.97421595239999
 30
0.0
 11
-180.52259157139821
 21
-143.95517065899989
 31
0.0
  0
LINE
  8
DETAIL
  6
CONTINUOUS
 62
     5
 10
2.474873734102403
 20
-472.60000000000002
 30
0.0
 11
2.5633164101027428
 21
-472.72842811930002
 31
0.0
  0
LINE
  8
DETAIL
  6
CONTINUOUS
 62
     5
 10
2.5633164101027428
 20
-472.72842811930002
 30
0.0
 11
2.646700061902266
 21
-472.85755562880013
 31
0.0
  0
LINE
  8
DETAIL
  6
CONTINUOUS
 62
     5
 10
2.646700061902266
 20
-472.85755562880013
 30
0.0
 11
2.7249246085020791
 21
-472.98710732740011
 31
0.0
  0
LINE
  8
DETAIL
  6
CONTINUOUS
 62
     5
 10
2.7249246085020791
 20
-472.98710732740011
 30
0.0
 11
2.7982902927024038
 21
-473.11633113139999
 31
0.0
  0
LINE
  8
DETAIL
  6
CONTINUOUS
 62
     5
 10
2.7982902927024038
 20
-473.11633113139999
 30
0.0
 11
2.8670029714021439
 21
-473.24453467880011
 31
0.0
  0
LINE
  8
DETAIL
  6
CONTINUOUS
 62
     5
 10
2.8670029714021439
 20
-473.24453467880011
 30
0.0
 11
2.9312457206024192
 21
-473.37124400500011
 31
0.0
  0
LINE
  8
DETAIL
  6
CONTINUOUS
 62
     5
 10
2.9312457206024192
 20
-473.37124400500011
 30
0.0
 11
2.991199823802162
 21
-473.49593037139988
 31
0.0
  0
LINE
  8
DETAIL
  6
CONTINUOUS
 62
     5
 10
2.991199823802162
 20
-473.49593037139988
 30
0.0
 11
3.0470765154022961
 21
-473.61809339299998
 31
0.0
  0
LINE
  8
DETAIL
  6
CONTINUOUS
 62
     5
 10
3.0470765154022961
 20
-473.61809339299998
 30
0.0
 11
3.0990985100024768
 21
-473.73719612339988
 31
0.0
  0
LINE
  8
DETAIL
  6
CONTINUOUS
 62
     5
 10
3.0990985100024768
 20
-473.73719612339988
 30
0.0
 11
3.147412651102059
 21
-473.85290000250012
 31
0.0
  0
LINE
  8
DETAIL
  6
CONTINUOUS
 62
     5
 10
3.147412651102059
 20
-473.85290000250012
 30
0.0
 11
3.1922176011021288
 21
-473.96484277140007
 31
0.0
  0
LINE
  8
DETAIL
  6
CONTINUOUS
 62
     5
 10
3.1922176011021288
 20
-473.96484277140007
 30
0.0
 11
3.233580617702501
 21
-474.07261710959978
 31
0.0
  0
LINE
  8
DETAIL
  6
CONTINUOUS
 62
     5
 10
3.233580617702501
 20
-474.07261710959978
 30
0.0
 11
3.2715960831019402
 21
-474.17584635359998
 31
0.0
  0
LINE
  8
DETAIL
  6
CONTINUOUS
 62
     5
 10
3.2715960831019402
 20
-474.17584635359998
 30
0.0
 11
3.3063812866021181
 21
-474.27418122749998
 31
0.0
  0
LINE
  8
DETAIL
  6
CONTINUOUS
 62
     5
 10
3.3063812866021181
 20
-474.27418122749998
 30
0.0
 11
3.3380538118026379
 21
-474.36726166379998
 31
0.0
  0
LINE
  8
DETAIL
  6
CONTINUOUS
 62
     5
 10
3.3380538118026379
 20
-474.36726166379998
 30
0.0
 11
3.366707158302233
 21
-474.45486888879998
 31
0.0
  0
LINE
  8
DETAIL
  6
CONTINUOUS
 62
     5
 10
3.366707158302233
 20
-474.45486888879998
 30
0.0
 11
3.392470048001996
 21
-474.5367956604
 31
0.0
  0
LINE
  8
DETAIL
  6
CONTINUOUS
 62
     5
 10
3.392470048001996
 20
-474.5367956604
 30
0.0
 11
3.415354398001909
 21
-474.61270107839988
 31
0.0
  0
LINE
  8
DETAIL
  6
CONTINUOUS
 62
     5
 10
3.415354398001909
 20
-474.61270107839988
 30
0.0
 11
3.4353947458021139
 21
-474.68228290809998
 31
0.0
  0
LINE
  8
DETAIL
  6
CONTINUOUS
 62
     5
 10
3.4353947458021139
 20
-474.68228290809998
 30
0.0
 11
3.4526519525015829
 21
-474.74540822500012
 31
0.0
  0
LINE
  8
DETAIL
  6
CONTINUOUS
 62
     5
 10
3.4526519525015829
 20
-474.74540822500012
 30
0.0
 11
3.4671911945024481
 21
-474.80193469969998
 31
0.0
  0
LINE
  8
DETAIL
  6
CONTINUOUS
 62
     5
 10
3.4671911945024481
 20
-474.80193469969998
 30
0.0
 11
3.4790340633016972
 21
-474.85163495329988
 31
0.0
  0
LINE
  8
DETAIL
  6
CONTINUOUS
 62
     5
 10
3.4790340633016972
 20
-474.85163495329988
 30
0.0
 11
3.4882187689017878
 21
-474.89432692420002
 31
0.0
  0
LINE
  8
DETAIL
  6
CONTINUOUS
 62
     5
 10
3.4882187689017878
 20
-474.89432692420002
 30
0.0
 11
3.4947606317018649
 21
-474.92992270949998
 31
0.0
  0
LINE
  8
DETAIL
  6
CONTINUOUS
 62
     5
 10
3.4947606317018649
 20
-474.92992270949998
 30
0.0
 11
3.4986912159019989
 21
-474.95832927869998
 31
0.0
  0
LINE
  8
DETAIL
  6
CONTINUOUS
 62
     5
 10
3.4986912159019989
 20
-474.95832927869998
 30
0.0
 11
3.500000000001819
 21
-474.97944464910012
 31
0.0
  0
LINE
  8
DETAIL
  6
CONTINUOUS
 62
     5
 10
-472.59999999999758
 20
-2.4748737341999458
 30
0.0
 11
-472.72842811929792
 21
-2.5633164101998318
 31
0.0
  0
LINE
  8
DETAIL
  6
CONTINUOUS
 62
     5
 10
-472.72842811929792
 20
-2.5633164101998318
 30
0.0
 11
-472.85755562879791
 21
-2.6467000618999919
 31
0.0
  0
LINE
  8
DETAIL
  6
CONTINUOUS
 62
     5
 10
-472.85755562879791
 20
-2.6467000618999919
 30
0.0
 11
-472.98710732749811
 21
-2.724924608599963
 31
0.0
  0
LINE
  8
DETAIL
  6
CONTINUOUS
 62
     5
 10
-472.98710732749811
 20
-2.724924608599963
 30
0.0
 11
-473.11633113139749
 21
-2.798290292799948
 31
0.0
  0
LINE
  8
DETAIL
  6
CONTINUOUS
 62
     5
 10
-473.11633113139749
 20
-2.798290292799948
 30
0.0
 11
-473.24453467889822
 21
-2.8670029713998701
 31
0.0
  0
LINE
  8
DETAIL
  6
CONTINUOUS
 62
     5
 10
-473.24453467889822
 20
-2.8670029713998701
 30
0.0
 11
-473.37124400509771
 21
-2.9312457205998039
 31
0.0
  0
LINE
  8
DETAIL
  6
CONTINUOUS
 62
     5
 10
-473.37124400509771
 20
-2.9312457205998039
 30
0.0
 11
-473.49593037139772
 21
-2.9911998237998891
 31
0.0
  0
LINE
  8
DETAIL
  6
CONTINUOUS
 62
     5
 10
-473.49593037139772
 20
-2.9911998237998891
 30
0.0
 11
-473.61809339299822
 21
-3.0470765154998389
 31
0.0
  0
LINE
  8
DETAIL
  6
CONTINUOUS
 62
     5
 10
-473.61809339299822
 20
-3.0470765154998389
 30
0.0
 11
-473.73719612339761
 21
-3.0990985100999069
 31
0.0
  0
LINE
  8
DETAIL
  6
CONTINUOUS
 62
     5
 10
-473.73719612339761
 20
-3.0990985100999069
 30
0.0
 11
-473.85290000249819
 21
-3.147412651099899
 31
0.0
  0
LINE
  8
DETAIL
  6
CONTINUOUS
 62
     5
 10
-473.85290000249819
 20
-3.147412651099899
 30
0.0
 11
-473.96484277139712
 21
-3.192217601099856
 31
0.0
  0
LINE
  8
DETAIL
  6
CONTINUOUS
 62
     5
 10
-473.96484277139712
 20
-3.192217601099856
 30
0.0
 11
-474.07261710959762
 21
-3.233580617799817
 31
0.0
  0
LINE
  8
DETAIL
  6
CONTINUOUS
 62
     5
 10
-474.07261710959762
 20
-3.233580617799817
 30
0.0
 11
-474.17584635369809
 21
-3.271596083199825
 31
0.0
  0
LINE
  8
DETAIL
  6
CONTINUOUS
 62
     5
 10
-474.17584635369809
 20
-3.271596083199825
 30
0.0
 11
-474.2741812274981
 21
-3.3063812866998892
 31
0.0
  0
LINE
  8
DETAIL
  6
CONTINUOUS
 62
     5
 10
-474.2741812274981
 20
-3.3063812866998892
 30
0.0
 11
-474.36726166379782
 21
-3.338053811799909
 31
0.0
  0
LINE
  8
DETAIL
  6
CONTINUOUS
 62
     5
 10
-474.36726166379782
 20
-3.338053811799909
 30
0.0
 11
-474.45486888879822
 21
-3.3667071582999601
 31
0.0
  0
LINE
  8
DETAIL
  6
CONTINUOUS
 62
     5
 10
-474.45486888879822
 20
-3.3667071582999601
 30
0.0
 11
-474.53679566049777
 21
-3.392470047999836
 31
0.0
  0
LINE
  8
DETAIL
  6
CONTINUOUS
 62
     5
 10
-474.53679566049777
 20
-3.392470047999836
 30
0.0
 11
-474.61270107849748
 21
-3.415354398099907
 31
0.0
  0
LINE
  8
DETAIL
  6
CONTINUOUS
 62
     5
 10
-474.61270107849748
 20
-3.415354398099907
 30
0.0
 11
-474.68228290809839
 21
-3.435394745899885
 31
0.0
  0
LINE
  8
DETAIL
  6
CONTINUOUS
 62
     5
 10
-474.68228290809839
 20
-3.435394745899885
 30
0.0
 11
-474.74540822509789
 21
-3.452651952499878
 31
0.0
  0
LINE
  8
DETAIL
  6
CONTINUOUS
 62
     5
 10
-474.74540822509789
 20
-3.452651952499878
 30
0.0
 11
-474.80193469979821
 21
-3.4671911944999469
 31
0.0
  0
LINE
  8
DETAIL
  6
CONTINUOUS
 62
     5
 10
-474.80193469979821
 20
-3.4671911944999469
 30
0.0
 11
-474.85163495339748
 21
-3.479034063299991
 31
0.0
  0
LINE
  8
DETAIL
  6
CONTINUOUS
 62
     5
 10
-474.85163495339748
 20
-3.479034063299991
 30
0.0
 11
-474.89432692419808
 21
-3.4882187689999
 31
0.0
  0
LINE
  8
DETAIL
  6
CONTINUOUS
 62
     5
 10
-474.89432692419808
 20
-3.4882187689999
 30
0.0
 11
-474.92992270949799
 21
-3.494760631799863
 31
0.0
  0
LINE
  8
DETAIL
  6
CONTINUOUS
 62
     5
 10
-474.92992270949799
 20
-3.494760631799863
 30
0.0
 11
-474.95832927869822
 21
-3.4986912158998389
 31
0.0
  0
LINE
  8
DETAIL
  6
CONTINUOUS
 62
     5
 10
-474.95832927869822
 20
-3.4986912158998389
 30
0.0
 11
-474.97944464909779
 21
-3.4999999999998859
 31
0.0
  0
LINE
  8
DETAIL
  6
CONTINUOUS
 62
     5
 10
-256.87315490289791
 20
-307.25253495989989
 30
0.0
 11
-258.75413903149729
 21
-305.37579039039969
 31
0.0
  0
LINE
  8
DETAIL
  6
CONTINUOUS
 62
     5
 10
-259.34629329819751
 20
-309.72914272959969
 30
0.0
 11
-261.22727742689761
 21
-307.85239816000001
 31
0.0
  0
LINE
  8
DETAIL
  6
CONTINUOUS
 62
     5
 10
-258.75413903149729
 20
-305.37579039039969
 30
0.0
 11
-275.0520492932983
 21
-289.10577823539973
 31
0.0
  0
LINE
  8
DETAIL
  6
CONTINUOUS
 62
     5
 10
-275.0520492932983
 20
-289.10577823539973
 30
0.0
 11
-283.6073639085979
 21
-280.56296038519991
 31
0.0
  0
LINE
  8
DETAIL
  6
CONTINUOUS
 62
     5
 10
-261.22727742689761
 20
-307.85239816000001
 30
0.0
 11
-277.52518768859773
 21
-291.58238600509992
 31
0.0
  0
LINE
  8
DETAIL
  6
CONTINUOUS
 62
     5
 10
-277.52518768859773
 20
-291.58238600509992
 30
0.0
 11
-286.08050230399738
 21
-283.0395681549
 31
0.0
  0
LINE
  8
DETAIL
  6
CONTINUOUS
 62
     5
 10
-283.6073639085979
 20
-280.56296038519991
 30
0.0
 11
-291.82209590569801
 21
-272.35870462979989
 31
0.0
  0
LINE
  8
DETAIL
  6
CONTINUOUS
 62
     5
 10
-286.08050230399738
 20
-283.0395681549
 30
0.0
 11
-294.29523430109748
 21
-274.83531239949991
 31
0.0
  0
LINE
  8
DETAIL
  6
CONTINUOUS
 62
     5
 10
-291.82209590569801
 20
-272.35870462979989
 30
0.0
 11
-297.16804463489711
 21
-267.01830127139988
 31
0.0
  0
LINE
  8
DETAIL
  6
CONTINUOUS
 62
     5
 10
-297.16804463489711
 20
-267.01830127139988
 30
0.0
 11
-297.83243905179819
 21
-266.35444063339992
 31
0.0
  0
LINE
  8
DETAIL
  6
CONTINUOUS
 62
     5
 10
-294.29523430109748
 20
-274.83531239949991
 30
0.0
 11
-299.64118303029773
 21
-269.4949090410999
 31
0.0
  0
LINE
  8
DETAIL
  6
CONTINUOUS
 62
     5
 10
-299.64118303029773
 20
-269.4949090410999
 30
0.0
 11
-300.30557744719772
 21
-268.83104840309989
 31
0.0
  0
LINE
  8
DETAIL
  6
CONTINUOUS
 62
     5
 10
-297.83243905179819
 20
-266.35444063339992
 30
0.0
 11
-298.93556094959791
 21
-265.25202350949991
 31
0.0
  0
LINE
  8
DETAIL
  6
CONTINUOUS
 62
     5
 10
-300.30557744719772
 20
-268.83104840309989
 30
0.0
 11
-301.40869934499722
 21
-267.72863127919987
 31
0.0
  0
LINE
  8
DETAIL
  6
CONTINUOUS
 62
     5
 10
-298.93556094959791
 20
-265.25202350949991
 30
0.0
 11
-300.17513270319802
 21
-264.01237750600001
 31
0.0
  0
LINE
  8
DETAIL
  6
CONTINUOUS
 62
     5
 10
-300.17513270319802
 20
-264.01237750600001
 30
0.0
 11
-300.27438974059811
 21
-263.9127922272998
 31
0.0
  0
LINE
  8
DETAIL
  6
CONTINUOUS
 62
     5
 10
-300.27438974059811
 20
-263.9127922272998
 30
0.0
 11
-300.29315100469728
 21
-263.89374693389988
 31
0.0
  0
LINE
  8
DETAIL
  6
CONTINUOUS
 62
     5
 10
-301.40869934499722
 20
-267.72863127919987
 30
0.0
 11
-302.64827109859738
 21
-266.48898527559987
 31
0.0
  0
LINE
  8
DETAIL
  6
CONTINUOUS
 62
     5
 10
-302.64827109859738
 20
-266.48898527559987
 30
0.0
 11
-302.74752813599741
 21
-266.38939999699988
 31
0.0
  0
LINE
  8
DETAIL
  6
CONTINUOUS
 62
     5
 10
-302.74752813599741
 20
-266.38939999699988
 30
0.0
 11
-302.76628940009778
 21
-266.37035470360001
 31
0.0
  0
LINE
  8
DETAIL
  6
CONTINUOUS
 62
     5
 10
473.800000000002
 20
-473.80000000000001
 30
0.0
 11
475.00000000000182
 21
-473.80000000000001
 31
0.0
  0
LINE
  8
DETAIL
  6
CONTINUOUS
 62
     5
 10
473.800000000002
 20
-473.80000000000001
 30
0.0
 11
471.94958628700181
 21
-473.80000000000001
 31
0.0
  0
LINE
  8
DETAIL
  6
CONTINUOUS
 62
     5
 10
3.1253233469024049
 20
-473.80000000000001
 30
0.0
 11
-3.1253233469979018
 21
-473.79999999999978
 31
0.0
  0
LINE
  8
DETAIL
  6
CONTINUOUS
 62
     5
 10
-471.9495862870981
 20
-473.79999999999978
 30
0.0
 11
-473.79999999999831
 21
-473.79999999999978
 31
0.0
  0
LINE
  8
DETAIL
  6
CONTINUOUS
 62
     5
 10
-473.79999999999831
 20
-473.79999999999978
 30
0.0
 11
-474.99999999999818
 21
-473.79999999999978
 31
0.0
  0
LINE
  8
DETAIL
  6
CONTINUOUS
 62
     5
 10
471.58212150070273
 20
-475.0
 30
0.0
 11
3.4927522334019159
 21
-475.0
 31
0.0
  0
LINE
  8
DETAIL
  6
CONTINUOUS
 62
     5
 10
473.800000000002
 20
-475.0
 30
0.0
 11
471.58212150070273
 21
-475.0
 31
0.0
  0
LINE
  8
DETAIL
  6
CONTINUOUS
 62
     5
 10
-3.4927522334974128
 20
-475.0
 30
0.0
 11
-471.58212150069812
 21
-475.0
 31
0.0
  0
LINE
  8
DETAIL
  6
CONTINUOUS
 62
     5
 10
3.4927522334019159
 20
-475.0
 30
0.0
 11
-3.4927522334974128
 21
-475.0
 31
0.0
  0
LINE
  8
DETAIL
  6
CONTINUOUS
 62
     5
 10
-471.58212150069812
 20
-475.0
 30
0.0
 11
-473.79999999999831
 21
-475.0
 31
0.0
  0
LINE
  8
DETAIL
  6
CONTINUOUS
 62
     5
 10
474.97948532400193
 20
-471.5748850969
 30
0.0
 11
474.98477306330187
 21
-471.57502571529989
 31
0.0
  0
LINE
  8
DETAIL
  6
CONTINUOUS
 62
     5
 10
474.98477306330187
 20
-471.57502571529989
 30
0.0
 11
474.99618927600199
 21
-471.57723343709989
 31
0.0
  0
LINE
  8
DETAIL
  6
CONTINUOUS
 62
     5
 10
474.99618927600199
 20
-471.57723343709989
 30
0.0
 11
475.00000000000182
 21
-471.58212150069988
 31
0.0
  0
LINE
  8
DETAIL
  6
CONTINUOUS
 62
     5
 10
-474.97948532399732
 20
-471.57488509689989
 30
0.0
 11
-474.96579584689789
 21
-471.57549706229958
 31
0.0
  0
LINE
  8
DETAIL
  6
CONTINUOUS
 62
     5
 10
-474.96579584689789
 20
-471.57549706229958
 30
0.0
 11
-474.93931612999762
 21
-471.57865129709978
 31
0.0
  0
LINE
  8
DETAIL
  6
CONTINUOUS
 62
     5
 10
-474.93931612999762
 20
-471.57865129709978
 30
0.0
 11
-474.90540323929758
 21
-471.58448180259973
 31
0.0
  0
LINE
  8
DETAIL
  6
CONTINUOUS
 62
     5
 10
-474.90540323929758
 20
-471.58448180259973
 30
0.0
 11
-474.86417270229782
 21
-471.59301861459983
 31
0.0
  0
LINE
  8
DETAIL
  6
CONTINUOUS
 62
     5
 10
-474.86417270229782
 20
-471.59301861459983
 30
0.0
 11
-474.81577764329711
 21
-471.60427357929979
 31
0.0
  0
LINE
  8
DETAIL
  6
CONTINUOUS
 62
     5
 10
-474.81577764329711
 20
-471.60427357929979
 30
0.0
 11
-474.76034329379769
 21
-471.61829464819982
 31
0.0
  0
LINE
  8
DETAIL
  6
CONTINUOUS
 62
     5
 10
-474.76034329379769
 20
-471.61829464819982
 30
0.0
 11
-474.69799005749792
 21
-471.63512653179993
 31
0.0
  0
LINE
  8
DETAIL
  6
CONTINUOUS
 62
     5
 10
-474.69799005749792
 20
-471.63512653179993
 30
0.0
 11
-474.62895915899759
 21
-471.65479079890002
 31
0.0
  0
LINE
  8
DETAIL
  6
CONTINUOUS
 62
     5
 10
-474.62895915899759
 20
-471.65479079890002
 30
0.0
 11
-474.55354279219779
 21
-471.67729046810001
 31
0.0
  0
LINE
  8
DETAIL
  6
CONTINUOUS
 62
     5
 10
-474.55354279219779
 20
-471.67729046810001
 30
0.0
 11
-474.47190977529772
 21
-471.70272590109988
 31
0.0
  0
LINE
  8
DETAIL
  6
CONTINUOUS
 62
     5
 10
-474.47190977529772
 20
-471.70272590109988
 30
0.0
 11
-474.3842165545974
 21
-471.73117017489989
 31
0.0
  0
LINE
  8
DETAIL
  6
CONTINUOUS
 62
     5
 10
-474.3842165545974
 20
-471.73117017489989
 30
0.0
 11
-474.29083395249739
 21
-471.76270816229982
 31
0.0
  0
LINE
  8
DETAIL
  6
CONTINUOUS
 62
     5
 10
-474.29083395249739
 20
-471.76270816229982
 30
0.0
 11
-474.19217285309787
 21
-471.79740187729982
 31
0.0
  0
LINE
  8
DETAIL
  6
CONTINUOUS
 62
     5
 10
-474.19217285309787
 20
-471.79740187729982
 30
0.0
 11
-474.08846239309793
 21
-471.83539297409999
 31
0.0
  0
LINE
  8
DETAIL
  6
CONTINUOUS
 62
     5
 10
-474.08846239309793
 20
-471.83539297409999
 30
0.0
 11
-473.97992024429823
 21
-471.87682286279983
 31
0.0
  0
LINE
  8
DETAIL
  6
CONTINUOUS
 62
     5
 10
-473.97992024429823
 20
-471.87682286279983
 30
0.0
 11
-473.86703535369821
 21
-471.92175428959979
 31
0.0
  0
LINE
  8
DETAIL
  6
CONTINUOUS
 62
     5
 10
-473.86703535369821
 20
-471.92175428959979
 30
0.0
 11
-473.7503126549982
 21
-471.97021567119992
 31
0.0
  0
LINE
  8
DETAIL
  6
CONTINUOUS
 62
     5
 10
-473.7503126549982
 20
-471.97021567119992
 30
0.0
 11
-473.63008019019799
 21
-472.02245140569983
 31
0.0
  0
LINE
  8
DETAIL
  6
CONTINUOUS
 62
     5
 10
-473.63008019019799
 20
-472.02245140569983
 30
0.0
 11
-473.50667076249817
 21
-472.07863789999988
 31
0.0
  0
LINE
  8
DETAIL
  6
CONTINUOUS
 62
     5
 10
-473.50667076249817
 20
-472.07863789999988
 30
0.0
 11
-473.38062241069832
 21
-472.13900754419973
 31
0.0
  0
LINE
  8
DETAIL
  6
CONTINUOUS
 62
     5
 10
-473.38062241069832
 20
-472.13900754419973
 30
0.0
 11
-473.25241071749758
 21
-472.20380581229989
 31
0.0
  0
LINE
  8
DETAIL
  6
CONTINUOUS
 62
     5
 10
-473.25241071749758
 20
-472.20380581229989
 30
0.0
 11
-473.12263394019737
 21
-472.27316985909988
 31
0.0
  0
LINE
  8
DETAIL
  6
CONTINUOUS
 62
     5
 10
-473.12263394019737
 20
-472.27316985909988
 30
0.0
 11
-472.99183322469798
 21
-472.34723695179991
 31
0.0
  0
LINE
  8
DETAIL
  6
CONTINUOUS
 62
     5
 10
-472.99183322469798
 20
-472.34723695179991
 30
0.0
 11
-472.8606969427974
 21
-472.42625222669989
 31
0.0
  0
LINE
  8
DETAIL
  6
CONTINUOUS
 62
     5
 10
-472.8606969427974
 20
-472.42625222669989
 30
0.0
 11
-472.72998870979791
 21
-472.51054293769988
 31
0.0
  0
LINE
  8
DETAIL
  6
CONTINUOUS
 62
     5
 10
-472.72998870979791
 20
-472.51054293769988
 30
0.0
 11
-472.59999999999758
 21
-472.59999999999991
 31
0.0
  0
LINE
  8
DETAIL
  6
CONTINUOUS
 62
     5
 10
-3.4927522334974128
 20
-475.0
 30
0.0
 11
-3.494968079598038
 21
-474.99942820880011
 31
0.0
  0
LINE
  8
DETAIL
  6
CONTINUOUS
 62
     5
 10
-3.494968079598038
 20
-474.99942820880011
 30
0.0
 11
-3.4967805546975801
 21
-474.99771308759972
 31
0.0
  0
LINE
  8
DETAIL
  6
CONTINUOUS
 62
     5
 10
-3.4967805546975801
 20
-474.99771308759972
 30
0.0
 11
-3.4981894554975952
 21
-474.99485537889979
 31
0.0
  0
LINE
  8
DETAIL
  6
CONTINUOUS
 62
     5
 10
-3.4981894554975952
 20
-474.99485537889979
 30
0.0
 11
-3.499195392098045
 21
-474.99085654929979
 31
0.0
  0
LINE
  8
DETAIL
  6
CONTINUOUS
 62
     5
 10
-3.499195392098045
 20
-474.99085654929979
 30
0.0
 11
-3.4997989747980678
 21
-474.98571878869973
 31
0.0
  0
LINE
  8
DETAIL
  6
CONTINUOUS
 62
     5
 10
-3.4997989747980678
 20
-474.98571878869973
 30
0.0
 11
-3.499999999998181
 21
-474.97944464909989
 31
0.0
  0
LINE
  8
DETAIL
  6
CONTINUOUS
 62
     5
 10
-473.79999999999831
 20
-473.79999999999978
 30
0.0
 11
-473.79999999999831
 21
-471.94958628709992
 31
0.0
  0
LINE
  8
DETAIL
  6
CONTINUOUS
 62
     5
 10
-473.79999999999831
 20
-3.1253233468999042
 30
0.0
 11
-473.79999999999831
 21
3.125323346900132
 31
0.0
  0
LINE
  8
DETAIL
  6
CONTINUOUS
 62
     5
 10
-473.79999999999831
 20
471.9495862870001
 30
0.0
 11
-473.79999999999831
 21
473.80000000000018
 31
0.0
  0
LINE
  8
DETAIL
  6
CONTINUOUS
 62
     5
 10
-473.79999999999831
 20
473.80000000000018
 30
0.0
 11
-473.79999999999831
 21
475.0
 31
0.0
  0
LINE
  8
DETAIL
  6
CONTINUOUS
 62
     5
 10
-473.79999999999831
 20
-473.79999999999978
 30
0.0
 11
-473.79999999999831
 21
-475.0
 31
0.0
  0
LINE
  8
DETAIL
  6
CONTINUOUS
 62
     5
 10
-474.99999999999818
 20
-473.79999999999978
 30
0.0
 11
-474.99999999999818
 21
-471.58212150069983
 31
0.0
  0
LINE
  8
DETAIL
  6
CONTINUOUS
 62
     5
 10
-474.99999999999818
 20
-471.58212150069983
 30
0.0
 11
-474.99999999999818
 21
-3.4927522334997998
 31
0.0
  0
LINE
  8
DETAIL
  6
CONTINUOUS
 62
     5
 10
-474.99999999999818
 20
3.4927522335001409
 30
0.0
 11
-474.99999999999818
 21
471.58212150070023
 31
0.0
  0
LINE
  8
DETAIL
  6
CONTINUOUS
 62
     5
 10
-474.99999999999818
 20
-3.4927522334997998
 30
0.0
 11
-474.99999999999818
 21
3.4927522335001409
 31
0.0
  0
LINE
  8
DETAIL
  6
CONTINUOUS
 62
     5
 10
-474.99999999999818
 20
471.58212150070023
 30
0.0
 11
-474.99999999999818
 21
473.80000000000018
 31
0.0
  0
LINE
  8
DETAIL
  6
CONTINUOUS
 62
     5
 10
-471.57488509689762
 20
-474.97948532399988
 30
0.0
 11
-471.57502571529761
 21
-474.98477306339998
 31
0.0
  0
LINE
  8
DETAIL
  6
CONTINUOUS
 62
     5
 10
-471.57502571529761
 20
-474.98477306339998
 30
0.0
 11
-471.57723343709762
 21
-474.99618927609993
 31
0.0
  0
LINE
  8
DETAIL
  6
CONTINUOUS
 62
     5
 10
-471.57723343709762
 20
-474.99618927609993
 30
0.0
 11
-471.58212150069812
 21
-475.0
 31
0.0
  0
LINE
  8
DETAIL
  6
CONTINUOUS
 62
     5
 10
-471.57488509689762
 20
474.97948532400011
 30
0.0
 11
-471.57549706229747
 21
474.96579584690022
 31
0.0
  0
LINE
  8
DETAIL
  6
CONTINUOUS
 62
     5
 10
-471.57549706229747
 20
474.96579584690022
 30
0.0
 11
-471.57865129709802
 21
474.93931612990008
 31
0.0
  0
LINE
  8
DETAIL
  6
CONTINUOUS
 62
     5
 10
-471.57865129709802
 20
474.93931612990008
 30
0.0
 11
-471.58448180259791
 21
474.90540323919998
 31
0.0
  0
LINE
  8
DETAIL
  6
CONTINUOUS
 62
     5
 10
-471.58448180259791
 20
474.90540323919998
 30
0.0
 11
-471.5930186145979
 21
474.86417270219999
 31
0.0
  0
LINE
  8
DETAIL
  6
CONTINUOUS
 62
     5
 10
-471.5930186145979
 20
474.86417270219999
 30
0.0
 11
-471.60427357929802
 21
474.81577764330018
 31
0.0
  0
LINE
  8
DETAIL
  6
CONTINUOUS
 62
     5
 10
-471.60427357929802
 20
474.81577764330018
 30
0.0
 11
-471.61829464819772
 21
474.76034329370009
 31
0.0
  0
LINE
  8
DETAIL
  6
CONTINUOUS
 62
     5
 10
-471.61829464819772
 20
474.76034329370009
 30
0.0
 11
-471.63512653179811
 21
474.69799005739998
 31
0.0
  0
LINE
  8
DETAIL
  6
CONTINUOUS
 62
     5
 10
-471.63512653179811
 20
474.69799005739998
 30
0.0
 11
-471.65479079899802
 21
474.62895915890022
 31
0.0
  0
LINE
  8
DETAIL
  6
CONTINUOUS
 62
     5
 10
-471.65479079899802
 20
474.62895915890022
 30
0.0
 11
-471.6772904680974
 21
474.55354279220001
 31
0.0
  0
LINE
  8
DETAIL
  6
CONTINUOUS
 62
     5
 10
-471.6772904680974
 20
474.55354279220001
 30
0.0
 11
-471.70272590109738
 21
474.47190977529999
 31
0.0
  0
LINE
  8
DETAIL
  6
CONTINUOUS
 62
     5
 10
-471.70272590109738
 20
474.47190977529999
 30
0.0
 11
-471.73117017489761
 21
474.38421655460002
 31
0.0
  0
LINE
  8
DETAIL
  6
CONTINUOUS
 62
     5
 10
-471.73117017489761
 20
474.38421655460002
 30
0.0
 11
-471.76270816239781
 21
474.29083395250018
 31
0.0
  0
LINE
  8
DETAIL
  6
CONTINUOUS
 62
     5
 10
-471.76270816239781
 20
474.29083395250018
 30
0.0
 11
-471.79740187729737
 21
474.19217285309998
 31
0.0
  0
LINE
  8
DETAIL
  6
CONTINUOUS
 62
     5
 10
-471.79740187729737
 20
474.19217285309998
 30
0.0
 11
-471.83539297409777
 21
474.08846239309997
 31
0.0
  0
LINE
  8
DETAIL
  6
CONTINUOUS
 62
     5
 10
-471.83539297409777
 20
474.08846239309997
 30
0.0
 11
-471.87682286279778
 21
473.9799202442
 31
0.0
  0
LINE
  8
DETAIL
  6
CONTINUOUS
 62
     5
 10
-471.87682286279778
 20
473.9799202442
 30
0.0
 11
-471.92175428959757
 21
473.86703535360022
 31
0.0
  0
LINE
  8
DETAIL
  6
CONTINUOUS
 62
     5
 10
-471.92175428959757
 20
473.86703535360022
 30
0.0
 11
-471.97021567129821
 21
473.7503126549002
 31
0.0
  0
LINE
  8
DETAIL
  6
CONTINUOUS
 62
     5
 10
-471.97021567129821
 20
473.7503126549002
 30
0.0
 11
-472.02245140569812
 21
473.63008019019998
 31
0.0
  0
LINE
  8
DETAIL
  6
CONTINUOUS
 62
     5
 10
-472.02245140569812
 20
473.63008019019998
 30
0.0
 11
-472.07863790009742
 21
473.50667076240012
 31
0.0
  0
LINE
  8
DETAIL
  6
CONTINUOUS
 62
     5
 10
-472.07863790009742
 20
473.50667076240012
 30
0.0
 11
-472.1390075441978
 21
473.38062241060021
 31
0.0
  0
LINE
  8
DETAIL
  6
CONTINUOUS
 62
     5
 10
-472.1390075441978
 20
473.38062241060021
 30
0.0
 11
-472.20380581239812
 21
473.25241071740021
 31
0.0
  0
LINE
  8
DETAIL
  6
CONTINUOUS
 62
     5
 10
-472.20380581239812
 20
473.25241071740021
 30
0.0
 11
-472.27316985919788
 21
473.12263394010012
 31
0.0
  0
LINE
  8
DETAIL
  6
CONTINUOUS
 62
     5
 10
-472.27316985919788
 20
473.12263394010012
 30
0.0
 11
-472.34723695179758
 21
472.99183322469997
 31
0.0
  0
LINE
  8
DETAIL
  6
CONTINUOUS
 62
     5
 10
-472.34723695179758
 20
472.99183322469997
 30
0.0
 11
-472.42625222679732
 21
472.86069694270009
 31
0.0
  0
LINE
  8
DETAIL
  6
CONTINUOUS
 62
     5
 10
-472.42625222679732
 20
472.86069694270009
 30
0.0
 11
-472.51054293769721
 21
472.72998870980018
 31
0.0
  0
LINE
  8
DETAIL
  6
CONTINUOUS
 62
     5
 10
-472.51054293769721
 20
472.72998870980018
 30
0.0
 11
-472.59999999999758
 21
472.60000000000008
 31
0.0
  0
LINE
  8
DETAIL
  6
CONTINUOUS
 62
     5
 10
-474.99999999999818
 20
3.4927522335001409
 30
0.0
 11
-474.99942820879818
 21
3.4949680795001541
 31
0.0
  0
LINE
  8
DETAIL
  6
CONTINUOUS
 62
     5
 10
-474.99942820879818
 20
3.4949680795001541
 30
0.0
 11
-474.99771308759762
 21
3.496780554700194
 31
0.0
  0
LINE
  8
DETAIL
  6
CONTINUOUS
 62
     5
 10
-474.99771308759762
 20
3.496780554700194
 30
0.0
 11
-474.99485537889711
 21
3.4981894555000959
 31
0.0
  0
LINE
  8
DETAIL
  6
CONTINUOUS
 62
     5
 10
-474.99485537889711
 20
3.4981894555000959
 30
0.0
 11
-474.9908565493979
 21
3.4991953921000909
 31
0.0
  0
LINE
  8
DETAIL
  6
CONTINUOUS
 62
     5
 10
-474.9908565493979
 20
3.4991953921000909
 30
0.0
 11
-474.98571878869842
 21
3.4997989747001839
 31
0.0
  0
LINE
  8
DETAIL
  6
CONTINUOUS
 62
     5
 10
-474.98571878869842
 20
3.4997989747001839
 30
0.0
 11
-474.97944464909779
 21
3.5000000000001141
 31
0.0
  0
LINE
  8
DETAIL
  6
CONTINUOUS
 62
     5
 10
-472.59999999999758
 20
-472.59999999999991
 30
0.0
 11
-472.51054293769721
 21
-472.72998870980001
 31
0.0
  0
LINE
  8
DETAIL
  6
CONTINUOUS
 62
     5
 10
-472.51054293769721
 20
-472.72998870980001
 30
0.0
 11
-472.42625222679732
 21
-472.86069694279968
 31
0.0
  0
LINE
  8
DETAIL
  6
CONTINUOUS
 62
     5
 10
-472.42625222679732
 20
-472.86069694279968
 30
0.0
 11
-472.34723695179758
 21
-472.99183322469992
 31
0.0
  0
LINE
  8
DETAIL
  6
CONTINUOUS
 62
     5
 10
-472.34723695179758
 20
-472.99183322469992
 30
0.0
 11
-472.27316985919788
 21
-473.12263394009989
 31
0.0
  0
LINE
  8
DETAIL
  6
CONTINUOUS
 62
     5
 10
-472.27316985919788
 20
-473.12263394009989
 30
0.0
 11
-472.20380581239812
 21
-473.25241071739993
 31
0.0
  0
LINE
  8
DETAIL
  6
CONTINUOUS
 62
     5
 10
-472.20380581239812
 20
-473.25241071739993
 30
0.0
 11
-472.1390075441978
 21
-473.38062241059998
 31
0.0
  0
LINE
  8
DETAIL
  6
CONTINUOUS
 62
     5
 10
-472.1390075441978
 20
-473.38062241059998
 30
0.0
 11
-472.07863790009742
 21
-473.50667076240012
 31
0.0
  0
LINE
  8
DETAIL
  6
CONTINUOUS
 62
     5
 10
-472.07863790009742
 20
-473.50667076240012
 30
0.0
 11
-472.02245140579828
 21
-473.63008019019998
 31
0.0
  0
LINE
  8
DETAIL
  6
CONTINUOUS
 62
     5
 10
-472.02245140579828
 20
-473.63008019019998
 30
0.0
 11
-471.97021567129821
 21
-473.75031265489997
 31
0.0
  0
LINE
  8
DETAIL
  6
CONTINUOUS
 62
     5
 10
-471.97021567129821
 20
-473.75031265489997
 30
0.0
 11
-471.92175428959757
 21
-473.86703535359987
 31
0.0
  0
LINE
  8
DETAIL
  6
CONTINUOUS
 62
     5
 10
-471.92175428959757
 20
-473.86703535359987
 30
0.0
 11
-471.87682286279778
 21
-473.97992024419977
 31
0.0
  0
LINE
  8
DETAIL
  6
CONTINUOUS
 62
     5
 10
-471.87682286279778
 20
-473.97992024419977
 30
0.0
 11
-471.83539297409777
 21
-474.08846239309997
 31
0.0
  0
LINE
  8
DETAIL
  6
CONTINUOUS
 62
     5
 10
-471.83539297409777
 20
-474.08846239309997
 30
0.0
 11
-471.79740187729737
 21
-474.19217285309998
 31
0.0
  0
LINE
  8
DETAIL
  6
CONTINUOUS
 62
     5
 10
-471.79740187729737
 20
-474.19217285309998
 30
0.0
 11
-471.76270816239781
 21
-474.29083395249978
 31
0.0
  0
LINE
  8
DETAIL
  6
CONTINUOUS
 62
     5
 10
-471.76270816239781
 20
-474.29083395249978
 30
0.0
 11
-471.73117017489761
 21
-474.38421655459979
 31
0.0
  0
LINE
  8
DETAIL
  6
CONTINUOUS
 62
     5
 10
-471.73117017489761
 20
-474.38421655459979
 30
0.0
 11
-471.70272590119748
 21
-474.47190977529999
 31
0.0
  0
LINE
  8
DETAIL
  6
CONTINUOUS
 62
     5
 10
-471.70272590119748
 20
-474.47190977529999
 30
0.0
 11
-471.67729046819738
 21
-474.55354279220001
 31
0.0
  0
LINE
  8
DETAIL
  6
CONTINUOUS
 62
     5
 10
-471.67729046819738
 20
-474.55354279220001
 30
0.0
 11
-471.65479079899802
 21
-474.62895915899992
 31
0.0
  0
LINE
  8
DETAIL
  6
CONTINUOUS
 62
     5
 10
-471.65479079899802
 20
-474.62895915899992
 30
0.0
 11
-471.63512653179811
 21
-474.69799005739992
 31
0.0
  0
LINE
  8
DETAIL
  6
CONTINUOUS
 62
     5
 10
-471.63512653179811
 20
-474.69799005739992
 30
0.0
 11
-471.61829464819772
 21
-474.76034329380002
 31
0.0
  0
LINE
  8
DETAIL
  6
CONTINUOUS
 62
     5
 10
-471.61829464819772
 20
-474.76034329380002
 30
0.0
 11
-471.60427357929802
 21
-474.81577764329973
 31
0.0
  0
LINE
  8
DETAIL
  6
CONTINUOUS
 62
     5
 10
-471.60427357929802
 20
-474.81577764329973
 30
0.0
 11
-471.5930186145979
 21
-474.86417270219999
 31
0.0
  0
LINE
  8
DETAIL
  6
CONTINUOUS
 62
     5
 10
-471.5930186145979
 20
-474.86417270219999
 30
0.0
 11
-471.58448180259791
 21
-474.90540323919993
 31
0.0
  0
LINE
  8
DETAIL
  6
CONTINUOUS
 62
     5
 10
-471.58448180259791
 20
-474.90540323919993
 30
0.0
 11
-471.57865129709802
 21
-474.93931612999978
 31
0.0
  0
LINE
  8
DETAIL
  6
CONTINUOUS
 62
     5
 10
-471.57865129709802
 20
-474.93931612999978
 30
0.0
 11
-471.57549706229747
 21
-474.96579584689988
 31
0.0
  0
LINE
  8
DETAIL
  6
CONTINUOUS
 62
     5
 10
-471.57549706229747
 20
-474.96579584689988
 30
0.0
 11
-471.57488509689762
 21
-474.97948532399988
 31
0.0
  0
LINE
  8
DETAIL
  6
CONTINUOUS
 62
     5
 10
-472.59999999999758
 20
472.60000000000008
 30
0.0
 11
-472.72998870979791
 21
472.51054293760012
 31
0.0
  0
LINE
  8
DETAIL
  6
CONTINUOUS
 62
     5
 10
-472.72998870979791
 20
472.51054293760012
 30
0.0
 11
-472.8606969427974
 21
472.42625222670023
 31
0.0
  0
LINE
  8
DETAIL
  6
CONTINUOUS
 62
     5
 10
-472.8606969427974
 20
472.42625222670023
 30
0.0
 11
-472.99183322469798
 21
472.34723695180008
 31
0.0
  0
LINE
  8
DETAIL
  6
CONTINUOUS
 62
     5
 10
-472.99183322469798
 20
472.34723695180008
 30
0.0
 11
-473.12263394019737
 21
472.27316985910011
 31
0.0
  0
LINE
  8
DETAIL
  6
CONTINUOUS
 62
     5
 10
-473.12263394019737
 20
472.27316985910011
 30
0.0
 11
-473.25241071749758
 21
472.20380581230012
 31
0.0
  0
LINE
  8
DETAIL
  6
CONTINUOUS
 62
     5
 10
-473.25241071749758
 20
472.20380581230012
 30
0.0
 11
-473.38062241069832
 21
472.13900754420001
 31
0.0
  0
LINE
  8
DETAIL
  6
CONTINUOUS
 62
     5
 10
-473.38062241069832
 20
472.13900754420001
 30
0.0
 11
-473.50667076249817
 21
472.0786379000001
 31
0.0
  0
LINE
  8
DETAIL
  6
CONTINUOUS
 62
     5
 10
-473.50667076249817
 20
472.0786379000001
 30
0.0
 11
-473.63008019019799
 21
472.02245140570022
 31
0.0
  0
LINE
  8
DETAIL
  6
CONTINUOUS
 62
     5
 10
-473.63008019019799
 20
472.02245140570022
 30
0.0
 11
-473.7503126549982
 21
471.97021567120009
 31
0.0
  0
LINE
  8
DETAIL
  6
CONTINUOUS
 62
     5
 10
-473.7503126549982
 20
471.97021567120009
 30
0.0
 11
-473.86703535369821
 21
471.92175428960007
 31
0.0
  0
LINE
  8
DETAIL
  6
CONTINUOUS
 62
     5
 10
-473.86703535369821
 20
471.92175428960007
 30
0.0
 11
-473.97992024429823
 21
471.87682286280011
 31
0.0
  0
LINE
  8
DETAIL
  6
CONTINUOUS
 62
     5
 10
-473.97992024429823
 20
471.87682286280011
 30
0.0
 11
-474.08846239309793
 21
471.83539297400011
 31
0.0
  0
LINE
  8
DETAIL
  6
CONTINUOUS
 62
     5
 10
-474.08846239309793
 20
471.83539297400011
 30
0.0
 11
-474.19217285309787
 21
471.79740187730022
 31
0.0
  0
LINE
  8
DETAIL
  6
CONTINUOUS
 62
     5
 10
-474.19217285309787
 20
471.79740187730022
 30
0.0
 11
-474.29083395249739
 21
471.76270816229999
 31
0.0
  0
LINE
  8
DETAIL
  6
CONTINUOUS
 62
     5
 10
-474.29083395249739
 20
471.76270816229999
 30
0.0
 11
-474.3842165545974
 21
471.73117017490023
 31
0.0
  0
LINE
  8
DETAIL
  6
CONTINUOUS
 62
     5
 10
-474.3842165545974
 20
471.73117017490023
 30
0.0
 11
-474.47190977529772
 21
471.70272590110022
 31
0.0
  0
LINE
  8
DETAIL
  6
CONTINUOUS
 62
     5
 10
-474.47190977529772
 20
471.70272590110022
 30
0.0
 11
-474.55354279219779
 21
471.67729046810018
 31
0.0
  0
LINE
  8
DETAIL
  6
CONTINUOUS
 62
     5
 10
-474.55354279219779
 20
471.67729046810018
 30
0.0
 11
-474.62895915899759
 21
471.65479079890019
 31
0.0
  0
LINE
  8
DETAIL
  6
CONTINUOUS
 62
     5
 10
-474.62895915899759
 20
471.65479079890019
 30
0.0
 11
-474.69799005749792
 21
471.63512653170011
 31
0.0
  0
LINE
  8
DETAIL
  6
CONTINUOUS
 62
     5
 10
-474.69799005749792
 20
471.63512653170011
 30
0.0
 11
-474.76034329379769
 21
471.61829464810012
 31
0.0
  0
LINE
  8
DETAIL
  6
CONTINUOUS
 62
     5
 10
-474.76034329379769
 20
471.61829464810012
 30
0.0
 11
-474.81577764329711
 21
471.60427357930013
 31
0.0
  0
LINE
  8
DETAIL
  6
CONTINUOUS
 62
     5
 10
-474.81577764329711
 20
471.60427357930013
 30
0.0
 11
-474.86417270229782
 21
471.59301861450012
 31
0.0
  0
LINE
  8
DETAIL
  6
CONTINUOUS
 62
     5
 10
-474.86417270229782
 20
471.59301861450012
 30
0.0
 11
-474.90540323929758
 21
471.58448180260012
 31
0.0
  0
LINE
  8
DETAIL
  6
CONTINUOUS
 62
     5
 10
-474.90540323929758
 20
471.58448180260012
 30
0.0
 11
-474.93931612999762
 21
471.57865129700008
 31
0.0
  0
LINE
  8
DETAIL
  6
CONTINUOUS
 62
     5
 10
-474.93931612999762
 20
471.57865129700008
 30
0.0
 11
-474.96579584689789
 21
471.57549706220021
 31
0.0
  0
LINE
  8
DETAIL
  6
CONTINUOUS
 62
     5
 10
-474.96579584689789
 20
471.57549706220021
 30
0.0
 11
-474.97948532399732
 21
471.57488509680002
 31
0.0
  0
CIRCLE
  8
DETAIL
  6
CONTINUOUS
 62
     5
 10
450.00000000000182
 20
450.0
 30
0.0
 40
7.5
  0
CIRCLE
  8
DETAIL
  6
CONTINUOUS
 62
     5
 10
450.00000000000182
 20
200.0
 30
0.0
 40
7.5
  0
CIRCLE
  8
DETAIL
  6
CONTINUOUS
 62
     5
 10
200.00000000000179
 20
450.0
 30
0.0
 40
7.5
  0
CIRCLE
  8
DETAIL
  6
CONTINUOUS
 62
     5
 10
255.00000000000179
 20
405.0
 30
0.0
 40
6.5
  0
CIRCLE
  8
DETAIL
  6
CONTINUOUS
 62
     5
 10
450.00000000000182
 20
-200.00000000000011
 30
0.0
 40
7.5
  0
CIRCLE
  8
DETAIL
  6
CONTINUOUS
 62
     5
 10
450.00000000000182
 20
-450.0
 30
0.0
 40
7.5
  0
CIRCLE
  8
DETAIL
  6
CONTINUOUS
 62
     5
 10
200.00000000000179
 20
-450.0
 30
0.0
 40
7.5
  0
CIRCLE
  8
DETAIL
  6
CONTINUOUS
 62
     5
 10
405.00000000000182
 20
-255.00000000000011
 30
0.0
 40
6.5
  0
CIRCLE
  8
DETAIL
  6
CONTINUOUS
 62
     5
 10
74.859251537402088
 20
-20.058475995499979
 30
0.0
 40
5.0
  0
ARC
  8
DETAIL
  6
CONTINUOUS
 62
     5
 10
475.07487373410191
 20
0.0
 30
0.0
 40
3.5
 50
135.00000000000921
 51
224.99999999999079
  0
CIRCLE
  8
DETAIL
  6
CONTINUOUS
 62
     5
 10
-449.99999999999818
 20
200.00000000000011
 30
0.0
 40
7.5
  0
CIRCLE
  8
DETAIL
  6
CONTINUOUS
 62
     5
 10
-449.99999999999818
 20
450.0
 30
0.0
 40
7.5
  0
CIRCLE
  8
DETAIL
  6
CONTINUOUS
 62
     5
 10
-199.99999999999821
 20
450.0
 30
0.0
 40
7.5
  0
CIRCLE
  8
DETAIL
  6
CONTINUOUS
 62
     5
 10
-404.99999999999818
 20
255.00000000000011
 30
0.0
 40
6.5
  0
CIRCLE
  8
DETAIL
  6
CONTINUOUS
 62
     5
 10
-20.05847599549725
 20
74.859251537400041
 30
0.0
 40
5.0
  0
ARC
  8
DETAIL
  6
CONTINUOUS
 62
     5
 10
0.000000000001819
 20
475.07487373409998
 30
0.0
 40
3.5
 50
224.99999999999079
 51
315.00000000000921
  0
CIRCLE
  8
DETAIL
  6
CONTINUOUS
 62
     5
 10
0.000000000001819
 20
0.0
 30
0.0
 40
452.25
  0
CIRCLE
  8
DETAIL
  6
CONTINUOUS
 62
     5
 10
0.000000000001819
 20
0.0
 30
0.0
 40
417.5
  0
ARC
  8
DETAIL
  6
CONTINUOUS
 62
     5
 10
0.000000000001819
 20
0.0
 30
0.0
 40
125.0
 50
303.38273395844112
 51
312.20064399471067
  0
ARC
  8
DETAIL
  6
CONTINUOUS
 62
     5
 10
0.000000000001819
 20
0.0
 30
0.0
 40
125.0
 50
63.382733969779522
 51
72.20064399071228
  0
ARC
  8
DETAIL
  6
CONTINUOUS
 62
     5
 10
0.000000000001819
 20
0.0
 30
0.0
 40
125.0
 50
183.38273395859881
 51
192.20064401389419
  0
CIRCLE
  8
DETAIL
  6
CONTINUOUS
 62
     5
 10
0.000000000001819
 20
0.0
 30
0.0
 40
27.5
  0
CIRCLE
  8
DETAIL
  6
CONTINUOUS
 62
     5
 10
0.000000000001819
 20
0.0
 30
0.0
 40
27.0
  0
CIRCLE
  8
DETAIL
  6
CONTINUOUS
 62
     5
 10
0.000000000001819
 20
0.0
 30
0.0
 40
18.5
  0
CIRCLE
  8
DETAIL
  6
CONTINUOUS
 62
     5
 10
0.000000000001819
 20
0.0
 30
0.0
 40
15.0
  0
CIRCLE
  8
DETAIL
  6
CONTINUOUS
 62
     5
 10
0.000000000001819
 20
0.0
 30
0.0
 40
10.5196152423
  0
CIRCLE
  8
DETAIL
  6
CONTINUOUS
 62
     5
 10
0.000000000001819
 20
0.0
 30
0.0
 40
10.0
  0
CIRCLE
  8
DETAIL
  6
CONTINUOUS
 62
     5
 10
-199.99999999999821
 20
-450.0
 30
0.0
 40
7.5
  0
CIRCLE
  8
DETAIL
  6
CONTINUOUS
 62
     5
 10
-449.99999999999818
 20
-450.0
 30
0.0
 40
7.5
  0
CIRCLE
  8
DETAIL
  6
CONTINUOUS
 62
     5
 10
-449.99999999999818
 20
-199.99999999999989
 30
0.0
 40
7.5
  0
CIRCLE
  8
DETAIL
  6
CONTINUOUS
 62
     5
 10
-254.99999999999821
 20
-405.0
 30
0.0
 40
6.5
  0
ARC
  8
DETAIL
  6
CONTINUOUS
 62
     5
 10
0.000000000001819
 20
-475.07487373419991
 30
0.0
 40
3.5
 50
44.999999999990777
 51
135.00000000000921
  0
ARC
  8
DETAIL
  6
CONTINUOUS
 62
     5
 10
-475.07487373419741
 20
0.0000000000001137
 30
0.0
 40
3.5
 50
315.00000000000921
 51
44.999999999990777
  0
LINE
  8
OUTLINE
  6
CONTINUOUS
 62
     3
 10
-473.79999999999831
 20
475.0
 30
0.0
 11
-471.58212150069812
 21
475.0
 31
0.0
  0
LINE
  8
OUTLINE
  6
CONTINUOUS
 62
     3
 10
-471.58212150069812
 20
475.0
 30
0.0
 11
-3.4927522334974128
 21
475.0
 31
0.0
  0
LINE
  8
OUTLINE
  6
CONTINUOUS
 62
     3
 10
-3.4927522334974128
 20
475.0
 30
0.0
 11
3.4927522334019159
 21
475.0
 31
0.0
  0
LINE
  8
OUTLINE
  6
CONTINUOUS
 62
     3
 10
3.4927522334019159
 20
475.0
 30
0.0
 11
471.58212150070273
 21
475.0
 31
0.0
  0
LINE
  8
OUTLINE
  6
CONTINUOUS
 62
     3
 10
471.58212150070273
 20
475.0
 30
0.0
 11
473.800000000002
 21
475.0
 31
0.0
  0
LINE
  8
OUTLINE
  6
CONTINUOUS
 62
     3
 10
473.800000000002
 20
473.80000000000001
 30
0.0
 11
475.00000000000182
 21
473.80000000000001
 31
0.0
  0
LINE
  8
OUTLINE
  6
CONTINUOUS
 62
     3
 10
-473.79999999999831
 20
473.80000000000018
 30
0.0
 11
-474.99999999999818
 21
473.80000000000018
 31
0.0
  0
LINE
  8
OUTLINE
  6
CONTINUOUS
 62
     3
 10
475.00000000000182
 20
473.80000000000001
 30
0.0
 11
475.00000000000182
 21
471.58212150069988
 31
0.0
  0
LINE
  8
OUTLINE
  6
CONTINUOUS
 62
     3
 10
475.00000000000182
 20
471.58212150069988
 30
0.0
 11
475.00000000000182
 21
3.4927522335000281
 31
0.0
  0
LINE
  8
OUTLINE
  6
CONTINUOUS
 62
     3
 10
475.00000000000182
 20
3.4927522335000281
 30
0.0
 11
475.00000000000182
 21
-3.4927522335000281
 31
0.0
  0
LINE
  8
OUTLINE
  6
CONTINUOUS
 62
     3
 10
475.00000000000182
 20
-3.4927522335000281
 30
0.0
 11
475.00000000000182
 21
-471.58212150069988
 31
0.0
  0
LINE
  8
OUTLINE
  6
CONTINUOUS
 62
     3
 10
475.00000000000182
 20
-471.58212150069988
 30
0.0
 11
475.00000000000182
 21
-473.80000000000001
 31
0.0
  0
LINE
  8
OUTLINE
  6
CONTINUOUS
 62
     3
 10
473.800000000002
 20
473.80000000000001
 30
0.0
 11
473.800000000002
 21
475.0
 31
0.0
  0
LINE
  8
OUTLINE
  6
CONTINUOUS
 62
     3
 10
473.800000000002
 20
-473.80000000000001
 30
0.0
 11
473.800000000002
 21
-475.0
 31
0.0
  0
LINE
  8
OUTLINE
  6
CONTINUOUS
 62
     3
 10
473.800000000002
 20
-473.80000000000001
 30
0.0
 11
475.00000000000182
 21
-473.80000000000001
 31
0.0
  0
LINE
  8
OUTLINE
  6
CONTINUOUS
 62
     3
 10
-473.79999999999831
 20
-473.79999999999978
 30
0.0
 11
-474.99999999999818
 21
-473.79999999999978
 31
0.0
  0
LINE
  8
OUTLINE
  6
CONTINUOUS
 62
     3
 10
471.58212150070273
 20
-475.0
 30
0.0
 11
3.4927522334019159
 21
-475.0
 31
0.0
  0
LINE
  8
OUTLINE
  6
CONTINUOUS
 62
     3
 10
473.800000000002
 20
-475.0
 30
0.0
 11
471.58212150070273
 21
-475.0
 31
0.0
  0
LINE
  8
OUTLINE
  6
CONTINUOUS
 62
     3
 10
-3.4927522334974128
 20
-475.0
 30
0.0
 11
-471.58212150069812
 21
-475.0
 31
0.0
  0
LINE
  8
OUTLINE
  6
CONTINUOUS
 62
     3
 10
3.4927522334019159
 20
-475.0
 30
0.0
 11
-3.4927522334974128
 21
-475.0
 31
0.0
  0
LINE
  8
OUTLINE
  6
CONTINUOUS
 62
     3
 10
-471.58212150069812
 20
-475.0
 30
0.0
 11
-473.79999999999831
 21
-475.0
 31
0.0
  0
LINE
  8
OUTLINE
  6
CONTINUOUS
 62
     3
 10
-473.79999999999831
 20
473.80000000000018
 30
0.0
 11
-473.79999999999831
 21
475.0
 31
0.0
  0
LINE
  8
OUTLINE
  6
CONTINUOUS
 62
     3
 10
-473.79999999999831
 20
-473.79999999999978
 30
0.0
 11
-473.79999999999831
 21
-475.0
 31
0.0
  0
LINE
  8
OUTLINE
  6
CONTINUOUS
 62
     3
 10
-474.99999999999818
 20
-473.79999999999978
 30
0.0
 11
-474.99999999999818
 21
-471.58212150069983
 31
0.0
  0
LINE
  8
OUTLINE
  6
CONTINUOUS
 62
     3
 10
-474.99999999999818
 20
-471.58212150069983
 30
0.0
 11
-474.99999999999818
 21
-3.4927522334997998
 31
0.0
  0
LINE
  8
OUTLINE
  6
CONTINUOUS
 62
     3
 10
-474.99999999999818
 20
3.4927522335001409
 30
0.0
 11
-474.99999999999818
 21
471.58212150070023
 31
0.0
  0
LINE
  8
OUTLINE
  6
CONTINUOUS
 62
     3
 10
-474.99999999999818
 20
-3.4927522334997998
 30
0.0
 11
-474.99999999999818
 21
3.4927522335001409
 31
0.0
  0
LINE
  8
OUTLINE
  6
CONTINUOUS
 62
     3
 10
-474.99999999999818
 20
471.58212150070023
 30
0.0
 11
-474.99999999999818
 21
473.80000000000018
 31
0.0
  0
LINE
  8
NOTE
  6
CONTINUOUS
 62
     4
 10
-414.49539392415772
 20
450.0
 30
0.0
 11
-485.50460607584051
 21
450.0
 31
0.0
  0
LINE
  8
NOTE
  6
CONTINUOUS
 62
     4
 10
-449.99999999999898
 20
414.49539392415858
 30
0.0
 11
-449.99999999999898
 21
485.50460607661762
 31
0.0
  0
LINE
  8
BASIS
  6
DASHDOT
 62
     6
 10
0.0000000000009095
 20
514.7723942814473
 30
0.0
 11
0.0000000000009095
 21
-525.21272137819608
 31
0.0
  0
LINE
  8
BASIS
  6
DASHDOT
 62
     6
 10
-521.20777184973758
 20
0.0000000000001137
 30
0.0
 11
530.88030509759949
 21
0.0000000000001137
 31
0.0
  0
LINE
  8
SIZE
  6
CONTINUOUS
 62
    30
 10
-199.99999999999909
 20
505.50460607661762
 30
0.0
 11
-199.99999999999909
 21
645.56774068126197
 31
0.0
  0
LINE
  8
SIZE
  6
CONTINUOUS
 62
    30
 10
200.00000000000091
 20
505.50460607661762
 30
0.0
 11
200.00000000000091
 21
645.56774068126197
 31
0.0
  0
LINE
  8
SIZE
  6
CONTINUOUS
 62
    30
 10
-187.99999999999909
 20
625.56774068126197
 30
0.0
 11
188.00000000000091
 21
625.56774068126197
 31
0.0
  0
CIRCLE
  8
SIZE
  6
CONTINUOUS
 62
    30
 10
-199.99999999999909
 20
625.56774068126197
 30
0.0
 40
6.0
  0
LINE
  8
SIZE
  6
CONTINUOUS
 62
    30
 10
-199.99999999999909
 20
625.56774068126197
 30
0.0
 11
-187.99999999999909
 21
625.56774068126197
 31
0.0
  0
CIRCLE
  8
SIZE
  6
CONTINUOUS
 62
    30
 10
200.00000000000091
 20
625.56774068126197
 30
0.0
 40
6.0
  0
LINE
  8
SIZE
  6
CONTINUOUS
 62
    30
 10
200.00000000000091
 20
625.56774068126197
 30
0.0
 11
188.00000000000091
 21
625.56774068126197
 31
0.0
  0
TEXT
  8
SIZE
  6
CONTINUOUS
 62
    30
 10
-74.05714285714194
 20
650.56774068126197
 30
0.0
 40
64.0
  1
400
 41
0.9
 72
     1
 11
0.0000000000009095
 21
650.56774068126197
 31
0.0
  0
POINT
  8
DEFPOINTS
  6
CONTINUOUS
 62
    30
 10
-199.99999999999909
 20
485.50460607661762
 30
0.0
  0
POINT
  8
DEFPOINTS
  6
CONTINUOUS
 62
    30
 10
200.00000000000091
 20
485.50460607661762
 30
0.0
  0
POINT
  8
DEFPOINTS
  6
CONTINUOUS
 62
    30
 10
200.00000000000091
 20
625.56774068126197
 30
0.0
  0
LINE
  8
SIZE
  6
CONTINUOUS
 62
    30
 10
-449.99999999999898
 20
505.50460607661762
 30
0.0
 11
-449.99999999999898
 21
799.22478134152072
 31
0.0
  0
LINE
  8
SIZE
  6
CONTINUOUS
 62
    30
 10
450.00000000000091
 20
505.50460607661762
 30
0.0
 11
450.00000000000091
 21
799.22478134152072
 31
0.0
  0
LINE
  8
SIZE
  6
CONTINUOUS
 62
    30
 10
-437.99999999999898
 20
779.22478134152072
 30
0.0
 11
438.00000000000091
 21
779.22478134152072
 31
0.0
  0
CIRCLE
  8
SIZE
  6
CONTINUOUS
 62
    30
 10
-449.99999999999898
 20
779.22478134152072
 30
0.0
 40
6.0
  0
LINE
  8
SIZE
  6
CONTINUOUS
 62
    30
 10
-449.99999999999898
 20
779.22478134152072
 30
0.0
 11
-437.99999999999898
 21
779.22478134152072
 31
0.0
  0
CIRCLE
  8
SIZE
  6
CONTINUOUS
 62
    30
 10
450.00000000000091
 20
779.22478134152072
 30
0.0
 40
6.0
  0
LINE
  8
SIZE
  6
CONTINUOUS
 62
    30
 10
450.00000000000091
 20
779.22478134152072
 30
0.0
 11
438.00000000000091
 21
779.22478134152072
 31
0.0
  0
TEXT
  8
SIZE
  6
CONTINUOUS
 62
    30
 10
-74.057142857141955
 20
804.22478134152072
 30
0.0
 40
64.0
  1
900
 41
0.9
 72
     1
 11
0.0000000000009095
 21
804.22478134152072
 31
0.0
  0
POINT
  8
DEFPOINTS
  6
CONTINUOUS
 62
    30
 10
-449.99999999999898
 20
485.50460607661762
 30
0.0
  0
POINT
  8
DEFPOINTS
  6
CONTINUOUS
 62
    30
 10
450.00000000000091
 20
485.50460607661762
 30
0.0
  0
POINT
  8
DEFPOINTS
  6
CONTINUOUS
 62
    30
 10
450.00000000000091
 20
779.22478134152072
 30
0.0
  0
LINE
  8
SIZE
  6
CONTINUOUS
 62
    30
 10
-474.99999999999898
 20
493.80000000000018
 30
0.0
 11
-474.99999999999892
 21
980.46691140379653
 31
0.0
  0
LINE
  8
SIZE
  6
CONTINUOUS
 62
    30
 10
475.00000000000091
 20
493.79999999999973
 30
0.0
 11
475.00000000000091
 21
980.46691140379653
 31
0.0
  0
LINE
  8
SIZE
  6
CONTINUOUS
 62
    30
 10
-462.99999999999892
 20
960.46691140379653
 30
0.0
 11
463.00000000000091
 21
960.46691140379653
 31
0.0
  0
CIRCLE
  8
SIZE
  6
CONTINUOUS
 62
    30
 10
-474.99999999999892
 20
960.46691140379653
 30
0.0
 40
6.0
  0
LINE
  8
SIZE
  6
CONTINUOUS
 62
    30
 10
-474.99999999999892
 20
960.46691140379653
 30
0.0
 11
-462.99999999999892
 21
960.46691140379653
 31
0.0
  0
CIRCLE
  8
SIZE
  6
CONTINUOUS
 62
    30
 10
475.00000000000091
 20
960.46691140379653
 30
0.0
 40
6.0
  0
LINE
  8
SIZE
  6
CONTINUOUS
 62
    30
 10
475.00000000000091
 20
960.46691140379653
 30
0.0
 11
463.00000000000091
 21
960.46691140379653
 31
0.0
  0
TEXT
  8
SIZE
  6
CONTINUOUS
 62
    30
 10
-74.057142857141955
 20
985.46691140379608
 30
0.0
 40
64.0
  1
950
 41
0.9
 72
     1
 11
0.0000000000009095
 21
985.46691140379608
 31
0.0
  0
POINT
  8
DEFPOINTS
  6
CONTINUOUS
 62
    30
 10
-474.99999999999898
 20
473.80000000000018
 30
0.0
  0
POINT
  8
DEFPOINTS
  6
CONTINUOUS
 62
    30
 10
475.00000000000091
 20
473.79999999999973
 30
0.0
  0
POINT
  8
DEFPOINTS
  6
CONTINUOUS
 62
    30
 10
475.00000000000091
 20
960.46691140379653
 30
0.0
  0
LINE
  8
SIZE
  6
CONTINUOUS
 62
    30
 10
-505.50460607584068
 20
200.0000000000002
 30
0.0
 11
-668.96346149452279
 21
200.0000000000002
 31
0.0
  0
LINE
  8
SIZE
  6
CONTINUOUS
 62
    30
 10
-505.50460607584068
 20
-200.0
 30
0.0
 11
-668.96346149452279
 21
-200.0
 31
0.0
  0
LINE
  8
SIZE
  6
CONTINUOUS
 62
    30
 10
-648.96346149452279
 20
188.0000000000002
 30
0.0
 11
-648.96346149452279
 21
-188.0
 31
0.0
  0
CIRCLE
  8
SIZE
  6
CONTINUOUS
 62
    30
 10
-648.96346149452279
 20
200.0000000000002
 30
0.0
 40
6.0
  0
LINE
  8
SIZE
  6
CONTINUOUS
 62
    30
 10
-648.96346149452279
 20
200.0000000000002
 30
0.0
 11
-648.96346149452279
 21
188.0000000000002
 31
0.0
  0
CIRCLE
  8
SIZE
  6
CONTINUOUS
 62
    30
 10
-648.96346149452279
 20
-200.0
 30
0.0
 40
6.0
  0
LINE
  8
SIZE
  6
CONTINUOUS
 62
    30
 10
-648.96346149452279
 20
-200.0
 30
0.0
 11
-648.96346149452279
 21
-188.0
 31
0.0
  0
TEXT
  8
SIZE
  6
CONTINUOUS
 62
    30
 10
-673.96346149452268
 20
-74.057142857142622
 30
0.0
 40
64.0
  1
400
 50
90.0
 41
0.9
 72
     1
 11
-673.96346149452268
 21
0.0000000000002274
 31
0.0
  0
POINT
  8
DEFPOINTS
  6
CONTINUOUS
 62
    30
 10
-485.50460607584068
 20
200.0000000000002
 30
0.0
  0
POINT
  8
DEFPOINTS
  6
CONTINUOUS
 62
    30
 10
-485.50460607584068
 20
-200.0
 30
0.0
  0
POINT
  8
DEFPOINTS
  6
CONTINUOUS
 62
    30
 10
-648.96346149452279
 20
-200.0
 30
0.0
  0
LINE
  8
SIZE
  6
CONTINUOUS
 62
    30
 10
-505.50460607584068
 20
450.00000000000023
 30
0.0
 11
-854.96538142710392
 21
450.00000000000023
 31
0.0
  0
LINE
  8
SIZE
  6
CONTINUOUS
 62
    30
 10
-505.50460607584068
 20
-450.0
 30
0.0
 11
-854.96538142710392
 21
-450.00000000000023
 31
0.0
  0
LINE
  8
SIZE
  6
CONTINUOUS
 62
    30
 10
-834.96538142710392
 20
438.00000000000023
 30
0.0
 11
-834.96538142710392
 21
-438.00000000000023
 31
0.0
  0
CIRCLE
  8
SIZE
  6
CONTINUOUS
 62
    30
 10
-834.96538142710392
 20
450.00000000000023
 30
0.0
 40
6.0
  0
LINE
  8
SIZE
  6
CONTINUOUS
 62
    30
 10
-834.96538142710392
 20
450.00000000000023
 30
0.0
 11
-834.96538142710392
 21
438.00000000000023
 31
0.0
  0
CIRCLE
  8
SIZE
  6
CONTINUOUS
 62
    30
 10
-834.96538142710392
 20
-450.00000000000023
 30
0.0
 40
6.0
  0
LINE
  8
SIZE
  6
CONTINUOUS
 62
    30
 10
-834.96538142710392
 20
-450.00000000000023
 30
0.0
 11
-834.96538142710392
 21
-438.00000000000023
 31
0.0
  0
TEXT
  8
SIZE
  6
CONTINUOUS
 62
    30
 10
-859.96538142710358
 20
-74.057142857142637
 30
0.0
 40
64.0
  1
900
 50
90.0
 41
0.9
 72
     1
 11
-859.96538142710358
 21
0.0000000000002274
 31
0.0
  0
POINT
  8
DEFPOINTS
  6
CONTINUOUS
 62
    30
 10
-485.50460607584068
 20
450.00000000000023
 30
0.0
  0
POINT
  8
DEFPOINTS
  6
CONTINUOUS
 62
    30
 10
-485.50460607584068
 20
-450.0
 30
0.0
  0
POINT
  8
DEFPOINTS
  6
CONTINUOUS
 62
    30
 10
-834.96538142710392
 20
-450.00000000000023
 30
0.0
  0
LINE
  8
SIZE
  6
CONTINUOUS
 62
    30
 10
-493.79999999999939
 20
475.00000000000023
 30
0.0
 11
-1053.9155399236149
 21
475.00000000000023
 31
0.0
  0
LINE
  8
SIZE
  6
CONTINUOUS
 62
    30
 10
-493.79999999999939
 20
-475.0
 30
0.0
 11
-1053.9155399236149
 21
-475.00000000000023
 31
0.0
  0
LINE
  8
SIZE
  6
CONTINUOUS
 62
    30
 10
-1033.9155399236149
 20
463.00000000000023
 30
0.0
 11
-1033.9155399236149
 21
-463.00000000000023
 31
0.0
  0
CIRCLE
  8
SIZE
  6
CONTINUOUS
 62
    30
 10
-1033.9155399236149
 20
475.00000000000023
 30
0.0
 40
6.0
  0
LINE
  8
SIZE
  6
CONTINUOUS
 62
    30
 10
-1033.9155399236149
 20
475.00000000000023
 30
0.0
 11
-1033.9155399236149
 21
463.00000000000023
 31
0.0
  0
CIRCLE
  8
SIZE
  6
CONTINUOUS
 62
    30
 10
-1033.9155399236149
 20
-475.00000000000023
 30
0.0
 40
6.0
  0
LINE
  8
SIZE
  6
CONTINUOUS
 62
    30
 10
-1033.9155399236149
 20
-475.00000000000023
 30
0.0
 11
-1033.9155399236149
 21
-463.00000000000023
 31
0.0
  0
TEXT
  8
SIZE
  6
CONTINUOUS
 62
    30
 10
-1058.915539923614
 20
-74.05714285714275
 30
0.0
 40
64.0
  1
950
 50
90.0
 41
0.9
 72
     1
 11
-1058.915539923614
 21
0.0000000000001137
 31
0.0
  0
POINT
  8
DEFPOINTS
  6
CONTINUOUS
 62
    30
 10
-473.79999999999939
 20
475.00000000000023
 30
0.0
  0
POINT
  8
DEFPOINTS
  6
CONTINUOUS
 62
    30
 10
-473.79999999999939
 20
-475.0
 30
0.0
  0
POINT
  8
DEFPOINTS
  6
CONTINUOUS
 62
    30
 10
-1033.9155399236149
 20
-475.00000000000023
 30
0.0
  0
LINE
  8
SIZE
  6
CONTINUOUS
 62
    30
 10
803.79277994758104
 20
-246.8141477728812
 30
0.0
 11
401.02028537183901
 21
-123.138055532351
 31
0.0
  0
LINE
  8
SIZE
  6
CONTINUOUS
 62
    30
 10
-401.02028537183992
 20
123.1380555323515
 30
0.0
 11
-412.49166421441942
 21
126.6604790517513
 31
0.0
  0
TEXT
  8
SIZE
  6
CONTINUOUS
 62
    30
 10
592.67787118747628
 20
-155.8367566297371
 30
0.0
 40
64.0
  1
φ815
 50
342.93027208676648
 41
0.9
 72
     1
 11
696.77244034185424
 21
-187.80023405149089
 31
0.0
  0
LINE
  8
SIZE
  6
CONTINUOUS
 62
    30
 10
-389.54890652926042
 20
119.61563201295171
 30
0.0
 11
389.54890652925951
 21
-119.6156320129512
 31
0.0
  0
CIRCLE
  8
SIZE
  6
CONTINUOUS
 62
    30
 10
-389.54890652926042
 20
119.61563201295171
 30
0.0
 40
6.0
  0
LINE
  8
SIZE
  6
CONTINUOUS
 62
    30
 10
-389.54890652926042
 20
119.61563201295171
 30
0.0
 11
-401.02028537183992
 21
123.1380555323515
 31
0.0
  0
CIRCLE
  8
SIZE
  6
CONTINUOUS
 62
    30
 10
389.54890652925951
 20
-119.6156320129512
 30
0.0
 40
6.0
  0
LINE
  8
SIZE
  6
CONTINUOUS
 62
    30
 10
389.54890652925951
 20
-119.6156320129512
 30
0.0
 11
401.02028537183872
 21
-123.138055532351
 31
0.0
  0
POINT
  8
DEFPOINTS
  6
CONTINUOUS
 62
    30
 10
389.54890652925951
 20
-119.6156320129512
 30
0.0
  0
POINT
  8
DEFPOINTS
  6
CONTINUOUS
 62
    30
 10
-389.54890652926042
 20
119.61563201295171
 30
0.0
  0
LINE
  8
SIZE
  6
CONTINUOUS
 62
    30
 10
803.27568237058301
 20
169.64412362087111
 30
0.0
 11
420.23078867326842
 21
88.748714081071057
 31
0.0
  0
LINE
  8
SIZE
  6
CONTINUOUS
 62
    30
 10
-420.23078867326649
 20
-88.748714081070716
 30
0.0
 11
-431.97181187251982
 21
-91.228305626991229
 31
0.0
  0
TEXT
  8
SIZE
  6
CONTINUOUS
 62
    30
 10
563.78699840996433
 20
144.61784515213739
 30
0.0
 40
64.0
  1
φ835
 50
11.92508830689394
 41
0.9
 72
     1
 11
675.69572238913111
 21
168.2518948583967
 31
0.0
  0
LINE
  8
SIZE
  6
CONTINUOUS
 62
    30
 10
-408.48976547401338
 20
-86.269122535150245
 30
0.0
 11
408.4897654740152
 21
86.269122535150586
 31
0.0
  0
CIRCLE
  8
SIZE
  6
CONTINUOUS
 62
    30
 10
-408.48976547401338
 20
-86.269122535150245
 30
0.0
 40
6.0
  0
LINE
  8
SIZE
  6
CONTINUOUS
 62
    30
 10
-408.48976547401338
 20
-86.269122535150245
 30
0.0
 11
-420.23078867326649
 21
-88.748714081070773
 31
0.0
  0
CIRCLE
  8
SIZE
  6
CONTINUOUS
 62
    30
 10
408.4897654740152
 20
86.269122535150586
 30
0.0
 40
6.0
  0
LINE
  8
SIZE
  6
CONTINUOUS
 62
    30
 10
408.4897654740152
 20
86.269122535150586
 30
0.0
 11
420.23078867326842
 21
88.748714081071057
 31
0.0
  0
POINT
  8
DEFPOINTS
  6
CONTINUOUS
 62
    30
 10
408.4897654740152
 20
86.269122535150586
 30
0.0
  0
POINT
  8
DEFPOINTS
  6
CONTINUOUS
 62
    30
 10
-408.48976547401338
 20
-86.269122535150245
 30
0.0
  0
TEXT
  8
NOTE
  6
CONTINUOUS
 62
     4
 10
-863.94541779943211
 20
539.63266542852853
 30
0.0
 40
64.0
  1
12-φ15
 41
0.9
  0
LINE
  8
NOTE
  6
CONTINUOUS
 62
     4
 10
-452.7633986396313
 20
455.56312207743832
 30
0.0
 11
-449.99999999999898
 21
450.0
 31
0.0
  0
LINE
  8
NOTE
  6
CONTINUOUS
 62
     4
 10
-449.99999999999898
 20
450.0
 30
0.0
 11
-455.1747396394349
 21
453.43609792556208
 31
0.0
  0
LINE
  8
NOTE
  6
CONTINUOUS
 62
     4
 10
-449.99999999999898
 20
450.0
 30
0.0
 11
-457.93813827906712
 21
458.999220003
 31
0.0
  0
LINE
  8
NOTE
  6
CONTINUOUS
 62
     4
 10
-457.93813827906712
 20
458.999220003
 30
0.0
 11
-506.1035928794999
 21
513.60289497761551
 31
0.0
  0
LINE
  8
NOTE
  6
CONTINUOUS
 62
     4
 10
-506.1035928794999
 20
513.60289497761551
 30
0.0
 11
-871.06886840331833
 21
513.76434982679621
 31
0.0
  0
TEXT
  8
ETC
  6
CONTINUOUS
 62
    61
 10
549.77941826434562
 20
797.16963384825374
 30
0.0
 40
64.0
  1
EWH-80JTA2-Q-50_3
 41
0.9
  0
TEXT
  8
ETC
  6
CONTINUOUS
 62
    61
 10
545.59342426434432
 20
679.2143238334229
 30
0.0
 40
64.0
  1
有圧換気扇
 41
0.9
  0
TEXT
  8
ETC
  6
CONTINUOUS
 62
    61
 10
596.88006484054404
 20
571.51106903723849
 30
0.0
 40
40.0
  1
EWH-80JTA2-Q-50
 41
0.9
  0
TEXT
  8
ETC
  6
CONTINUOUS
 62
    61
 10
596.88006484054404
 20
489.02970775287582
 30
0.0
 40
40.0
  1
EWH-80JTA2-Q-60
 41
0.9
  0
CIRCLE
  8
FIX
  6
CONTINUOUS
 62
    11
 10
-449.99999999999898
 20
450.0
 30
0.0
 40
7.0
  0
CIRCLE
  8
FIX
  6
CONTINUOUS
 62
    11
 10
-449.99999999999818
 20
-450.0
 30
0.0
 40
7.0
  0
LINE
  8
NOTE
  6
CONTINUOUS
 62
     4
 10
-414.49539392415682
 20
-450.0
 30
0.0
 11
-485.5046060758396
 21
-450.0
 31
0.0
  0
LINE
  8
NOTE
  6
CONTINUOUS
 62
     4
 10
-449.99999999999818
 20
-485.50460607584108
 30
0.0
 11
-449.99999999999818
 21
-414.49539392338232
 31
0.0
  0
CIRCLE
  8
FIX
  6
CONTINUOUS
 62
    11
 10
-449.99999999999818
 20
-199.99999999999989
 30
0.0
 40
7.0
  0
LINE
  8
NOTE
  6
CONTINUOUS
 62
     4
 10
-414.49539392415682
 20
-199.99999999999989
 30
0.0
 11
-485.5046060758396
 21
-199.99999999999989
 31
0.0
  0
LINE
  8
NOTE
  6
CONTINUOUS
 62
     4
 10
-449.99999999999818
 20
-235.50460607584131
 30
0.0
 11
-449.99999999999818
 21
-164.4953939233823
 31
0.0
  0
CIRCLE
  8
FIX
  6
CONTINUOUS
 62
    11
 10
-199.99999999999821
 20
-450.0
 30
0.0
 40
7.0
  0
LINE
  8
NOTE
  6
CONTINUOUS
 62
     4
 10
-164.49539392415679
 20
-450.0
 30
0.0
 11
-235.50460607583949
 21
-450.0
 31
0.0
  0
LINE
  8
NOTE
  6
CONTINUOUS
 62
     4
 10
-199.99999999999821
 20
-485.50460607584108
 30
0.0
 11
-199.99999999999821
 21
-414.49539392338232
 31
0.0
  0
CIRCLE
  8
FIX
  6
CONTINUOUS
 62
    11
 10
200.00000000000179
 20
-450.0
 30
0.0
 40
7.0
  0
LINE
  8
NOTE
  6
CONTINUOUS
 62
     4
 10
235.50460607584321
 20
-450.0
 30
0.0
 11
164.4953939241604
 21
-450.0
 31
0.0
  0
LINE
  8
NOTE
  6
CONTINUOUS
 62
     4
 10
200.00000000000179
 20
-485.50460607584142
 30
0.0
 11
200.00000000000179
 21
-414.49539392338232
 31
0.0
  0
CIRCLE
  8
FIX
  6
CONTINUOUS
 62
    11
 10
450.00000000000182
 20
-450.0
 30
0.0
 40
7.0
  0
LINE
  8
NOTE
  6
CONTINUOUS
 62
     4
 10
485.50460607584318
 20
-450.0
 30
0.0
 11
414.4953939241604
 21
-450.0
 31
0.0
  0
LINE
  8
NOTE
  6
CONTINUOUS
 62
     4
 10
450.00000000000182
 20
-485.50460607584142
 30
0.0
 11
450.00000000000182
 21
-414.49539392338232
 31
0.0
  0
CIRCLE
  8
FIX
  6
CONTINUOUS
 62
    11
 10
450.00000000000182
 20
-200.00000000000011
 30
0.0
 40
7.0
  0
LINE
  8
NOTE
  6
CONTINUOUS
 62
     4
 10
485.50460607584318
 20
-200.00000000000011
 30
0.0
 11
414.4953939241604
 21
-200.00000000000011
 31
0.0
  0
LINE
  8
NOTE
  6
CONTINUOUS
 62
     4
 10
450.00000000000182
 20
-235.50460607584139
 30
0.0
 11
450.00000000000182
 21
-164.49539392338241
 31
0.0
  0
CIRCLE
  8
FIX
  6
CONTINUOUS
 62
    11
 10
450.00000000000182
 20
200.0
 30
0.0
 40
7.0
  0
LINE
  8
NOTE
  6
CONTINUOUS
 62
     4
 10
485.50460607584318
 20
200.0
 30
0.0
 11
414.4953939241604
 21
200.0
 31
0.0
  0
LINE
  8
NOTE
  6
CONTINUOUS
 62
     4
 10
450.00000000000182
 20
164.49539392415861
 30
0.0
 11
450.00000000000182
 21
235.50460607661759
 31
0.0
  0
CIRCLE
  8
FIX
  6
CONTINUOUS
 62
    11
 10
450.00000000000182
 20
450.0
 30
0.0
 40
7.0
  0
LINE
  8
NOTE
  6
CONTINUOUS
 62
     4
 10
485.50460607584318
 20
450.0
 30
0.0
 11
414.4953939241604
 21
450.0
 31
0.0
  0
LINE
  8
NOTE
  6
CONTINUOUS
 62
     4
 10
450.00000000000182
 20
414.49539392415858
 30
0.0
 11
450.00000000000182
 21
485.50460607661762
 31
0.0
  0
CIRCLE
  8
FIX
  6
CONTINUOUS
 62
    11
 10
200.00000000000179
 20
450.0
 30
0.0
 40
7.0
  0
LINE
  8
NOTE
  6
CONTINUOUS
 62
     4
 10
235.50460607584321
 20
450.0
 30
0.0
 11
164.4953939241604
 21
450.0
 31
0.0
  0
LINE
  8
NOTE
  6
CONTINUOUS
 62
     4
 10
200.00000000000179
 20
414.49539392415858
 30
0.0
 11
200.00000000000179
 21
485.50460607661762
 31
0.0
  0
CIRCLE
  8
FIX
  6
CONTINUOUS
 62
    11
 10
-199.99999999999821
 20
450.0
 30
0.0
 40
7.0
  0
LINE
  8
NOTE
  6
CONTINUOUS
 62
     4
 10
-164.49539392415679
 20
450.0
 30
0.0
 11
-235.50460607583949
 21
450.0
 31
0.0
  0
LINE
  8
NOTE
  6
CONTINUOUS
 62
     4
 10
-199.99999999999821
 20
414.49539392415858
 30
0.0
 11
-199.99999999999821
 21
485.50460607661762
 31
0.0
  0
CIRCLE
  8
FIX
  6
CONTINUOUS
 62
    11
 10
-449.99999999999818
 20
200.00000000000011
 30
0.0
 40
7.0
  0
LINE
  8
NOTE
  6
CONTINUOUS
 62
     4
 10
-414.49539392415682
 20
200.00000000000011
 30
0.0
 11
-485.5046060758396
 21
200.00000000000011
 31
0.0
  0
LINE
  8
NOTE
  6
CONTINUOUS
 62
     4
 10
-449.99999999999818
 20
164.49539392415861
 30
0.0
 11
-449.99999999999818
 21
235.5046060766177
 31
0.0
  0
CIRCLE
  8
DETAIL
  6
CONTINUOUS
 62
     5
 10
417.89735213410307
 20
318.902402768
 30
0.0
 40
9.5
  0
CIRCLE
  8
DETAIL
  6
CONTINUOUS
 62
     5
 10
318.90240276800353
 20
417.89735213410012
 30
0.0
 40
9.5
  0
CIRCLE
  8
DETAIL
  6
CONTINUOUS
 62
     5
 10
417.89735213410307
 20
-318.90240276799989
 30
0.0
 40
9.5
  0
CIRCLE
  8
DETAIL
  6
CONTINUOUS
 62
     5
 10
318.90240276800353
 20
-417.89735213409972
 30
0.0
 40
9.5
  0
CIRCLE
  8
DETAIL
  6
CONTINUOUS
 62
     5
 10
-318.90240276809698
 20
417.89735213410012
 30
0.0
 40
9.5
  0
CIRCLE
  8
DETAIL
  6
CONTINUOUS
 62
     5
 10
-417.89735213419669
 20
318.90240276800017
 30
0.0
 40
9.5
  0
CIRCLE
  8
DETAIL
  6
CONTINUOUS
 62
     5
 10
-318.90240276809698
 20
-417.89735213409972
 30
0.0
 40
9.5
  0
CIRCLE
  8
DETAIL
  6
CONTINUOUS
 62
     5
 10
-417.89735213419669
 20
-318.90240276799989
 30
0.0
 40
9.5
  0
CIRCLE
  8
DETAIL
  6
CONTINUOUS
 62
     5
 10
-417.89735213419669
 20
318.90240276800017
 30
0.0
 40
31.258449344799999
  0
CIRCLE
  8
DETAIL
  6
CONTINUOUS
 62
     5
 10
-417.89735213419669
 20
318.90240276800017
 30
0.0
 40
20.370775291699999
  0
CIRCLE
  8
DETAIL
  6
CONTINUOUS
 62
     5
 10
-318.90240276809698
 20
417.89735213410012
 30
0.0
 40
31.258449344799999
  0
CIRCLE
  8
DETAIL
  6
CONTINUOUS
 62
     5
 10
-318.90240276809698
 20
417.89735213410012
 30
0.0
 40
20.370775291699999
  0
CIRCLE
  8
DETAIL
  6
CONTINUOUS
 62
     5
 10
318.90240276800353
 20
417.89735213410012
 30
0.0
 40
31.258449344799999
  0
CIRCLE
  8
DETAIL
  6
CONTINUOUS
 62
     5
 10
318.90240276800353
 20
417.89735213410012
 30
0.0
 40
20.370775291699999
  0
CIRCLE
  8
DETAIL
  6
CONTINUOUS
 62
     5
 10
417.89735213410307
 20
318.902402768
 30
0.0
 40
31.258449344799999
  0
CIRCLE
  8
DETAIL
  6
CONTINUOUS
 62
     5
 10
417.89735213410307
 20
318.902402768
 30
0.0
 40
20.370775291699999
  0
CIRCLE
  8
DETAIL
  6
CONTINUOUS
 62
     5
 10
417.89735213410307
 20
-318.90240276799989
 30
0.0
 40
31.258449344799999
  0
CIRCLE
  8
DETAIL
  6
CONTINUOUS
 62
     5
 10
417.89735213410307
 20
-318.90240276799989
 30
0.0
 40
20.370775291699999
  0
CIRCLE
  8
DETAIL
  6
CONTINUOUS
 62
     5
 10
318.90240276800353
 20
-417.89735213409972
 30
0.0
 40
31.258449344799999
  0
CIRCLE
  8
DETAIL
  6
CONTINUOUS
 62
     5
 10
318.90240276800353
 20
-417.89735213409972
 30
0.0
 40
20.370775291699999
  0
CIRCLE
  8
DETAIL
  6
CONTINUOUS
 62
     5
 10
-318.90240276809698
 20
-417.89735213409972
 30
0.0
 40
31.258449344799999
  0
CIRCLE
  8
DETAIL
  6
CONTINUOUS
 62
     5
 10
-318.90240276809698
 20
-417.89735213409972
 30
0.0
 40
20.370775291699999
  0
CIRCLE
  8
DETAIL
  6
CONTINUOUS
 62
     5
 10
-417.89735213419669
 20
-318.90240276799989
 30
0.0
 40
31.258449344799999
  0
CIRCLE
  8
DETAIL
  6
CONTINUOUS
 62
     5
 10
-417.89735213419669
 20
-318.90240276799989
 30
0.0
 40
20.370775291699999
  0
CIRCLE
  8
ARRANGE
  6
CONTINUOUS
 62
     1
 10
0.0
 20
0.0
 30
0.0
 40
40.0
  0
ARC
  8
DETAIL
  6
CONTINUOUS
 62
     5
 10
347.39917187350602
 20
-384.47844912911768
 30
0.0
 40
575.24041021767675
 50
154.1505386173998
 51
175.41416563640561
  0
ARC
  8
DETAIL
  6
CONTINUOUS
 62
     5
 10
-162.75759486973101
 20
-138.51771235197111
 30
0.0
 40
8.9532700246660344
 50
38.907960920420287
 51
161.31016942713919
  0
ARC
  8
DETAIL
  6
CONTINUOUS
 62
     5
 10
-316.89316941018302
 20
-22.65383856041808
 30
0.0
 40
195.2102416919322
 50
325.61663259378992
 51
357.73855876011407
  0
ARC
  8
DETAIL
  6
CONTINUOUS
 62
     5
 10
-1.3115783037742399
 20
-3.0781624392781168
 30
0.0
 40
403.71220259010482
 50
236.18209936086151
 51
296.05148768833823
  0
ARC
  8
DETAIL
  6
CONTINUOUS
 62
     5
 10
173.4170291187238
 20
-362.66049967712257
 30
0.0
 40
4.038506072043865
 50
309.58035869763188
 51
72.030302765409985
  0
ARC
  8
DETAIL
  6
CONTINUOUS
 62
     5
 10
218.30267320360281
 20
-171.21316514607881
 30
0.0
 40
192.70104667075151
 50
178.0923754443983
 51
256.97372868115508
  0
ARC
  8
DETAIL
  6
CONTINUOUS
 62
     5
 10
187.69846107605639
 20
494.04292088651249
 30
0.0
 40
575.24041021767675
 50
271.45344438651023
 51
292.49816120445831
  0
ARC
  8
DETAIL
  6
CONTINUOUS
 62
     5
 10
200.9822251652358
 20
-72.15505888866528
 30
0.0
 40
8.9532700246660344
 50
155.99195648830059
 51
278.39416499507161
  0
ARC
  8
DETAIL
  6
CONTINUOUS
 62
     5
 10
153.37454291979611
 20
-254.03038119436741
 30
0.0
 40
189.661822836211
 50
78.001215565717871
 51
101.864027567674
  0
ARC
  8
DETAIL
  6
CONTINUOUS
 62
     5
 10
-5.2209423627798506
 20
-5.8676359787722276
 30
0.0
 40
414.24049873105758
 50
355.63201399913822
 51
55.359462507083371
  0
ARC
  8
DETAIL
  6
CONTINUOUS
 62
     5
 10
227.75364822636311
 20
330.96095517158318
 30
0.0
 40
4.6960999314360654
 50
57.972401870133837
 51
222.39494863913669
  0
ARC
  8
DETAIL
  6
CONTINUOUS
 62
     5
 10
27.385149827162191
 20
280.9190806091583
 30
0.0
 40
202.40324175866741
 50
304.62010655335609
 51
13.390997216641249
  0
ARC
  8
DETAIL
  6
CONTINUOUS
 62
     5
 10
92.836346329025446
 20
-140.43478320286121
 30
0.0
 40
251.03535059778281
 50
76.115789623323877
 51
96.499405368396978
  0
ARC
  8
DETAIL
  6
CONTINUOUS
 62
     5
 10
-12218.603963249931
 20
-11822.467916656349
 30
0.0
 40
17183.75882465249
 50
43.948534251528997
 51
43.999907145954538
  0
ARC
  8
DETAIL
  6
CONTINUOUS
 62
     5
 10
-684.16119478413157
 20
-268.88981885624918
 30
0.0
 40
821.14170367774227
 50
34.316320464147701
 51
51.238823493189159
  0
ARC
  8
DETAIL
  6
CONTINUOUS
 62
     5
 10
6.8657527192940506
 20
-3.148692402513575
 30
0.0
 40
414.24049873105758
 50
115.28489115529349
 51
175.0123396633617
  0
ARC
  8
DETAIL
  6
CONTINUOUS
 62
     5
 10
-401.11413483680832
 20
32.671288421330701
 30
0.0
 40
4.6960999314360654
 50
177.62527902637041
 51
342.04782579530462
  0
ARC
  8
DETAIL
  6
CONTINUOUS
 62
     5
 10
-254.26503108081059
 20
-144.7518024644215
 30
0.0
 40
226.36244887970719
 50
64.053328909105019
 51
128.97627121436761
  0
ARC
  8
DETAIL
  6
CONTINUOUS
 62
     5
 10
-1014.206454679809
 20
-256.70160527881848
 30
0.0
 40
924.34580278750013
 50
16.207353519160719
 51
20.935078523780891
  0
ARC
  8
DETAIL
  6
CONTINUOUS
 62
     5
 10
16333.858969675561
 20
-4777.705133786335
 30
0.0
 40
17183.75882465249
 50
163.6014114077457
 51
163.65278430215699
  0
ARC
  8
DETAIL
  6
CONTINUOUS
 62
     5
 10
-1377.2573160153911
 20
-532.75558278074186
 30
0.0
 40
1049.6531715739541
 50
358.98704695293458
 51
3.1542068319077949
  0
ARC
  8
DETAIL
  6
CONTINUOUS
 62
     5
 10
-1308.6810605174689
 20
-525.84126249536348
 30
0.0
 40
971.57935083004361
 50
358.67165083601009
 51
2.9995705747968988
  0
LINE
  8
DETAIL
  6
CONTINUOUS
 62
     5
 10
-327.7681799540988
 20
-551.3118185141002
 30
0.0
 11
-337.36281039949972
 21
-548.36440497359899
 31
0.0
  0
ARC
  8
DETAIL
  6
CONTINUOUS
 62
     5
 10
-280.08555608212191
 20
-559.09941315990864
 30
0.0
 40
48.314379326281447
 50
170.72426569432309
 51
207.02070898602781
  0
ARC
  8
DETAIL
  6
CONTINUOUS
 62
     5
 10
-280.31968218049587
 20
-559.23415973810779
 30
0.0
 40
51.349002294770898
 50
170.03842779613191
 51
206.91427267792989
  0
ARC
  8
DETAIL
  6
CONTINUOUS
 62
     5
 10
-247.5707238382129
 20
-568.29344892271831
 30
0.0
 40
85.257853065428932
 50
167.84670484523531
 51
188.94059456599399
  0
ARC
  8
DETAIL
  6
CONTINUOUS
 62
     5
 10
-237.216625573481
 20
-568.62578447382339
 30
0.0
 40
98.759488139597707
 50
168.75812127350051
 51
187.77335319189541
  0
ARC
  8
DETAIL
  6
CONTINUOUS
 62
     5
 10
-31147.085756180899
 20
5596.2763907825192
 30
0.0
 40
31419.902117052108
 50
348.65954104969092
 51
348.72038009611742
  0
ARC
  8
DETAIL
  6
CONTINUOUS
 62
     5
 10
-1602.9326803168731
 20
-316.72640776753678
 30
0.0
 40
1286.5936644458959
 50
348.12676288024409
 51
349.62792506498602
  0
LINE
  8
DETAIL
  6
CONTINUOUS
 62
     5
 10
-323.1260525401886
 20
-581.0492403648559
 30
0.0
 11
-326.10680692374081
 21
-582.47763719770501
 31
0.0
  0
LINE
  8
DETAIL
  6
CONTINUOUS
 62
     5
 10
-331.7926943411876
 20
-581.5433996365341
 30
0.0
 11
-335.06859807908768
 21
-581.98347792561344
 31
0.0
  0
LINE
  8
DETAIL
  6
CONTINUOUS
 62
     5
 10
-340.62429074833562
 20
-582.08755317206987
 30
0.0
 11
-343.8654346292314
 21
-581.43932439392893
 31
0.0
  0
ARC
  8
DETAIL
  6
CONTINUOUS
 62
     5
 10
492.69871218266212
 20
-537.25119161727434
 30
0.0
 40
606.34288945091146
 50
135.23760786844031
 51
142.52003837804929
  0
ARC
  8
DETAIL
  6
CONTINUOUS
 62
     5
 10
1238.9438929829171
 20
-5107.7000740971653
 30
0.0
 40
5089.6184822687792
 50
103.7906243087637
 51
103.9550843064782
  0
ARC
  8
DETAIL
  6
CONTINUOUS
 62
     5
 10
-13.064938697487831
 20
188.60413128318919
 30
0.0
 40
8.9532700246660344
 50
274.96553182323629
 51
37.367740329924992
  0
ARC
  8
DETAIL
  6
CONTINUOUS
 62
     5
 10
77.554847878027203
 20
203.11970012799
 30
0.0
 40
92.850969977415204
 50
194.61935544565571
 51
244.92933527970149
  0
CIRCLE
  8
DETAIL
  6
CONTINUOUS
 62
     5
 10
-54.800775541997609
 20
-54.800775541999883
 30
0.0
 40
5.0
  0
ENDSEC
  0
EOF
