  0
SECTION
  2
HEADER
  9
$ACADVER
  1
AC1009
  9
$DWGCODEPAGE
  3
dos932
  9
$INSBASE
 10
0.0
 20
0.0
 30
0.0
  9
$EXTMIN
 10
-429.6203445405954
 20
-269.80589629361202
 30
-0.0015257624927045
  9
$EXTMAX
 10
1046.8597528022469
 20
614.59351390902157
 30
0.0022888765696933
  9
$LIMMIN
 10
-2970.0
 20
-2100.0
  9
$LIMMAX
 10
2970.0
 20
2100.0
  9
$ORTHOMODE
 70
     1
  9
$REGENMODE
 70
     1
  9
$FILLMODE
 70
     1
  9
$QTEXTMODE
 70
     0
  9
$MIRRTEXT
 70
     0
  9
$LTSCALE
 40
20.0
  9
$ATTMODE
 70
     1
  9
$TEXTSIZE
 40
64.0
  9
$TRACEWID
 40
0.05
  9
$TEXTSTYLE
  7
STANDARD
  9
$CLAYER
  8
NOTE
  9
$CELTYPE
  6
CONTINUOUS
  9
$CECOLOR
 62
     7
  9
$DIMSCALE
 40
1.0
  9
$DIMASZ
 40
12.0
  9
$DIMEXO
 40
20.0
  9
$DIMDLI
 40
200.0
  9
$DIMRND
 40
0.0
  9
$DIMDLE
 40
0.0
  9
$DIMEXE
 40
20.0
  9
$DIMTP
 40
0.0
  9
$DIMTM
 40
0.0
  9
$DIMTXT
 40
64.0
  9
$DIMCEN
 40
0.09
  9
$DIMTSZ
 40
0.0
  9
$DIMTOL
 70
     0
  9
$DIMLIM
 70
     0
  9
$DIMTIH
 70
     0
  9
$DIMTOH
 70
     0
  9
$DIMSE1
 70
     0
  9
$DIMSE2
 70
     0
  9
$DIMTAD
 70
     1
  9
$DIMZIN
 70
     8
  9
$DIMBLK
  1

  9
$DIMASO
 70
     1
  9
$DIMSHO
 70
     0
  9
$DIMPOST
  1

  9
$DIMAPOST
  1

  9
$DIMALT
 70
     0
  9
$DIMALTD
 70
     2
  9
$DIMALTF
 40
25.399999999999999
  9
$DIMLFAC
 40
1.0
  9
$DIMTOFL
 70
     1
  9
$DIMTVP
 40
0.0
  9
$DIMTIX
 70
     1
  9
$DIMSOXD
 70
     0
  9
$DIMSAH
 70
     0
  9
$DIMBLK1
  1

  9
$DIMBLK2
  1

  9
$DIMSTYLE
  2
STANDARD
  9
$DIMCLRD
 70
     7
  9
$DIMCLRE
 70
     7
  9
$DIMCLRT
 70
     7
  9
$DIMTFAC
 40
1.0
  9
$DIMGAP
 40
25.0
  9
$LUNITS
 70
     2
  9
$LUPREC
 70
     4
  9
$SKETCHINC
 40
0.1
  9
$FILLETRAD
 40
3.0
  9
$AUNITS
 70
     1
  9
$AUPREC
 70
     3
  9
$MENU
  1
ACAD
  9
$ELEVATION
 40
0.0
  9
$PELEVATION
 40
0.0
  9
$THICKNESS
 40
50.0
  9
$LIMCHECK
 70
     0
  9
$CHAMFERA
 40
0.0
  9
$CHAMFERB
 40
0.0
  9
$SKPOLY
 70
     0
  9
$TDCREATE
 40
2453019.62301037
  9
$TDUPDATE
 40
2459017.504100116
  9
$TDINDWG
 40
1.7206236921
  9
$TDUSRTIMER
 40
1.7206236921
  9
$USRTIMER
 70
     1
  9
$ANGBASE
 50
0.0
  9
$ANGDIR
 70
     0
  9
$PDMODE
 70
     3
  9
$PDSIZE
 40
-2.0
  9
$PLINEWID
 40
0.0
  9
$SPLFRAME
 70
     0
  9
$SPLINETYPE
 70
     6
  9
$SPLINESEGS
 70
     8
  9
$SURFTAB1
 70
     6
  9
$SURFTAB2
 70
     6
  9
$SURFTYPE
 70
     6
  9
$SURFU
 70
     6
  9
$SURFV
 70
     6
  9
$UCSNAME
  2

  9
$UCSORG
 10
0.0
 20
0.0
 30
0.0
  9
$UCSXDIR
 10
1.0
 20
0.0
 30
0.0
  9
$UCSYDIR
 10
0.0
 20
1.0
 30
0.0
  9
$PUCSNAME
  2

  9
$PUCSORG
 10
0.0
 20
0.0
 30
0.0
  9
$PUCSXDIR
 10
1.0
 20
0.0
 30
0.0
  9
$PUCSYDIR
 10
0.0
 20
1.0
 30
0.0
  9
$USERI1
 70
     0
  9
$USERI2
 70
     0
  9
$USERI3
 70
     0
  9
$USERI4
 70
     0
  9
$USERI5
 70
     0
  9
$USERR1
 40
20.0
  9
$USERR2
 40
0.0
  9
$USERR3
 40
0.0
  9
$USERR4
 40
0.0
  9
$USERR5
 40
0.0
  9
$WORLDVIEW
 70
     1
  9
$SHADEDGE
 70
     3
  9
$SHADEDIF
 70
    70
  9
$TILEMODE
 70
     1
  9
$MAXACTVP
 70
    48
  9
$PINSBASE
 10
0.0
 20
0.0
 30
0.0
  9
$PLIMCHECK
 70
     0
  9
$PEXTMIN
 10
-100000000000000000000.0
 20
-100000000000000000000.0
 30
-100000000000000000000.0
  9
$PEXTMAX
 10
100000000000000000000.0
 20
100000000000000000000.0
 30
100000000000000000000.0
  9
$PLIMMIN
 10
0.0
 20
0.0
  9
$PLIMMAX
 10
12.0
 20
9.0
  9
$UNITMODE
 70
     0
  9
$VISRETAIN
 70
     0
  9
$PLINEGEN
 70
     0
  9
$PSLTSCALE
 70
     0
  9
$TREEDEPTH
 70
  3020
  9
$ATTDIA
 70
     0
  9
$ATTREQ
 70
     1
  9
$BLIPMODE
 70
     1
  9
$COORDS
 70
     1
  9
$DRAGMODE
 70
     2
  9
$OSMODE
 70
     0
  9
$HANDLING
 70
     0
  9
$HANDSEED
  5
ECA8
  0
ENDSEC
  0
SECTION
  2
TABLES
  0
TABLE
  2
LTYPE
 70
     2
  0
LTYPE
  2
CONTINUOUS
 70
     0
  3
実線
 72
    65
 73
     0
 40
0.0
  0
LTYPE
  2
DASHDOT
 70
     0
  3
____ _ ____ _ ____ _ ____ _ ____ _ ____ _ ____
 72
    65
 73
     4
 40
5.5
 49
4.0
 49
-0.6
 49
0.3
 49
-0.6
  0
ENDTAB
  0
TABLE
  2
LAYER
 70
    12
  0
LAYER
  2
0
 70
     0
 62
     7
  6
CONTINUOUS
  0
LAYER
  2
BASIS
 70
     0
 62
     6
  6
DASHDOT
  0
LAYER
  2
OUTLINE
 70
     0
 62
     3
  6
CONTINUOUS
  0
LAYER
  2
DETAIL
 70
     0
 62
     5
  6
CONTINUOUS
  0
LAYER
  2
SIZE
 70
     0
 62
    30
  6
CONTINUOUS
  0
LAYER
  2
ARRANGE
 70
     0
 62
     1
  6
CONTINUOUS
  0
LAYER
  2
DEFPOINTS
 70
     0
 62
     7
  6
CONTINUOUS
  0
LAYER
  2
ETC
 70
     0
 62
    61
  6
CONTINUOUS
  0
LAYER
  2
FIX
 70
     0
 62
    11
  6
CONTINUOUS
  0
LAYER
  2
NOTE
 70
     0
 62
     4
  6
CONTINUOUS
  0
LAYER
  2
SERVICESPACE
 70
    64
 62
     2
  6
DASHDOT
  0
LAYER
  2
SYMBOLLINE
 70
    64
 62
    15
  6
CONTINUOUS
  0
ENDTAB
  0
TABLE
  2
STYLE
 70
     1
  0
STYLE
  2
STANDARD
 70
     0
 40
64.0
 41
0.9
 50
0.0
 71
     0
 42
64.0
  3
SIMPLEX.shx
  4
BIGFONT.shx
  0
ENDTAB
  0
TABLE
  2
APPID
 70
    17
  0
APPID
  2
ACAD
 70
     0
  0
APPID
  2
AUTOCAD_POSTSCRIPT_FIGURE
 70
     0
  0
APPID
  2
ACAD_EXEMPT_FROM_CAD_STANDARDS
 70
     0
  0
APPID
  2
ACAD_PSEXT
 70
     0
  0
APPID
  2
ACAUTHENVIRON
 70
     0
  0
APPID
  2
GENIUS_GENOENT_13
 70
     0
  0
APPID
  2
GENIUS_GENCFG_13
 70
     0
  0
APPID
  2
GENIUS_GENCFG0_13
 70
     0
  0
APPID
  2
GENIUS_GENCFG1_13
 70
     0
  0
APPID
  2
GENIUS_GENCFG2_13
 70
     0
  0
APPID
  2
GENIUS_GENCFG3_13
 70
     0
  0
APPID
  2
GENIUS_GENCFG4_13
 70
     0
  0
APPID
  2
GENIUS_GEVCFG0_13
 70
     0
  0
APPID
  2
CONTENTBLOCKICON
 70
     0
  0
APPID
  2
CONTENTBLOCKDESCRIPTION
 70
     0
  0
APPID
  2
ACAD_NAV_VCDISPLAY
 70
     0
  0
APPID
  2
ACAD_MLEADERVER
 70
     0
  0
ENDTAB
  0
TABLE
  2
DIMSTYLE
 70
     1
  0
DIMSTYLE
  2
STANDARD
 70
     0
  3

  4

  5
_ORIGIN
  6

  7

 40
1.0
 41
12.0
 42
20.0
 43
200.0
 44
20.0
 45
0.0
 46
0.0
 47
0.0
 48
0.0
140
64.0
141
0.09
142
0.0
143
25.399999999999999
144
1.0
145
0.0
146
1.0
147
25.0
 71
     0
 72
     0
 73
     0
 74
     0
 75
     0
 76
     0
 77
     1
 78
     8
170
     0
171
     2
172
     1
173
     0
174
     1
175
     0
176
     7
177
     7
178
     7
  0
ENDTAB
  0
TABLE
  2
VIEW
 70
     1
  0
VIEW
  2
ALL
 70
     0
 40
4282.6198079999986
 10
0.0
 20
41.309904000000003
 41
5940.0
 11
0.0
 21
0.0
 31
1.0
 12
0.0
 22
0.0
 32
0.0
 42
50.0
 43
0.0
 44
0.0
 50
0.0
 71
     0
  0
ENDTAB
  0
TABLE
  2
UCS
 70
     0
  0
ENDTAB
  0
TABLE
  2
VPORT
 70
     1
  0
VPORT
  2
*ACTIVE
 70
     0
 10
0.0
 20
0.0
 11
1.0
 21
1.0
 12
308.61970413082588
 22
172.3938088077048
 13
0.0
 23
0.0
 14
1.0
 24
1.0
 15
0.0
 25
0.0
 16
0.0
 26
0.0
 36
1.0
 17
0.0
 27
0.0
 37
0.0
 40
568.58775328894524
 41
2.2114384748700169
 42
50.0
 43
0.0
 44
0.0
 50
0.0
 51
0.0
 71
     0
 72
  1000
 73
     1
 74
     3
 75
     0
 76
     0
 77
     0
 78
     0
  0
ENDTAB
  0
ENDSEC
  0
SECTION
  2
BLOCKS
  0
BLOCK
  8
0
  2
_ORIGIN
 70
     0
 10
0.0
 20
0.0
 30
0.0
  3
_ORIGIN
  1
_ORIGIN
  0
CIRCLE
  8
0
  6
CONTINUOUS
 62
     7
 10
0.0
 20
0.0
 30
0.0
 40
0.5
  0
LINE
  8
0
  6
CONTINUOUS
 62
     7
 10
0.0
 20
0.0
 30
0.0
 11
-1.0
 21
0.0
 31
0.0
  0
ENDBLK
  8
0
  0
ENDSEC
  0
SECTION
  2
ENTITIES
  0
POINT
  8
ARRANGE
  6
CONTINUOUS
 62
     1
 10
0.0
 20
0.0
 30
0.0
  0
LINE
  8
BASIS
  6
DASHDOT
 62
     6
 10
0.0
 20
267.16741899999988
 30
0.0
 11
0.0
 21
-133.34905900000001
 31
0.0
  0
LINE
  8
NOTE
  6
CONTINUOUS
 62
     4
 10
136.49999999999989
 20
0.0
 30
0.0
 11
96.5
 21
0.0
 31
0.0
  0
LINE
  8
NOTE
  6
CONTINUOUS
 62
     4
 10
116.5
 20
-20.0
 30
0.0
 11
116.5
 21
20.0
 31
0.0
  0
LINE
  8
NOTE
  6
CONTINUOUS
 62
     4
 10
175.71759800000001
 20
-175.46320900000001
 30
0.0
 11
116.53402699999999
 21
0.3176829999999882
 31
0.0
  0
LINE
  8
NOTE
  6
CONTINUOUS
 62
     4
 10
117.9920759999999
 20
-39.655734000000002
 30
0.0
 11
116.53402699999999
 21
0.3176829999999882
 31
0.0
  0
LINE
  8
NOTE
  6
CONTINUOUS
 62
     4
 10
116.53402699999999
 20
0.3176829999999882
 30
0.0
 11
137.78344300000001
 21
-33.571286999999977
 31
0.0
  0
CIRCLE
  8
ARRANGE
  6
CONTINUOUS
 62
     1
 10
0.0
 20
0.0
 30
0.0
 40
40.0
  0
LINE
  8
DETAIL
  6
CONTINUOUS
 62
     5
 10
-116.5
 20
0.0
 30
0.0
 11
-116.5
 21
-50.0
 31
0.0
  0
LINE
  8
DETAIL
  6
CONTINUOUS
 62
     5
 10
-116.5
 20
0.0
 30
0.0
 11
116.5
 21
0.0
 31
0.0
  0
LINE
  8
SIZE
  6
CONTINUOUS
 62
    30
 10
116.5
 20
20.0
 30
0.0
 11
116.5
 21
543.18581199999994
 31
0.0
  0
LINE
  8
SIZE
  6
CONTINUOUS
 62
    30
 10
-116.5
 20
20.0
 30
0.0
 11
-116.5
 21
543.18581199999994
 31
0.0
  0
LINE
  8
SIZE
  6
CONTINUOUS
 62
    30
 10
104.4999999999999
 20
523.18581199999994
 30
0.0
 11
-104.4999999999999
 21
523.18581199999994
 31
0.0
  0
TEXT
  8
SIZE
  6
CONTINUOUS
 62
    30
 10
-61.80714285714285
 20
550.32363199999986
 30
0.0
 40
64.0
  1
233
 41
0.9
 72
     1
 11
12.25
 21
550.32363199999986
 31
0.0
  0
CIRCLE
  8
SIZE
  6
CONTINUOUS
 62
    30
 10
116.5
 20
523.18581199999994
 30
0.0
 40
6.0
  0
LINE
  8
SIZE
  6
CONTINUOUS
 62
    30
 10
116.5
 20
523.18581199999994
 30
0.0
 11
104.4999999999999
 21
523.18581199999994
 31
0.0
  0
CIRCLE
  8
SIZE
  6
CONTINUOUS
 62
    30
 10
-116.5
 20
523.18581199999994
 30
0.0
 40
6.0
  0
LINE
  8
SIZE
  6
CONTINUOUS
 62
    30
 10
-116.5
 20
523.18581199999994
 30
0.0
 11
-104.4999999999999
 21
523.18581199999994
 31
0.0
  0
LINE
  8
DETAIL
  6
CONTINUOUS
 62
     5
 10
-85.0
 20
75.0
 30
0.0
 11
-85.0
 21
0.0
 31
0.0
  0
LINE
  8
DETAIL
  6
CONTINUOUS
 62
     5
 10
85.0
 20
75.0
 30
0.0
 11
85.0
 21
0.0
 31
0.0
  0
CIRCLE
  8
FIX
  6
CONTINUOUS
 62
    11
 10
0.0
 20
0.0
 30
0.0
 40
2.5
  0
LINE
  8
BASIS
  6
DASHDOT
 62
     6
 10
20.0
 20
0.0
 30
0.0
 11
-20.0
 21
0.0
 31
0.0
  0
LINE
  8
BASIS
  6
DASHDOT
 62
     6
 10
0.0
 20
20.0
 30
0.0
 11
0.0
 21
-20.0
 31
0.0
  0
CIRCLE
  8
FIX
  6
CONTINUOUS
 62
    11
 10
98.0
 20
0.0
 30
0.0
 40
2.5
  0
LINE
  8
BASIS
  6
DASHDOT
 62
     6
 10
118.0
 20
0.0
 30
0.0
 11
78.0
 21
0.0
 31
0.0
  0
LINE
  8
BASIS
  6
DASHDOT
 62
     6
 10
98.0
 20
-20.0
 30
0.0
 11
98.0
 21
20.0
 31
0.0
  0
CIRCLE
  8
FIX
  6
CONTINUOUS
 62
    11
 10
-98.0
 20
0.0
 30
0.0
 40
2.5
  0
LINE
  8
BASIS
  6
DASHDOT
 62
     6
 10
-118.0
 20
0.0
 30
0.0
 11
-78.0
 21
0.0
 31
0.0
  0
LINE
  8
BASIS
  6
DASHDOT
 62
     6
 10
-98.0
 20
-20.0
 30
0.0
 11
-98.0
 21
20.0
 31
0.0
  0
LINE
  8
NOTE
  6
CONTINUOUS
 62
     4
 10
-98.0
 20
0.0
 30
0.0
 11
-164.7991531027761
 21
148.85229775804211
 31
0.0
  0
LINE
  8
NOTE
  6
CONTINUOUS
 62
     4
 10
-164.7991531027761
 20
148.85229775804211
 30
0.0
 11
-429.26813810277599
 21
148.85229775804211
 31
0.0
  0
TEXT
  8
NOTE
  6
CONTINUOUS
 62
     4
 10
-418.45057210277611
 20
172.03909575804221
 30
0.0
 40
64.0
  1
4-φ5
 41
0.9
  0
LINE
  8
NOTE
  6
CONTINUOUS
 62
     4
 10
-103.9928479999999
 20
39.548523999999993
 30
0.0
 11
-98.0
 21
0.0
 31
0.0
  0
LINE
  8
NOTE
  6
CONTINUOUS
 62
     4
 10
-98.0
 20
0.0
 30
0.0
 11
-122.9642209999999
 21
31.253602999999998
 31
0.0
  0
LINE
  8
DETAIL
  6
CONTINUOUS
 62
     5
 10
-85.0
 20
75.0
 30
0.0
 11
85.0
 21
75.0
 31
0.0
  0
LINE
  8
SIZE
  6
CONTINUOUS
 62
    30
 10
-136.0
 20
0.0
 30
0.0
 11
-286.98545599999989
 21
0.0
 31
0.0
  0
LINE
  8
SIZE
  6
CONTINUOUS
 62
    30
 10
-105.0
 20
75.0
 30
0.0
 11
-286.98545599999989
 21
75.0
 31
0.0
  0
LINE
  8
SIZE
  6
CONTINUOUS
 62
    30
 10
-266.985456
 20
12.0
 30
0.0
 11
-266.985456
 21
63.0
 31
0.0
  0
TEXT
  8
SIZE
  6
CONTINUOUS
 62
    30
 10
-291.985456
 20
-12.72513826324853
 30
0.0
 40
64.0
  1
75
 50
90.0
 41
0.9
 72
     1
 11
-291.985456
 21
33.903433165322888
 31
0.0
  0
CIRCLE
  8
SIZE
  6
CONTINUOUS
 62
    30
 10
-266.985456
 20
0.0
 30
0.0
 40
6.0
  0
LINE
  8
SIZE
  6
CONTINUOUS
 62
    30
 10
-266.985456
 20
0.0
 30
0.0
 11
-266.985456
 21
12.0
 31
0.0
  0
CIRCLE
  8
SIZE
  6
CONTINUOUS
 62
    30
 10
-266.985456
 20
75.0
 30
0.0
 40
6.0
  0
LINE
  8
SIZE
  6
CONTINUOUS
 62
    30
 10
-266.985456
 20
75.0
 30
0.0
 11
-266.985456
 21
63.0
 31
0.0
  0
LINE
  8
SIZE
  6
CONTINUOUS
 62
    30
 10
-85.0
 20
235.0
 30
0.0
 11
-85.0
 21
423.46791800000011
 31
0.0
  0
LINE
  8
SIZE
  6
CONTINUOUS
 62
    30
 10
85.0
 20
235.0
 30
0.0
 11
85.0
 21
423.46791800000011
 31
0.0
  0
LINE
  8
SIZE
  6
CONTINUOUS
 62
    30
 10
-73.0
 20
403.46791800000011
 30
0.0
 11
73.0
 21
403.46791800000011
 31
0.0
  0
TEXT
  8
SIZE
  6
CONTINUOUS
 62
    30
 10
-105.3264265714286
 20
428.46791800000011
 30
0.0
 40
64.0
  1
□170
 41
0.9
 72
     1
 11
-0.2749979999999823
 21
428.46791800000011
 31
0.0
  0
CIRCLE
  8
SIZE
  6
CONTINUOUS
 62
    30
 10
-85.0
 20
403.46791800000011
 30
0.0
 40
6.0
  0
LINE
  8
SIZE
  6
CONTINUOUS
 62
    30
 10
-85.0
 20
403.46791800000011
 30
0.0
 11
-73.0
 21
403.46791800000011
 31
0.0
  0
CIRCLE
  8
SIZE
  6
CONTINUOUS
 62
    30
 10
85.0
 20
403.46791800000011
 30
0.0
 40
6.0
  0
LINE
  8
SIZE
  6
CONTINUOUS
 62
    30
 10
85.0
 20
403.46791800000011
 30
0.0
 11
73.0
 21
403.46791800000011
 31
0.0
  0
LINE
  8
SIZE
  6
CONTINUOUS
 62
    30
 10
136.49999999999989
 20
0.0
 30
0.0
 11
448.79644356575932
 21
0.0
 31
0.0
  0
LINE
  8
SIZE
  6
CONTINUOUS
 62
    30
 10
131.49999999999989
 20
-64.0
 30
0.0
 11
448.79644356575932
 21
-64.0
 31
0.0
  0
LINE
  8
SIZE
  6
CONTINUOUS
 62
    30
 10
428.79644356575932
 20
12.0
 30
0.0
 11
428.79644356575932
 21
24.0
 31
0.0
  0
LINE
  8
SIZE
  6
CONTINUOUS
 62
    30
 10
428.79644356575932
 20
-76.0
 30
0.0
 11
428.79644356575932
 21
-88.0
 31
0.0
  0
LINE
  8
SIZE
  6
CONTINUOUS
 62
    30
 10
428.79644356575932
 20
-235.25988199999989
 30
0.0
 11
428.79644356575932
 21
-64.0
 31
0.0
  0
TEXT
  8
SIZE
  6
CONTINUOUS
 62
    30
 10
403.79644356575932
 20
-210.259882
 30
0.0
 40
64.0
  1
64
 50
90.0
 41
0.9
 72
     1
 11
403.79644356575932
 21
-162.259882
 31
0.0
  0
LINE
  8
SIZE
  6
CONTINUOUS
 62
    30
 10
428.79644356575932
 20
0.0
 30
0.0
 11
428.79644356575932
 21
-64.0
 31
0.0
  0
LINE
  8
SIZE
  6
CONTINUOUS
 62
    30
 10
428.79644356575932
 20
0.0
 30
0.0
 11
428.79644356575932
 21
-64.0
 31
0.0
  0
CIRCLE
  8
SIZE
  6
CONTINUOUS
 62
    30
 10
428.79644356575932
 20
0.0
 30
0.0
 40
6.0
  0
LINE
  8
SIZE
  6
CONTINUOUS
 62
    30
 10
428.79644356575932
 20
0.0
 30
0.0
 11
428.79644356575932
 21
12.0
 31
0.0
  0
CIRCLE
  8
SIZE
  6
CONTINUOUS
 62
    30
 10
428.79644356575932
 20
-64.0
 30
0.0
 40
6.0
  0
LINE
  8
SIZE
  6
CONTINUOUS
 62
    30
 10
428.79644356575932
 20
-64.0
 30
0.0
 11
428.79644356575932
 21
-76.0
 31
0.0
  0
LINE
  8
DETAIL
  6
CONTINUOUS
 62
     5
 10
111.4999999999999
 20
-64.0
 30
0.0
 11
-111.4999999999999
 21
-64.0
 31
0.0
  0
LINE
  8
DETAIL
  6
CONTINUOUS
 62
     5
 10
116.5
 20
0.0
 30
0.0
 11
116.5
 21
-50.0
 31
0.0
  0
LINE
  8
DETAIL
  6
CONTINUOUS
 62
     5
 10
116.5
 20
-50.0
 30
0.0
 11
116.5
 21
-59.0
 31
0.0
  0
LINE
  8
DETAIL
  6
CONTINUOUS
 62
     5
 10
-116.5
 20
-50.0
 30
0.0
 11
-116.5
 21
-59.0
 31
0.0
  0
ARC
  8
DETAIL
  6
CONTINUOUS
 62
     5
 10
-111.4999999999999
 20
-59.0
 30
0.0
 40
5.0
 50
180.0
 51
270.0
  0
ARC
  8
DETAIL
  6
CONTINUOUS
 62
     5
 10
111.4999999999999
 20
-59.0
 30
0.0
 40
5.0
 50
270.0
 51
0.0
  0
LINE
  8
SIZE
  6
CONTINUOUS
 62
    30
 10
98.0
 20
-40.0
 30
0.0
 11
98.0
 21
-269.60876200000001
 31
0.0
  0
LINE
  8
SIZE
  6
CONTINUOUS
 62
    30
 10
-98.0
 20
-40.0
 30
0.0
 11
-98.0
 21
-269.60876200000001
 31
0.0
  0
LINE
  8
SIZE
  6
CONTINUOUS
 62
    30
 10
86.0
 20
-249.60876200000001
 30
0.0
 11
-86.0
 21
-249.60876200000001
 31
0.0
  0
CIRCLE
  8
SIZE
  6
CONTINUOUS
 62
    30
 10
98.0
 20
-249.60876200000001
 30
0.0
 40
6.0
  0
LINE
  8
SIZE
  6
CONTINUOUS
 62
    30
 10
98.0
 20
-249.60876200000001
 30
0.0
 11
86.0
 21
-249.60876200000001
 31
0.0
  0
CIRCLE
  8
SIZE
  6
CONTINUOUS
 62
    30
 10
-98.0
 20
-249.60876200000001
 30
0.0
 40
6.0
  0
LINE
  8
SIZE
  6
CONTINUOUS
 62
    30
 10
-98.0
 20
-249.60876200000001
 30
0.0
 11
-86.0
 21
-249.60876200000001
 31
0.0
  0
TEXT
  8
SIZE
  6
CONTINUOUS
 62
    30
 10
-67.200000000000003
 20
-224.60876200000001
 30
0.0
 40
64.0
  1
196
 41
0.9
 72
     1
 11
0.0
 21
-224.60876200000001
 31
0.0
  0
LINE
  8
OUTLINE
  6
CONTINUOUS
 62
     3
 10
111.4999999999999
 20
-64.0
 30
0.0
 11
-111.4999999999999
 21
-64.0
 31
0.0
  0
LINE
  8
OUTLINE
  6
CONTINUOUS
 62
     3
 10
-85.0
 20
75.0
 30
0.0
 11
85.0
 21
75.0
 31
0.0
  0
LINE
  8
OUTLINE
  6
CONTINUOUS
 62
     3
 10
-116.5
 20
0.0
 30
0.0
 11
-85.0
 21
0.0
 31
0.0
  0
LINE
  8
OUTLINE
  6
CONTINUOUS
 62
     3
 10
85.0
 20
0.0
 30
0.0
 11
116.5
 21
0.0
 31
0.0
  0
LINE
  8
OUTLINE
  6
CONTINUOUS
 62
     3
 10
-85.0
 20
75.0
 30
0.0
 11
-85.0
 21
0.0
 31
0.0
  0
ARC
  8
OUTLINE
  6
CONTINUOUS
 62
     3
 10
-111.4999999999999
 20
-59.0
 30
0.0
 40
5.0
 50
180.0
 51
270.0
  0
LINE
  8
OUTLINE
  6
CONTINUOUS
 62
     3
 10
-116.5
 20
-50.0
 30
0.0
 11
-116.5
 21
-59.0
 31
0.0
  0
LINE
  8
OUTLINE
  6
CONTINUOUS
 62
     3
 10
-116.5
 20
0.0
 30
0.0
 11
-116.5
 21
-50.0
 31
0.0
  0
LINE
  8
OUTLINE
  6
CONTINUOUS
 62
     3
 10
85.0
 20
75.0
 30
0.0
 11
85.0
 21
0.0
 31
0.0
  0
ARC
  8
OUTLINE
  6
CONTINUOUS
 62
     3
 10
111.4999999999999
 20
-59.0
 30
0.0
 40
5.0
 50
270.0
 51
0.0
  0
LINE
  8
OUTLINE
  6
CONTINUOUS
 62
     3
 10
116.5
 20
-50.0
 30
0.0
 11
116.5
 21
-59.0
 31
0.0
  0
LINE
  8
OUTLINE
  6
CONTINUOUS
 62
     3
 10
116.5
 20
0.0
 30
0.0
 11
116.5
 21
-50.0
 31
0.0
  0
LINE
  8
DETAIL
  6
CONTINUOUS
 62
     5
 10
116.5
 20
-42.293896999999987
 30
0.0
 11
-116.5
 21
-42.293896999999987
 31
0.0
  0
LINE
  8
DETAIL
  6
CONTINUOUS
 62
     5
 10
-85.0
 20
75.0
 30
0.0
 11
-85.0
 21
215.0
 31
0.0
  0
LINE
  8
DETAIL
  6
CONTINUOUS
 62
     5
 10
-85.0
 20
215.0
 30
0.0
 11
85.0
 21
215.0
 31
0.0
  0
LINE
  8
DETAIL
  6
CONTINUOUS
 62
     5
 10
85.0
 20
215.0
 30
0.0
 11
85.0
 21
75.0
 31
0.0
  0
LINE
  8
SIZE
  6
CONTINUOUS
 62
    30
 10
105.0
 20
215.00000000000011
 30
0.0
 11
448.79644356575932
 21
215.0000000000002
 31
0.0
  0
LINE
  8
SIZE
  6
CONTINUOUS
 62
    30
 10
105.0
 20
75.000000000000043
 30
0.0
 11
448.79644356575932
 21
75.000000000000085
 31
0.0
  0
LINE
  8
SIZE
  6
CONTINUOUS
 62
    30
 10
428.79644356575938
 20
87.000000000000099
 30
0.0
 11
428.79644356575932
 21
203.00000000000011
 31
0.0
  0
LINE
  8
SIZE
  6
CONTINUOUS
 62
    30
 10
428.79644356575932
 20
215.00000000000011
 30
0.0
 11
428.79644356575932
 21
414.14285714285751
 31
0.0
  0
CIRCLE
  8
SIZE
  6
CONTINUOUS
 62
    30
 10
428.79644356575938
 20
75.000000000000099
 30
0.0
 40
6.0
  0
LINE
  8
SIZE
  6
CONTINUOUS
 62
    30
 10
428.79644356575938
 20
75.000000000000099
 30
0.0
 11
428.79644356575938
 21
87.000000000000099
 31
0.0
  0
CIRCLE
  8
SIZE
  6
CONTINUOUS
 62
    30
 10
428.79644356575932
 20
215.00000000000011
 30
0.0
 40
6.0
  0
LINE
  8
SIZE
  6
CONTINUOUS
 62
    30
 10
428.79644356575932
 20
215.00000000000011
 30
0.0
 11
428.79644356575932
 21
203.00000000000011
 31
0.0
  0
TEXT
  8
SIZE
  6
CONTINUOUS
 62
    30
 10
403.79644356575932
 20
244.82742857142858
 30
0.0
 40
64.0
  1
140
 50
90.0
 41
0.9
 51
0.0
  7
STANDARD
 71
     0
 72
     1
 11
403.79644356575932
 21
320.57142857142861
 31
0.0
210
0.0
220
0.0
230
1.0
  0
POINT
  8
DEFPOINTS
  6
CONTINUOUS
 62
    30
 10
85.000000000000028
 20
215.00000000000011
 30
0.0
  0
POINT
  8
DEFPOINTS
  6
CONTINUOUS
 62
    30
 10
85.000000000000028
 20
75.000000000000028
 30
0.0
  0
POINT
  8
DEFPOINTS
  6
CONTINUOUS
 62
    30
 10
428.79644356575938
 20
75.000000000000099
 30
0.0
  0
LINE
  8
NOTE
  6
CONTINUOUS
 62
     4
 10
175.71759800000001
 20
-175.46320900000001
 30
0.0
 11
287.95004299999982
 21
-175.46320900000001
 31
0.0
  0
TEXT
  8
NOTE
  6
CONTINUOUS
 62
     4
 10
192.28107600000001
 20
-148.036258
 30
0.0
 40
64.0
  1
EL
 41
0.9
  0
TEXT
  8
ETC
  6
CONTINUOUS
 62
    61
 10
495.16768951475518
 20
550.14058196489941
 30
0.0
 40
64.0
  1
EX-15KH8_6
 41
0.9
  0
TEXT
  8
ETC
  6
CONTINUOUS
 62
    61
 10
490.98169551475479
 20
432.18527195006823
 30
0.0
 40
64.0
  1
換気扇
 41
0.9
  0
TEXT
  8
ETC
  6
CONTINUOUS
 62
    61
 10
541.68309376331081
 20
324.03649906384288
 30
0.0
 40
40.0
  1
EX-15KH8
 50
0.0
 41
0.9
 51
0.0
  7
STANDARD
 71
     0
 11
0.0
 21
0.0
 31
0.0
210
0.0
220
0.0
230
1.0
  0
TEXT
  8
ETC
  6
CONTINUOUS
 62
    61
 10
541.68309376331081
 20
258.03649906384288
 30
0.0
 40
40.0
  1
EX-15LH8-BL
 50
0.0
 41
0.9
 51
0.0
  7
STANDARD
 71
     0
 11
0.0
 21
0.0
 31
0.0
210
0.0
220
0.0
230
1.0
  0
ENDSEC
  0
EOF
