  0
SECTION
  2
HEADER
  9
$ACADVER
  1
AC1009
  9
$INSBASE
 10
0.0
 20
0.0
 30
0.0
  9
$EXTMIN
 10
-422.84815299999991
 20
-280.2978589999999
 30
0.0
  9
$EXTMAX
 10
1029.8537570988819
 20
512.43963099999985
 30
50.0
  9
$LIMMIN
 10
-2970.0
 20
-2100.0
  9
$LIMMAX
 10
2970.0
 20
2100.0
  9
$ORTHOMODE
 70
     1
  9
$REGENMODE
 70
     0
  9
$FILLMODE
 70
     1
  9
$QTEXTMODE
 70
     0
  9
$MIRRTEXT
 70
     0
  9
$DRAGMODE
 70
     2
  9
$LTSCALE
 40
20.0
  9
$OSMODE
 70
   171
  9
$ATTMODE
 70
     1
  9
$TEXTSIZE
 40
64.0
  9
$TRACEWID
 40
0.05
  9
$TEXTSTYLE
  7
STANDARD
  9
$CLAYER
  8
SIZE
  9
$CELTYPE
  6
CONTINUOUS
  9
$CECOLOR
 62
    30
  9
$DIMSCALE
 40
1.0
  9
$DIMASZ
 40
12.0
  9
$DIMEXO
 40
20.0
  9
$DIMDLI
 40
200.0
  9
$DIMRND
 40
0.0
  9
$DIMDLE
 40
0.0
  9
$DIMEXE
 40
20.0
  9
$DIMTP
 40
0.0
  9
$DIMTM
 40
0.0
  9
$DIMTXT
 40
64.0
  9
$DIMCEN
 40
0.09
  9
$DIMTSZ
 40
0.0
  9
$DIMTOL
 70
     0
  9
$DIMLIM
 70
     0
  9
$DIMTIH
 70
     0
  9
$DIMTOH
 70
     0
  9
$DIMSE1
 70
     0
  9
$DIMSE2
 70
     0
  9
$DIMTAD
 70
     1
  9
$DIMZIN
 70
     8
  9
$DIMBLK
  1

  9
$DIMASO
 70
     1
  9
$DIMSHO
 70
     0
  9
$DIMPOST
  1

  9
$DIMAPOST
  1

  9
$DIMALT
 70
     0
  9
$DIMALTD
 70
     2
  9
$DIMALTF
 40
25.399999999999999
  9
$DIMLFAC
 40
1.0
  9
$DIMTOFL
 70
     1
  9
$DIMTVP
 40
0.0
  9
$DIMTIX
 70
     1
  9
$DIMSOXD
 70
     0
  9
$DIMSAH
 70
     1
  9
$DIMBLK1
  1
ORIGIN
  9
$DIMBLK2
  1
ORIGIN
  9
$DIMSTYLE
  2
STANDARD
  9
$DIMCLRD
 70
     0
  9
$DIMCLRE
 70
     0
  9
$DIMCLRT
 70
     0
  9
$DIMTFAC
 40
1.0
  9
$DIMGAP
 40
20.0
  9
$LUNITS
 70
     2
  9
$LUPREC
 70
     4
  9
$SKETCHINC
 40
0.1
  9
$FILLETRAD
 40
15.0
  9
$AUNITS
 70
     1
  9
$AUPREC
 70
     3
  9
$MENU
  1
ACAD
  9
$ELEVATION
 40
0.0
  9
$PELEVATION
 40
0.0
  9
$THICKNESS
 40
50.0
  9
$LIMCHECK
 70
     0
  9
$BLIPMODE
 70
     0
  9
$CHAMFERA
 40
0.0
  9
$CHAMFERB
 40
0.0
  9
$SKPOLY
 70
     0
  9
$TDCREATE
 40
2451453.4938508091
  9
$TDUPDATE
 40
2453760.8720238311
  9
$TDINDWG
 40
0.7431815856
  9
$TDUSRTIMER
 40
0.743181412
  9
$USRTIMER
 70
     1
  9
$ANGBASE
 50
0.0
  9
$ANGDIR
 70
     0
  9
$PDMODE
 70
     3
  9
$PDSIZE
 40
-2.0
  9
$PLINEWID
 40
0.0
  9
$COORDS
 70
     2
  9
$SPLFRAME
 70
     0
  9
$SPLINETYPE
 70
     6
  9
$SPLINESEGS
 70
     8
  9
$ATTDIA
 70
     0
  9
$ATTREQ
 70
     1
  9
$HANDLING
 70
 22529
  9
$HANDSEED
  5
1B9
  9
$SURFTAB1
 70
     6
  9
$SURFTAB2
 70
     6
  9
$SURFTYPE
 70
     6
  9
$SURFU
 70
     6
  9
$SURFV
 70
     6
  9
$UCSNAME
  2

  9
$UCSORG
 10
0.0
 20
0.0
 30
0.0
  9
$UCSXDIR
 10
1.0
 20
0.0
 30
0.0
  9
$UCSYDIR
 10
0.0
 20
1.0
 30
0.0
  9
$PUCSNAME
  2

  9
$PUCSORG
 10
0.0
 20
0.0
 30
0.0
  9
$PUCSXDIR
 10
1.0
 20
0.0
 30
0.0
  9
$PUCSYDIR
 10
0.0
 20
1.0
 30
0.0
  9
$USERI1
 70
     0
  9
$USERI2
 70
     0
  9
$USERI3
 70
     0
  9
$USERI4
 70
     0
  9
$USERI5
 70
     0
  9
$USERR1
 40
20.0
  9
$USERR2
 40
0.0
  9
$USERR3
 40
0.0
  9
$USERR4
 40
0.0
  9
$USERR5
 40
0.0
  9
$WORLDVIEW
 70
     1
  9
$SHADEDGE
 70
     3
  9
$SHADEDIF
 70
    70
  9
$TILEMODE
 70
     1
  9
$MAXACTVP
 70
    64
  9
$PLIMCHECK
 70
     0
  9
$PEXTMIN
 10
1.0000000000000000E+020
 20
1.0000000000000000E+020
 30
1.0000000000000000E+020
  9
$PEXTMAX
 10
-1.0000000000000000E+020
 20
-1.0000000000000000E+020
 30
-1.0000000000000000E+020
  9
$PLIMMIN
 10
0.0
 20
0.0
  9
$PLIMMAX
 10
12.0
 20
9.0
  9
$UNITMODE
 70
     0
  9
$VISRETAIN
 70
     1
  9
$PLINEGEN
 70
     0
  9
$PSLTSCALE
 70
     1
  0
ENDSEC
  0
SECTION
  2
TABLES
  0
TABLE
  2
VPORT
 70
     9
  0
VPORT
  2
*ACTIVE
 70
     0
 10
0.0
 20
0.0
 11
1.0
 21
1.0
 12
-39.223030426313237
 22
-33.071833016647133
 13
0.0
 23
0.0
 14
1.0
 24
1.0
 15
0.0
 25
0.0
 16
0.0
 26
0.0
 36
1.0
 17
0.0
 27
0.0
 37
0.0
 40
2264.0111082391459
 41
1.4423558897243101
 42
50.0
 43
0.0
 44
0.0
 50
0.0
 51
0.0
 71
     0
 72
   100
 73
     1
 74
     0
 75
     0
 76
     0
 77
     0
 78
     0
  0
ENDTAB
  0
TABLE
  2
LTYPE
 70
     2
  0
LTYPE
  2
CONTINUOUS
 70
     0
  3
実線
 72
    65
 73
     0
 40
0.0
  0
LTYPE
  2
DASHDOT
 70
     0
  3
____ _ ____ _ ____ _ ____ _ ____ _ ____ _ ____
 72
    65
 73
     4
 40
5.5
 49
4.0
 49
-0.6
 49
0.3
 49
-0.6
  0
ENDTAB
  0
TABLE
  2
LAYER
 70
    12
  0
LAYER
  2
0
 70
     0
 62
     7
  6
CONTINUOUS
  0
LAYER
  2
SIZE
 70
     0
 62
    30
  6
CONTINUOUS
  0
LAYER
  2
BASIS
 70
     0
 62
     6
  6
DASHDOT
  0
LAYER
  2
OUTLINE
 70
     0
 62
     3
  6
CONTINUOUS
  0
LAYER
  2
DETAIL
 70
     0
 62
     5
  6
CONTINUOUS
  0
LAYER
  2
ARRANGE
 70
     0
 62
     1
  6
CONTINUOUS
  0
LAYER
  2
DEFPOINTS
 70
     0
 62
     7
  6
CONTINUOUS
  0
LAYER
  2
ETC
 70
     0
 62
    61
  6
CONTINUOUS
  0
LAYER
  2
FIX
 70
     0
 62
    11
  6
CONTINUOUS
  0
LAYER
  2
NOTE
 70
     0
 62
     4
  6
CONTINUOUS
  0
LAYER
  2
SERVICESPACE
 70
     0
 62
     2
  6
DASHDOT
  0
LAYER
  2
SYMBOLLINE
 70
     0
 62
    15
  6
CONTINUOUS
  0
ENDTAB
  0
TABLE
  2
STYLE
 70
     1
  0
STYLE
  2
STANDARD
 70
     0
 40
64.0
 41
0.9
 50
0.0
 71
     0
 42
64.0
  3
SIMPLEX.shx
  4
BIGFONT.shx
  0
ENDTAB
  0
TABLE
  2
VIEW
 70
     1
  0
VIEW
  2
ALL
 70
     0
 40
4282.6198079999986
 10
0.0
 20
41.309903999999989
 41
5940.0
 11
0.0
 21
0.0
 31
1.0
 12
0.0
 22
0.0
 32
0.0
 42
50.0
 43
0.0
 44
0.0
 50
0.0
 71
     0
  0
ENDTAB
  0
TABLE
  2
UCS
 70
     0
  0
ENDTAB
  0
TABLE
  2
APPID
 70
     1
  0
APPID
  2
ACAD
 70
     0
  0
ENDTAB
  0
TABLE
  2
DIMSTYLE
 70
     1
  0
DIMSTYLE
  2
STANDARD
 70
     0
  3

  4

  5

  6

  7

 40
1.0
 41
0.18
 42
0.0625
 43
0.38
 44
0.18
 45
0.0
 46
0.0
 47
0.0
 48
0.0
140
0.18
141
0.09
142
0.0
143
25.399999999999999
144
1.0
145
0.0
146
1.0
147
0.09
 71
     0
 72
     0
 73
     1
 74
     1
 75
     0
 76
     0
 77
     0
 78
     0
170
     0
171
     2
172
     0
173
     0
174
     0
175
     0
176
     0
177
     0
178
     0
  0
ENDTAB
  0
ENDSEC
  0
SECTION
  2
BLOCKS
  0
BLOCK
  8
0
  2
$MODEL_SPACE
 70
     0
 10
0.0
 20
0.0
 30
0.0
  3
$MODEL_SPACE
  1

  0
ENDBLK
  5
20
  8
0
  0
BLOCK
 67
     1
  8
0
  2
$PAPER_SPACE
 70
     0
 10
0.0
 20
0.0
 30
0.0
  3
$PAPER_SPACE
  1

  0
ENDBLK
  5
1C
 67
     1
  8
0
  0
BLOCK
  8
0
  2
DOT1
 70
     0
 10
0.0
 20
0.0
 30
0.0
  3
DOT1
  1

  0
CIRCLE
  5
34
  8
SIZE
  6
CONTINUOUS
 62
     7
 10
0.0
 20
0.0
 30
0.0
 40
3.0
  0
ENDBLK
  5
35
  8
0
  0
BLOCK
  8
0
  2
_ORIGIN
 70
     0
 10
0.0
 20
0.0
 30
0.0
  3
_ORIGIN
  1

  0
CIRCLE
  5
38
  8
0
  6
CONTINUOUS
 62
     7
 10
0.0
 20
0.0
 30
0.0
 40
0.5
  0
LINE
  5
39
  8
0
  6
CONTINUOUS
 62
     7
 10
0.0
 20
0.0
 30
0.0
 11
-1.0
 21
0.0
 31
0.0
  0
ENDBLK
  5
3A
  8
0
  0
BLOCK
  8
0
 62
    30
  2
*D3
 70
     1
 10
0.0
 20
0.0
 30
0.0
  3
*D3
  1

  0
LINE
  5
10A
  8
SIZE
  6
CONTINUOUS
 62
     0
 10
-85.0
 20
95.0
 30
0.0
 11
-84.999999999999986
 21
324.39844271819987
 31
0.0
  0
LINE
  5
10B
  8
SIZE
  6
CONTINUOUS
 62
     0
 10
85.0
 20
95.0
 30
0.0
 11
85.000000000000014
 21
324.39844271819987
 31
0.0
  0
LINE
  5
10C
  8
SIZE
  6
CONTINUOUS
 62
     0
 10
-96.999999999999986
 20
304.39844271819987
 30
0.0
 11
-108.9999999999999
 21
304.39844271819987
 31
0.0
  0
LINE
  5
10D
  8
SIZE
  6
CONTINUOUS
 62
     0
 10
97.000000000000014
 20
304.39844271819987
 30
0.0
 11
109.0
 21
304.39844271819987
 31
0.0
  0
LINE
  5
10E
  8
SIZE
  6
CONTINUOUS
 62
     0
 10
-84.999999999999986
 20
304.39844271819987
 30
0.0
 11
85.000000000000014
 21
304.39844271819987
 31
0.0
  0
INSERT
  5
10F
  8
SIZE
  6
CONTINUOUS
 62
     0
  2
_ORIGIN
 10
-84.999999999999986
 20
304.39844271819987
 30
0.0
 41
12.0
 42
12.0
 43
12.0
  0
INSERT
  5
110
  8
SIZE
  6
CONTINUOUS
 62
     0
  2
_ORIGIN
 10
85.000000000000014
 20
304.39844271819987
 30
0.0
 41
12.0
 42
12.0
 43
12.0
 50
180.0
  0
TEXT
  5
111
  8
SIZE
  6
CONTINUOUS
 62
     0
 10
-68.571428571428555
 20
324.39844271819987
 30
0.0
 40
64.0
  1
170
 41
0.9
  0
POINT
  5
112
  8
DEFPOINTS
  6
CONTINUOUS
 62
     0
 10
-85.0
 20
75.0
 30
0.0
  0
POINT
  5
113
  8
DEFPOINTS
  6
CONTINUOUS
 62
     0
 10
85.0
 20
75.0
 30
0.0
  0
POINT
  5
114
  8
DEFPOINTS
  6
CONTINUOUS
 62
     0
 10
85.000000000000014
 20
304.39844271819987
 30
0.0
  0
ENDBLK
  5
116
  8
0
 62
    30
  0
BLOCK
  8
0
 62
    30
  2
*D4
 70
     1
 10
0.0
 20
0.0
 30
0.0
  3
*D4
  1

  0
LINE
  5
119
  8
SIZE
  6
CONTINUOUS
 62
     0
 10
-116.5
 20
20.0
 30
0.0
 11
-116.4999999999999
 21
444.54743506548169
 31
0.0
  0
LINE
  5
11A
  8
SIZE
  6
CONTINUOUS
 62
     0
 10
116.5
 20
20.0
 30
0.0
 11
116.5
 21
444.54743506548169
 31
0.0
  0
LINE
  5
11B
  8
SIZE
  6
CONTINUOUS
 62
     0
 10
-104.4999999999999
 20
424.54743506548169
 30
0.0
 11
104.5
 21
424.54743506548169
 31
0.0
  0
INSERT
  5
11C
  8
SIZE
  6
CONTINUOUS
 62
     0
  2
_ORIGIN
 10
-116.4999999999999
 20
424.54743506548169
 30
0.0
 41
12.0
 42
12.0
 43
12.0
 50
180.0
  0
INSERT
  5
11D
  8
SIZE
  6
CONTINUOUS
 62
     0
  2
_ORIGIN
 10
116.5
 20
424.54743506548169
 30
0.0
 41
12.0
 42
12.0
 43
12.0
  0
TEXT
  5
11E
  8
SIZE
  6
CONTINUOUS
 62
     0
 10
-74.057142857142821
 20
444.54743506548169
 30
0.0
 40
64.0
  1
233
 41
0.9
  0
POINT
  5
11F
  8
DEFPOINTS
  6
CONTINUOUS
 62
     0
 10
-116.5
 20
0.0
 30
0.0
  0
POINT
  5
120
  8
DEFPOINTS
  6
CONTINUOUS
 62
     0
 10
116.5
 20
0.0
 30
0.0
  0
POINT
  5
121
  8
DEFPOINTS
  6
CONTINUOUS
 62
     0
 10
116.5
 20
424.54743506548169
 30
0.0
  0
ENDBLK
  5
123
  8
0
 62
    30
  0
ENDSEC
  0
SECTION
  2
ENTITIES
  0
TEXT
  5
3B
  8
ETC
  6
CONTINUOUS
 62
    61
 10
385.93029200000001
 20
344.24298981613288
 30
0.0
 40
64.0
  1
EX-15LF5_1
 41
0.9
  0
TEXT
  5
3C
  8
ETC
  6
CONTINUOUS
 62
    61
 10
377.85681399999987
 20
246.22426481613289
 30
0.0
 40
64.0
  1
換気扇
 41
0.9
  0
LINE
  5
3D
  8
BASIS
  6
DASHDOT
 62
     6
 10
0.0
 20
-132.50515899999999
 30
0.0
 11
0.0
 21
111.1736529999999
 31
0.0
  0
LINE
  5
3E
  8
DETAIL
  6
CONTINUOUS
 62
     5
 10
116.5
 20
0.0
 30
0.0
 11
-116.5
 21
0.0
 31
0.0
  0
POINT
  5
3F
  8
ARRANGE
  6
CONTINUOUS
 62
     1
 10
0.0
 20
0.0
 30
0.0
 39
50.0
  0
CIRCLE
  5
40
  8
ARRANGE
  6
CONTINUOUS
 62
     1
 39
50.0
 10
0.0
 20
0.0
 30
0.0
 40
40.0
  0
LINE
  5
41
  8
DETAIL
  6
CONTINUOUS
 62
     5
 10
-116.5
 20
0.0
 30
0.0
 11
-115.47309199999989
 21
-59.631518000000007
 31
0.0
  0
ARC
  5
42
  8
DETAIL
  6
CONTINUOUS
 62
     5
 10
-95.676107999999999
 20
-59.285959999999989
 30
0.0
 40
19.800000000000001
 50
181.0
 51
238.217376
  0
ARC
  5
43
  8
DETAIL
  6
CONTINUOUS
 62
     5
 10
-95.676107999999999
 20
-59.285959999999989
 30
0.0
 40
19.800000000000001
 50
239.887596
 51
263.16736500000002
  0
ARC
  5
44
  8
DETAIL
  6
CONTINUOUS
 62
     5
 10
-80.364728999999997
 20
68.5
 30
0.0
 40
148.5
 50
263.16736500000002
 51
270.0
  0
LINE
  5
45
  8
DETAIL
  6
CONTINUOUS
 62
     5
 10
-80.364728999999997
 20
-80.0
 30
0.0
 11
80.605000000000004
 21
-80.0
 31
0.0
  0
CIRCLE
  5
46
  8
FIX
  6
CONTINUOUS
 62
    11
 39
50.0
 10
-98.0
 20
0.0
 30
0.0
 40
2.5
  0
LINE
  5
47
  8
NOTE
  6
CONTINUOUS
 62
     4
 10
-118.0
 20
0.0
 30
0.0
 11
-78.0
 21
0.0
 31
0.0
  0
LINE
  5
48
  8
NOTE
  6
CONTINUOUS
 62
     4
 10
-98.0
 20
-20.0
 30
0.0
 11
-98.0
 21
20.0
 31
0.0
  0
LINE
  5
49
  8
NOTE
  6
CONTINUOUS
 62
     4
 10
104.91874900000001
 20
-39.397092999999998
 30
0.0
 11
98.0
 21
0.0
 31
0.0
  0
LINE
  5
4A
  8
NOTE
  6
CONTINUOUS
 62
     4
 10
98.0
 20
0.0
 30
0.0
 11
123.690359
 21
-30.659509
 31
0.0
  0
LINE
  5
4B
  8
NOTE
  6
CONTINUOUS
 62
     4
 39
50.0
 10
98.0
 20
0.0
 30
0.0
 11
172.13287600000001
 21
-155.33485099999999
 31
0.0
  0
CIRCLE
  5
4C
  8
FIX
  6
CONTINUOUS
 62
    11
 39
50.0
 10
98.0
 20
0.0
 30
0.0
 40
2.5
  0
CIRCLE
  5
4D
  8
FIX
  6
CONTINUOUS
 62
    11
 39
50.0
 10
0.0
 20
0.0
 30
0.0
 40
2.5
  0
LINE
  5
4E
  8
DETAIL
  6
CONTINUOUS
 62
     5
 10
85.0
 20
75.0
 30
0.0
 11
85.0
 21
0.0
 31
0.0
  0
LINE
  5
4F
  8
DETAIL
  6
CONTINUOUS
 62
     5
 10
-85.0
 20
75.0
 30
0.0
 11
-85.0
 21
0.0
 31
0.0
  0
LINE
  5
50
  8
NOTE
  6
CONTINUOUS
 62
     4
 10
128.55194900000001
 20
38.141191999999997
 30
0.0
 11
116.5
 21
0.0
 31
0.0
  0
LINE
  5
51
  8
NOTE
  6
CONTINUOUS
 62
     4
 10
116.5
 20
0.0
 30
0.0
 11
146.00789
 21
27.005265999999988
 31
0.0
  0
LINE
  5
52
  8
DETAIL
  6
CONTINUOUS
 62
     5
 10
-85.0
 20
75.0
 30
0.0
 11
85.0
 21
75.0
 31
0.0
  0
LINE
  5
53
  8
NOTE
  6
CONTINUOUS
 62
     4
 10
118.0
 20
0.0
 30
0.0
 11
78.0
 21
0.0
 31
0.0
  0
LINE
  5
54
  8
NOTE
  6
CONTINUOUS
 62
     4
 10
98.0
 20
-20.0
 30
0.0
 11
98.0
 21
20.0
 31
0.0
  0
LINE
  5
55
  8
NOTE
  6
CONTINUOUS
 62
     4
 10
20.0
 20
0.0
 30
0.0
 11
-20.0
 21
0.0
 31
0.0
  0
LINE
  5
56
  8
NOTE
  6
CONTINUOUS
 62
     4
 10
0.0
 20
20.0
 30
0.0
 11
0.0
 21
-20.0
 31
0.0
  0
LINE
  5
57
  8
NOTE
  6
CONTINUOUS
 62
     4
 10
136.49999999999989
 20
0.0
 30
0.0
 11
96.5
 21
0.0
 31
0.0
  0
LINE
  5
58
  8
NOTE
  6
CONTINUOUS
 62
     4
 10
116.5
 20
-20.0
 30
0.0
 11
116.5
 21
20.0
 31
0.0
  0
LINE
  5
59
  8
NOTE
  6
CONTINUOUS
 62
     4
 10
196.60255900000001
 20
118.5136159999999
 30
0.0
 11
116.5
 21
0.0
 31
0.0
  0
LINE
  5
5A
  8
NOTE
  6
CONTINUOUS
 62
     4
 10
196.60255900000001
 20
118.5136159999999
 30
0.0
 11
317.40052500000002
 21
118.5136159999999
 31
0.0
  0
TEXT
  5
5B
  8
NOTE
  6
CONTINUOUS
 62
     4
 10
216.588516
 20
143.00394299999991
 30
0.0
 40
64.0
  1
EL
 41
0.9
  0
LINE
  5
5C
  8
SIZE
  6
CONTINUOUS
 62
    30
 10
-31.0
 20
-11.0
 30
0.0
 11
-222.45447200000001
 21
-11.0
 31
0.0
  0
LINE
  5
5D
  8
SIZE
  6
CONTINUOUS
 62
    30
 10
-136.49999999999989
 20
0.0
 30
0.0
 11
-222.45447200000001
 21
0.0
 31
0.0
  0
LINE
  5
5E
  8
SIZE
  6
CONTINUOUS
 62
    30
 10
-202.45447200000001
 20
-23.0
 30
0.0
 11
-202.45447200000001
 21
-35.0
 31
0.0
  0
LINE
  5
5F
  8
SIZE
  6
CONTINUOUS
 62
    30
 10
-202.45447200000001
 20
12.0
 30
0.0
 11
-202.45447200000001
 21
24.0
 31
0.0
  0
LINE
  5
60
  8
SIZE
  6
CONTINUOUS
 62
    30
 10
-202.45447200000001
 20
170.05938099999989
 30
0.0
 11
-202.45447200000001
 21
0.0
 31
0.0
  0
TEXT
  5
61
  8
SIZE
  6
CONTINUOUS
 62
    30
 10
-227.45447200000001
 20
87.459381000000008
 30
0.0
 40
64.0
  1
11
 50
90.0
 41
0.9
 72
     1
 11
-227.45447200000001
 21
116.259381
 31
0.0
  0
LINE
  5
62
  8
SIZE
  6
CONTINUOUS
 62
    30
 10
-202.45447200000001
 20
-11.0
 30
0.0
 11
-202.45447200000001
 21
0.0
 31
0.0
  0
LINE
  5
63
  8
SIZE
  6
CONTINUOUS
 62
    30
 10
-202.45447200000001
 20
-11.0
 30
0.0
 11
-202.45447200000001
 21
0.0
 31
0.0
  0
CIRCLE
  5
64
  8
SIZE
  6
CONTINUOUS
 62
    30
 10
-202.45447200000001
 20
-11.0
 30
0.0
 40
6.0
  0
LINE
  5
65
  8
SIZE
  6
CONTINUOUS
 62
    30
 10
-202.45447200000001
 20
-11.0
 30
0.0
 11
-202.45447200000001
 21
-23.0
 31
0.0
  0
CIRCLE
  5
66
  8
SIZE
  6
CONTINUOUS
 62
    30
 10
-202.45447200000001
 20
0.0
 30
0.0
 40
6.0
  0
LINE
  5
67
  8
SIZE
  6
CONTINUOUS
 62
    30
 10
-202.45447200000001
 20
0.0
 30
0.0
 11
-202.45447200000001
 21
12.0
 31
0.0
  0
POINT
  5
68
  8
DEFPOINTS
  6
CONTINUOUS
 62
    30
 10
-11.0
 20
-11.0
 30
0.0
  0
POINT
  5
69
  8
DEFPOINTS
  6
CONTINUOUS
 62
    30
 10
-116.5
 20
0.0
 30
0.0
  0
POINT
  5
6A
  8
DEFPOINTS
  6
CONTINUOUS
 62
    30
 10
-202.45447200000001
 20
0.0
 30
0.0
  0
LINE
  5
6B
  8
SIZE
  6
CONTINUOUS
 62
    30
 10
-136.49999999999989
 20
0.0
 30
0.0
 11
-353.84815299999991
 21
0.0
 31
0.0
  0
LINE
  5
6C
  8
SIZE
  6
CONTINUOUS
 62
    30
 10
-105.4999999999999
 20
75.0
 30
0.0
 11
-353.84815299999991
 21
75.0
 31
0.0
  0
LINE
  5
6D
  8
SIZE
  6
CONTINUOUS
 62
    30
 10
-333.84815299999991
 20
12.0
 30
0.0
 11
-333.84815299999991
 21
63.0
 31
0.0
  0
LINE
  5
6E
  8
SIZE
  6
CONTINUOUS
 62
    30
 10
-333.84815299999991
 20
244.33680099999989
 30
0.0
 11
-333.84815299999991
 21
75.0
 31
0.0
  0
TEXT
  5
6F
  8
SIZE
  6
CONTINUOUS
 62
    30
 10
-358.84815299999991
 20
126.0796585714285
 30
0.0
 40
64.0
  1
75
 50
90.0
 41
0.9
 72
     1
 11
-358.84815299999991
 21
172.70822999999999
 31
0.0
  0
CIRCLE
  5
70
  8
SIZE
  6
CONTINUOUS
 62
    30
 10
-333.84815299999991
 20
0.0
 30
0.0
 40
6.0
  0
LINE
  5
71
  8
SIZE
  6
CONTINUOUS
 62
    30
 10
-333.84815299999991
 20
0.0
 30
0.0
 11
-333.84815299999991
 21
12.0
 31
0.0
  0
CIRCLE
  5
72
  8
SIZE
  6
CONTINUOUS
 62
    30
 10
-333.84815299999991
 20
75.0
 30
0.0
 40
6.0
  0
LINE
  5
73
  8
SIZE
  6
CONTINUOUS
 62
    30
 10
-333.84815299999991
 20
75.0
 30
0.0
 11
-333.84815299999991
 21
63.0
 31
0.0
  0
POINT
  5
74
  8
DEFPOINTS
  6
CONTINUOUS
 62
    30
 10
-116.5
 20
0.0
 30
0.0
  0
POINT
  5
75
  8
DEFPOINTS
  6
CONTINUOUS
 62
    30
 10
-85.5
 20
75.0
 30
0.0
  0
POINT
  5
76
  8
DEFPOINTS
  6
CONTINUOUS
 62
    30
 10
-333.84815299999991
 20
75.0
 30
0.0
  0
LINE
  5
77
  8
SIZE
  6
CONTINUOUS
 62
    30
 10
-100.3647289999999
 20
-80.0
 30
0.0
 11
-353.84815299999991
 21
-80.0
 31
0.0
  0
LINE
  5
78
  8
SIZE
  6
CONTINUOUS
 62
    30
 10
-136.49999999999989
 20
0.0
 30
0.0
 11
-353.84815299999991
 21
0.0
 31
0.0
  0
LINE
  5
79
  8
SIZE
  6
CONTINUOUS
 62
    30
 10
-333.84815299999991
 20
-68.0
 30
0.0
 11
-333.84815299999991
 21
-12.0
 31
0.0
  0
LINE
  5
7A
  8
SIZE
  6
CONTINUOUS
 62
    30
 10
-333.84815299999991
 20
-252.5896689999999
 30
0.0
 11
-333.84815299999991
 21
-80.0
 31
0.0
  0
TEXT
  5
7B
  8
SIZE
  6
CONTINUOUS
 62
    30
 10
-358.84815299999991
 20
-227.5896684285714
 30
0.0
 40
64.0
  1
80
 50
90.0
 41
0.9
 72
     1
 11
-358.84815299999991
 21
-180.96109699999991
 31
0.0
  0
CIRCLE
  5
7C
  8
SIZE
  6
CONTINUOUS
 62
    30
 10
-333.84815299999991
 20
-80.0
 30
0.0
 40
6.0
  0
LINE
  5
7D
  8
SIZE
  6
CONTINUOUS
 62
    30
 10
-333.84815299999991
 20
-80.0
 30
0.0
 11
-333.84815299999991
 21
-68.0
 31
0.0
  0
CIRCLE
  5
7E
  8
SIZE
  6
CONTINUOUS
 62
    30
 10
-333.84815299999991
 20
0.0
 30
0.0
 40
6.0
  0
LINE
  5
7F
  8
SIZE
  6
CONTINUOUS
 62
    30
 10
-333.84815299999991
 20
0.0
 30
0.0
 11
-333.84815299999991
 21
-12.0
 31
0.0
  0
POINT
  5
80
  8
DEFPOINTS
  6
CONTINUOUS
 62
    30
 10
-80.364728999999997
 20
-80.0
 30
0.0
  0
POINT
  5
81
  8
DEFPOINTS
  6
CONTINUOUS
 62
    30
 10
-116.5
 20
0.0
 30
0.0
  0
POINT
  5
82
  8
DEFPOINTS
  6
CONTINUOUS
 62
    30
 10
-333.84815299999991
 20
0.0
 30
0.0
  0
POINT
  5
8B
  8
DEFPOINTS
  6
CONTINUOUS
 62
    30
 10
-116.5
 20
0.0
 30
0.0
  0
POINT
  5
8C
  8
DEFPOINTS
  6
CONTINUOUS
 62
    30
 10
116.5
 20
0.0
 30
0.0
  0
LINE
  5
8E
  8
NOTE
  6
CONTINUOUS
 62
     4
 39
50.0
 10
433.85376600000001
 20
-155.33485099999999
 30
0.0
 11
172.13287600000001
 21
-155.33485099999999
 31
0.0
  0
TEXT
  5
8F
  8
NOTE
  6
CONTINUOUS
 62
     4
 10
182.70788099999999
 20
-132.14805200000001
 30
0.0
 40
64.0
  1
4-φ5
 41
0.9
  0
ARC
  5
90
  8
DETAIL
  6
CONTINUOUS
 62
     5
 10
95.676107999999999
 20
-59.285959999999989
 30
0.0
 40
19.800000000000001
 50
301.782624
 51
359.0
  0
LINE
  5
91
  8
DETAIL
  6
CONTINUOUS
 62
     5
 10
116.5
 20
0.0
 30
0.0
 11
115.47309199999989
 21
-59.631518000000007
 31
0.0
  0
ARC
  5
92
  8
DETAIL
  6
CONTINUOUS
 62
     5
 10
80.364728999999997
 20
68.5
 30
0.0
 40
148.5
 50
270.0
 51
276.83263499999993
  0
ARC
  5
93
  8
DETAIL
  6
CONTINUOUS
 62
     5
 10
95.676107999999999
 20
-59.285959999999989
 30
0.0
 40
19.800000000000001
 50
276.83263499999993
 51
300.11240400000003
  0
LINE
  5
94
  8
SIZE
  6
CONTINUOUS
 62
    30
 10
11.0
 20
20.0
 30
0.0
 11
11.0
 21
189.948779
 31
0.0
  0
LINE
  5
95
  8
SIZE
  6
CONTINUOUS
 62
    30
 10
-11.0
 20
20.0
 30
0.0
 11
-11.0
 21
189.948779
 31
0.0
  0
LINE
  5
96
  8
SIZE
  6
CONTINUOUS
 62
    30
 10
23.0
 20
169.948779
 30
0.0
 11
35.0
 21
169.948779
 31
0.0
  0
LINE
  5
97
  8
SIZE
  6
CONTINUOUS
 62
    30
 10
-23.0
 20
169.948779
 30
0.0
 11
-35.0
 21
169.948779
 31
0.0
  0
LINE
  5
98
  8
SIZE
  6
CONTINUOUS
 62
    30
 10
11.0
 20
169.948779
 30
0.0
 11
-11.0
 21
169.948779
 31
0.0
  0
CIRCLE
  5
99
  8
SIZE
  6
CONTINUOUS
 62
    30
 10
11.0
 20
169.948779
 30
0.0
 40
6.0
  0
LINE
  5
9A
  8
SIZE
  6
CONTINUOUS
 62
    30
 10
11.0
 20
169.948779
 30
0.0
 11
23.0
 21
169.948779
 31
0.0
  0
CIRCLE
  5
9B
  8
SIZE
  6
CONTINUOUS
 62
    30
 10
-11.0
 20
169.948779
 30
0.0
 40
6.0
  0
LINE
  5
9C
  8
SIZE
  6
CONTINUOUS
 62
    30
 10
-11.0
 20
169.948779
 30
0.0
 11
-23.0
 21
169.948779
 31
0.0
  0
TEXT
  5
9D
  8
SIZE
  6
CONTINUOUS
 62
    30
 10
-46.628571428571412
 20
194.948779
 30
0.0
 40
64.0
  1
22
 41
0.9
 72
     1
 11
0.0
 21
194.948779
 31
0.0
  0
POINT
  5
9E
  8
DEFPOINTS
  6
CONTINUOUS
 62
    30
 10
11.0
 20
0.0
 30
0.0
  0
POINT
  5
9F
  8
DEFPOINTS
  6
CONTINUOUS
 62
    30
 10
-11.0
 20
0.0
 30
0.0
  0
POINT
  5
A0
  8
DEFPOINTS
  6
CONTINUOUS
 62
    30
 10
-11.0
 20
169.948779
 30
0.0
  0
LINE
  5
A1
  8
DETAIL
  6
CONTINUOUS
 62
     5
 10
-11.0
 20
-11.0
 30
0.0
 11
11.0
 21
-11.0
 31
0.0
  0
LINE
  5
A2
  8
DETAIL
  6
CONTINUOUS
 62
     5
 10
-11.0
 20
0.0
 30
0.0
 11
-11.0
 21
-11.0
 31
0.0
  0
LINE
  5
A3
  8
DETAIL
  6
CONTINUOUS
 62
     5
 10
11.0
 20
0.0
 30
0.0
 11
11.0
 21
-11.0
 31
0.0
  0
LINE
  5
A4
  8
SIZE
  6
CONTINUOUS
 62
    30
 10
98.0
 20
-40.0
 30
0.0
 11
98.0
 21
-280.2978589999999
 31
0.0
  0
LINE
  5
A5
  8
SIZE
  6
CONTINUOUS
 62
    30
 10
-98.0
 20
-40.0
 30
0.0
 11
-98.0
 21
-280.2978589999999
 31
0.0
  0
LINE
  5
A6
  8
SIZE
  6
CONTINUOUS
 62
    30
 10
86.0
 20
-260.2978589999999
 30
0.0
 11
-86.0
 21
-260.2978589999999
 31
0.0
  0
CIRCLE
  5
A7
  8
SIZE
  6
CONTINUOUS
 62
    30
 10
98.0
 20
-260.2978589999999
 30
0.0
 40
6.0
  0
LINE
  5
A8
  8
SIZE
  6
CONTINUOUS
 62
    30
 10
98.0
 20
-260.2978589999999
 30
0.0
 11
86.0
 21
-260.2978589999999
 31
0.0
  0
CIRCLE
  5
A9
  8
SIZE
  6
CONTINUOUS
 62
    30
 10
-98.0
 20
-260.2978589999999
 30
0.0
 40
6.0
  0
LINE
  5
AA
  8
SIZE
  6
CONTINUOUS
 62
    30
 10
-98.0
 20
-260.2978589999999
 30
0.0
 11
-86.0
 21
-260.2978589999999
 31
0.0
  0
TEXT
  5
AB
  8
SIZE
  6
CONTINUOUS
 62
    30
 10
-67.200000000000003
 20
-235.2978589999999
 30
0.0
 40
64.0
  1
196
 41
0.9
 72
     1
 11
0.0
 21
-235.2978589999999
 31
0.0
  0
POINT
  5
AC
  8
DEFPOINTS
  6
CONTINUOUS
 62
    30
 10
98.0
 20
-20.0
 30
0.0
  0
POINT
  5
AD
  8
DEFPOINTS
  6
CONTINUOUS
 62
    30
 10
-98.0
 20
-20.0
 30
0.0
  0
POINT
  5
AE
  8
DEFPOINTS
  6
CONTINUOUS
 62
    30
 10
-98.0
 20
-260.2978589999999
 30
0.0
  0
LINE
  5
AF
  8
OUTLINE
  6
CONTINUOUS
 62
     3
 10
116.5
 20
0.0
 30
0.0
 11
-116.5
 21
0.0
 31
0.0
  0
LINE
  5
B0
  8
OUTLINE
  6
CONTINUOUS
 62
     3
 10
-85.0
 20
75.0
 30
0.0
 11
85.0
 21
75.0
 31
0.0
  0
LINE
  5
B1
  8
OUTLINE
  6
CONTINUOUS
 62
     3
 10
-80.364728999999997
 20
-80.0
 30
0.0
 11
80.605000000000004
 21
-80.0
 31
0.0
  0
LINE
  5
B2
  8
OUTLINE
  6
CONTINUOUS
 62
     3
 10
-85.0
 20
75.0
 30
0.0
 11
-85.0
 21
0.0
 31
0.0
  0
ARC
  5
B3
  8
OUTLINE
  6
CONTINUOUS
 62
     3
 10
-95.676107999999999
 20
-59.285959999999989
 30
0.0
 40
19.800000000000001
 50
181.0
 51
238.217376
  0
LINE
  5
B4
  8
OUTLINE
  6
CONTINUOUS
 62
     3
 10
-116.5
 20
0.0
 30
0.0
 11
-115.47309199999989
 21
-59.631518000000007
 31
0.0
  0
ARC
  5
B5
  8
OUTLINE
  6
CONTINUOUS
 62
     3
 10
-80.364728999999997
 20
68.5
 30
0.0
 40
148.5
 50
263.16736500000002
 51
270.0
  0
ARC
  5
B6
  8
OUTLINE
  6
CONTINUOUS
 62
     3
 10
-95.676107999999999
 20
-59.285959999999989
 30
0.0
 40
19.800000000000001
 50
239.887596
 51
263.16736500000002
  0
LINE
  5
B7
  8
OUTLINE
  6
CONTINUOUS
 62
     3
 10
85.0
 20
75.0
 30
0.0
 11
85.0
 21
0.0
 31
0.0
  0
LINE
  5
B8
  8
OUTLINE
  6
CONTINUOUS
 62
     3
 10
116.5
 20
0.0
 30
0.0
 11
115.47309199999989
 21
-59.631518000000007
 31
0.0
  0
ARC
  5
B9
  8
OUTLINE
  6
CONTINUOUS
 62
     3
 10
95.676107999999999
 20
-59.285959999999989
 30
0.0
 40
19.800000000000001
 50
301.782624
 51
359.0
  0
ARC
  5
BA
  8
OUTLINE
  6
CONTINUOUS
 62
     3
 10
95.676107999999999
 20
-59.285959999999989
 30
0.0
 40
19.800000000000001
 50
276.83263499999993
 51
300.11240400000003
  0
ARC
  5
BB
  8
OUTLINE
  6
CONTINUOUS
 62
     3
 10
80.364728999999997
 20
68.5
 30
0.0
 40
148.5
 50
270.0
 51
276.83263499999993
  0
TEXT
  5
C4
  8
ETC
  6
CONTINUOUS
 62
    61
 10
522.42518567031027
 20
163.46959282977761
 30
0.0
 40
50.0
  1
EX-15LF5
 41
0.9
  0
LINE
  5
124
  8
SIZE
  6
CONTINUOUS
 62
    30
 10
-116.5
 20
20.0
 30
0.0
 11
-116.4999999999999
 21
444.54743506548169
 31
0.0
  0
LINE
  5
125
  8
SIZE
  6
CONTINUOUS
 62
    30
 10
116.5
 20
20.0
 30
0.0
 11
116.5
 21
444.54743506548169
 31
0.0
  0
LINE
  5
126
  8
SIZE
  6
CONTINUOUS
 62
    30
 10
-116.4999999999999
 20
424.54743506548169
 30
0.0
 11
116.5
 21
424.54743506548169
 31
0.0
  0
LINE
  5
12A
  8
SIZE
  6
CONTINUOUS
 62
    30
 10
-85.0
 20
95.0
 30
0.0
 11
-84.999999999999986
 21
324.39844271819987
 31
0.0
  0
LINE
  5
12B
  8
SIZE
  6
CONTINUOUS
 62
    30
 10
85.0
 20
95.0
 30
0.0
 11
85.000000000000014
 21
324.39844271819987
 31
0.0
  0
LINE
  5
12E
  8
SIZE
  6
CONTINUOUS
 62
    30
 10
-84.999999999999986
 20
304.39844271819987
 30
0.0
 11
85.000000000000014
 21
304.39844271819987
 31
0.0
  0
TEXT
  5
132
  8
SIZE
  6
CONTINUOUS
 62
    30
 10
-68.571428571428555
 20
324.39844271819987
 30
0.0
 40
64.0
  1
170
 41
0.9
  0
TEXT
  5
133
  8
SIZE
  6
CONTINUOUS
 62
    30
 10
-74.057142857142821
 20
444.54743506548169
 30
0.0
 40
64.0
  1
233
 41
0.9
  0
CIRCLE
  5
13C
  8
SIZE
  6
CONTINUOUS
 62
    30
 39
50.0
 10
-116.4999999999999
 20
424.54743506548169
 30
0.0
 40
6.0
  0
CIRCLE
  5
13D
  8
SIZE
  6
CONTINUOUS
 62
    30
 39
50.0
 10
116.5
 20
424.54743506548169
 30
0.0
 40
6.0
  0
CIRCLE
  5
13E
  8
SIZE
  6
CONTINUOUS
 62
    30
 39
50.0
 10
85.000000000000014
 20
304.39844271819987
 30
0.0
 40
6.0
  0
CIRCLE
  5
13F
  8
SIZE
  6
CONTINUOUS
 62
    30
 39
50.0
 10
-84.999999999999986
 20
304.39844271819987
 30
0.0
 40
6.0
  0
ENDSEC
  0
EOF
