  0
SECTION
  2
HEADER
  9
$ACADVER
  1
AC1009
  9
$DWGCODEPAGE
  3
dos932
  9
$INSBASE
 10
0.0
 20
0.0
 30
0.0
  9
$EXTMIN
 10
-454.28387199999997
 20
-439.01729599999999
 30
0.0
  9
$EXTMAX
 10
909.70741633604223
 20
392.33937530665781
 30
0.0
  9
$LIMMIN
 10
-2970.0
 20
-2100.0
  9
$LIMMAX
 10
2970.0
 20
2100.0
  9
$ORTHOMODE
 70
     1
  9
$REGENMODE
 70
     1
  9
$FILLMODE
 70
     1
  9
$QTEXTMODE
 70
     0
  9
$MIRRTEXT
 70
     0
  9
$LTSCALE
 40
20.0
  9
$ATTMODE
 70
     1
  9
$TEXTSIZE
 40
64.0
  9
$TRACEWID
 40
0.05
  9
$TEXTSTYLE
  7
STANDARD
  9
$CLAYER
  8
NOTE
  9
$CELTYPE
  6
CONTINUOUS
  9
$CECOLOR
 62
     7
  9
$DIMSCALE
 40
1.0
  9
$DIMASZ
 40
12.0
  9
$DIMEXO
 40
20.0
  9
$DIMDLI
 40
200.0
  9
$DIMRND
 40
0.0
  9
$DIMDLE
 40
0.0
  9
$DIMEXE
 40
20.0
  9
$DIMTP
 40
0.0
  9
$DIMTM
 40
0.0
  9
$DIMTXT
 40
64.0
  9
$DIMCEN
 40
0.09
  9
$DIMTSZ
 40
0.0
  9
$DIMTOL
 70
     0
  9
$DIMLIM
 70
     0
  9
$DIMTIH
 70
     0
  9
$DIMTOH
 70
     0
  9
$DIMSE1
 70
     0
  9
$DIMSE2
 70
     0
  9
$DIMTAD
 70
     1
  9
$DIMZIN
 70
     8
  9
$DIMBLK
  1

  9
$DIMASO
 70
     1
  9
$DIMSHO
 70
     0
  9
$DIMPOST
  1

  9
$DIMAPOST
  1

  9
$DIMALT
 70
     0
  9
$DIMALTD
 70
     2
  9
$DIMALTF
 40
25.399999999999999
  9
$DIMLFAC
 40
1.0
  9
$DIMTOFL
 70
     1
  9
$DIMTVP
 40
0.0
  9
$DIMTIX
 70
     1
  9
$DIMSOXD
 70
     0
  9
$DIMSAH
 70
     0
  9
$DIMBLK1
  1

  9
$DIMBLK2
  1

  9
$DIMSTYLE
  2
STANDARD
  9
$DIMCLRD
 70
     7
  9
$DIMCLRE
 70
     7
  9
$DIMCLRT
 70
     7
  9
$DIMTFAC
 40
1.0
  9
$DIMGAP
 40
25.0
  9
$LUNITS
 70
     2
  9
$LUPREC
 70
     4
  9
$SKETCHINC
 40
0.1
  9
$FILLETRAD
 40
3.0
  9
$AUNITS
 70
     1
  9
$AUPREC
 70
     3
  9
$MENU
  1
ACAD
  9
$ELEVATION
 40
0.0
  9
$PELEVATION
 40
0.0
  9
$THICKNESS
 40
50.0
  9
$LIMCHECK
 70
     0
  9
$CHAMFERA
 40
0.0
  9
$CHAMFERB
 40
0.0
  9
$SKPOLY
 70
     0
  9
$TDCREATE
 40
2453019.62301037
  9
$TDUPDATE
 40
2459017.504277836
  9
$TDINDWG
 40
1.7121591204
  9
$TDUSRTIMER
 40
1.7121591204
  9
$USRTIMER
 70
     1
  9
$ANGBASE
 50
0.0
  9
$ANGDIR
 70
     0
  9
$PDMODE
 70
     3
  9
$PDSIZE
 40
-2.0
  9
$PLINEWID
 40
0.0
  9
$SPLFRAME
 70
     0
  9
$SPLINETYPE
 70
     6
  9
$SPLINESEGS
 70
     8
  9
$SURFTAB1
 70
     6
  9
$SURFTAB2
 70
     6
  9
$SURFTYPE
 70
     6
  9
$SURFU
 70
     6
  9
$SURFV
 70
     6
  9
$UCSNAME
  2

  9
$UCSORG
 10
0.0
 20
0.0
 30
0.0
  9
$UCSXDIR
 10
1.0
 20
0.0
 30
0.0
  9
$UCSYDIR
 10
0.0
 20
1.0
 30
0.0
  9
$PUCSNAME
  2

  9
$PUCSORG
 10
0.0
 20
0.0
 30
0.0
  9
$PUCSXDIR
 10
1.0
 20
0.0
 30
0.0
  9
$PUCSYDIR
 10
0.0
 20
1.0
 30
0.0
  9
$USERI1
 70
     0
  9
$USERI2
 70
     0
  9
$USERI3
 70
     0
  9
$USERI4
 70
     0
  9
$USERI5
 70
     0
  9
$USERR1
 40
20.0
  9
$USERR2
 40
0.0
  9
$USERR3
 40
0.0
  9
$USERR4
 40
0.0
  9
$USERR5
 40
0.0
  9
$WORLDVIEW
 70
     1
  9
$SHADEDGE
 70
     3
  9
$SHADEDIF
 70
    70
  9
$TILEMODE
 70
     1
  9
$MAXACTVP
 70
    48
  9
$PINSBASE
 10
0.0
 20
0.0
 30
0.0
  9
$PLIMCHECK
 70
     0
  9
$PEXTMIN
 10
-100000000000000000000.0
 20
-100000000000000000000.0
 30
-100000000000000000000.0
  9
$PEXTMAX
 10
100000000000000000000.0
 20
100000000000000000000.0
 30
100000000000000000000.0
  9
$PLIMMIN
 10
0.0
 20
0.0
  9
$PLIMMAX
 10
12.0
 20
9.0
  9
$UNITMODE
 70
     0
  9
$VISRETAIN
 70
     0
  9
$PLINEGEN
 70
     0
  9
$PSLTSCALE
 70
     0
  9
$TREEDEPTH
 70
  3020
  9
$ATTDIA
 70
     0
  9
$ATTREQ
 70
     1
  9
$BLIPMODE
 70
     1
  9
$COORDS
 70
     1
  9
$DRAGMODE
 70
     2
  9
$OSMODE
 70
     0
  9
$HANDLING
 70
     0
  9
$HANDSEED
  5
E70B
  0
ENDSEC
  0
SECTION
  2
TABLES
  0
TABLE
  2
LTYPE
 70
     2
  0
LTYPE
  2
CONTINUOUS
 70
     0
  3
実線
 72
    65
 73
     0
 40
0.0
  0
LTYPE
  2
DASHDOT
 70
     0
  3
____ _ ____ _ ____ _ ____ _ ____ _ ____ _ ____
 72
    65
 73
     4
 40
5.5
 49
4.0
 49
-0.6
 49
0.3
 49
-0.6
  0
ENDTAB
  0
TABLE
  2
LAYER
 70
    12
  0
LAYER
  2
0
 70
     0
 62
     7
  6
CONTINUOUS
  0
LAYER
  2
BASIS
 70
     0
 62
     6
  6
DASHDOT
  0
LAYER
  2
OUTLINE
 70
     0
 62
     3
  6
CONTINUOUS
  0
LAYER
  2
DETAIL
 70
     0
 62
     5
  6
CONTINUOUS
  0
LAYER
  2
SIZE
 70
     0
 62
    30
  6
CONTINUOUS
  0
LAYER
  2
ARRANGE
 70
     0
 62
     1
  6
CONTINUOUS
  0
LAYER
  2
ETC
 70
     0
 62
    61
  6
CONTINUOUS
  0
LAYER
  2
NOTE
 70
     0
 62
     4
  6
CONTINUOUS
  0
LAYER
  2
DEFPOINTS
 70
    64
 62
     7
  6
CONTINUOUS
  0
LAYER
  2
FIX
 70
    64
 62
    11
  6
CONTINUOUS
  0
LAYER
  2
SERVICESPACE
 70
    64
 62
     2
  6
DASHDOT
  0
LAYER
  2
SYMBOLLINE
 70
    64
 62
    15
  6
CONTINUOUS
  0
ENDTAB
  0
TABLE
  2
STYLE
 70
     1
  0
STYLE
  2
STANDARD
 70
     0
 40
64.0
 41
0.9
 50
0.0
 71
     0
 42
64.0
  3
SIMPLEX.shx
  4
BIGFONT.shx
  0
ENDTAB
  0
TABLE
  2
APPID
 70
    17
  0
APPID
  2
ACAD
 70
     0
  0
APPID
  2
AUTOCAD_POSTSCRIPT_FIGURE
 70
     0
  0
APPID
  2
ACAD_EXEMPT_FROM_CAD_STANDARDS
 70
     0
  0
APPID
  2
ACAD_PSEXT
 70
     0
  0
APPID
  2
ACAUTHENVIRON
 70
     0
  0
APPID
  2
GENIUS_GENOENT_13
 70
     0
  0
APPID
  2
GENIUS_GENCFG_13
 70
     0
  0
APPID
  2
GENIUS_GENCFG0_13
 70
     0
  0
APPID
  2
GENIUS_GENCFG1_13
 70
     0
  0
APPID
  2
GENIUS_GENCFG2_13
 70
     0
  0
APPID
  2
GENIUS_GENCFG3_13
 70
     0
  0
APPID
  2
GENIUS_GENCFG4_13
 70
     0
  0
APPID
  2
GENIUS_GEVCFG0_13
 70
     0
  0
APPID
  2
CONTENTBLOCKICON
 70
     0
  0
APPID
  2
CONTENTBLOCKDESCRIPTION
 70
     0
  0
APPID
  2
ACAD_NAV_VCDISPLAY
 70
     0
  0
APPID
  2
ACAD_MLEADERVER
 70
     0
  0
ENDTAB
  0
TABLE
  2
DIMSTYLE
 70
     1
  0
DIMSTYLE
  2
STANDARD
 70
     0
  3

  4

  5
_ORIGIN
  6

  7

 40
1.0
 41
12.0
 42
20.0
 43
200.0
 44
20.0
 45
0.0
 46
0.0
 47
0.0
 48
0.0
140
64.0
141
0.09
142
0.0
143
25.399999999999999
144
1.0
145
0.0
146
1.0
147
25.0
 71
     0
 72
     0
 73
     0
 74
     0
 75
     0
 76
     0
 77
     1
 78
     8
170
     0
171
     2
172
     1
173
     0
174
     1
175
     0
176
     7
177
     7
178
     7
  0
ENDTAB
  0
TABLE
  2
VIEW
 70
     1
  0
VIEW
  2
ALL
 70
     0
 40
4282.6198079999986
 10
0.0
 20
41.309904000000003
 41
5940.0
 11
0.0
 21
0.0
 31
1.0
 12
0.0
 22
0.0
 32
0.0
 42
50.0
 43
0.0
 44
0.0
 50
0.0
 71
     0
  0
ENDTAB
  0
TABLE
  2
UCS
 70
     0
  0
ENDTAB
  0
TABLE
  2
VPORT
 70
     1
  0
VPORT
  2
*ACTIVE
 70
     0
 10
0.0
 20
0.0
 11
1.0
 21
1.0
 12
227.7117721680211
 22
-23.338960346671119
 13
0.0
 23
0.0
 14
1.0
 24
1.0
 15
0.0
 25
0.0
 16
0.0
 26
0.0
 36
1.0
 17
0.0
 27
0.0
 37
0.0
 40
774.91242305861977
 41
1.8351254480286741
 42
50.0
 43
0.0
 44
0.0
 50
0.0
 51
0.0
 71
     0
 72
  1000
 73
     1
 74
     3
 75
     0
 76
     0
 77
     0
 78
     0
  0
ENDTAB
  0
ENDSEC
  0
SECTION
  2
BLOCKS
  0
BLOCK
  8
0
  2
_ORIGIN
 70
     0
 10
0.0
 20
0.0
 30
0.0
  3
_ORIGIN
  1
_ORIGIN
  0
CIRCLE
  8
0
  6
CONTINUOUS
 62
     7
 10
0.0
 20
0.0
 30
0.0
 40
0.5
  0
LINE
  8
0
  6
CONTINUOUS
 62
     7
 10
0.0
 20
0.0
 30
0.0
 11
-1.0
 21
0.0
 31
0.0
  0
ENDBLK
  8
0
  0
ENDSEC
  0
SECTION
  2
ENTITIES
  0
LINE
  8
BASIS
  6
DASHDOT
 62
     6
 10
0.0
 20
150.663487
 30
0.0
 11
0.0
 21
-191.38763399999999
 31
0.0
  0
LINE
  8
SIZE
  6
CONTINUOUS
 62
    30
 10
116.5
 20
131.49999999999989
 30
0.0
 11
116.5
 21
311.75957499999993
 31
0.0
  0
LINE
  8
SIZE
  6
CONTINUOUS
 62
    30
 10
-116.5
 20
131.49999999999989
 30
0.0
 11
-116.5
 21
311.75957499999993
 31
0.0
  0
LINE
  8
SIZE
  6
CONTINUOUS
 62
    30
 10
104.4999999999999
 20
291.75957499999993
 30
0.0
 11
-104.4999999999999
 21
291.75957499999993
 31
0.0
  0
CIRCLE
  8
SIZE
  6
CONTINUOUS
 62
    30
 10
116.5
 20
291.75957499999993
 30
0.0
 40
6.0
  0
LINE
  8
SIZE
  6
CONTINUOUS
 62
    30
 10
116.5
 20
291.75957499999993
 30
0.0
 11
104.4999999999999
 21
291.75957499999993
 31
0.0
  0
CIRCLE
  8
SIZE
  6
CONTINUOUS
 62
    30
 10
-116.5
 20
291.75957499999993
 30
0.0
 40
6.0
  0
LINE
  8
SIZE
  6
CONTINUOUS
 62
    30
 10
-116.5
 20
291.75957499999993
 30
0.0
 11
-104.4999999999999
 21
291.75957499999993
 31
0.0
  0
TEXT
  8
SIZE
  6
CONTINUOUS
 62
    30
 10
-74.05714285714285
 20
316.75957499999993
 30
0.0
 40
64.0
  1
233
 41
0.9
 72
     1
 11
0.0
 21
316.75957499999993
 31
0.0
  0
LINE
  8
NOTE
  6
CONTINUOUS
 62
     4
 10
116.5
 20
-92.5
 30
0.0
 11
116.5
 21
-52.5
 31
0.0
  0
LINE
  8
NOTE
  6
CONTINUOUS
 62
     4
 10
136.49999999999989
 20
-72.5
 30
0.0
 11
96.5
 21
-72.5
 31
0.0
  0
LINE
  8
NOTE
  6
CONTINUOUS
 62
     4
 10
324.52919600000001
 20
-208.29093599999999
 30
0.0
 11
205.70756999999989
 21
-208.29093599999999
 31
0.0
  0
TEXT
  8
NOTE
  6
CONTINUOUS
 62
     4
 10
216.34796600000001
 20
-180.86398399999999
 30
0.0
 40
64.0
  1
EL
 41
0.9
  0
LINE
  8
SIZE
  6
CONTINUOUS
 62
    30
 10
187.9155199999999
 20
0.5
 30
0.0
 11
344.86483600000003
 21
0.5
 31
0.0
  0
LINE
  8
SIZE
  6
CONTINUOUS
 62
    30
 10
156.49999999999989
 20
-72.5
 30
0.0
 11
344.86483600000003
 21
-72.5
 31
0.0
  0
LINE
  8
SIZE
  6
CONTINUOUS
 62
    30
 10
324.86483600000003
 20
12.5
 30
0.0
 11
324.86483600000003
 21
24.5
 31
0.0
  0
LINE
  8
SIZE
  6
CONTINUOUS
 62
    30
 10
324.86483600000003
 20
-84.5
 30
0.0
 11
324.86483600000003
 21
-96.5
 31
0.0
  0
LINE
  8
SIZE
  6
CONTINUOUS
 62
    30
 10
324.86483600000003
 20
179.53566900000001
 30
0.0
 11
324.86483600000003
 21
0.5
 31
0.0
  0
TEXT
  8
SIZE
  6
CONTINUOUS
 62
    30
 10
299.86483600000003
 20
61.278525571428467
 30
0.0
 40
64.0
  1
73
 50
90.0
 41
0.9
 72
     1
 11
299.86483600000003
 21
107.90709699999989
 31
0.0
  0
LINE
  8
SIZE
  6
CONTINUOUS
 62
    30
 10
324.86483600000003
 20
0.5
 30
0.0
 11
324.86483600000003
 21
-72.5
 31
0.0
  0
LINE
  8
SIZE
  6
CONTINUOUS
 62
    30
 10
324.86483600000003
 20
0.5
 30
0.0
 11
324.86483600000003
 21
-72.5
 31
0.0
  0
CIRCLE
  8
SIZE
  6
CONTINUOUS
 62
    30
 10
324.86483600000003
 20
0.5
 30
0.0
 40
6.0
  0
LINE
  8
SIZE
  6
CONTINUOUS
 62
    30
 10
324.86483600000003
 20
0.5
 30
0.0
 11
324.86483600000003
 21
12.5
 31
0.0
  0
CIRCLE
  8
SIZE
  6
CONTINUOUS
 62
    30
 10
324.86483600000003
 20
-72.5
 30
0.0
 40
6.0
  0
LINE
  8
SIZE
  6
CONTINUOUS
 62
    30
 10
324.86483600000003
 20
-72.5
 30
0.0
 11
324.86483600000003
 21
-84.5
 31
0.0
  0
LINE
  8
NOTE
  6
CONTINUOUS
 62
     4
 10
205.70756999999989
 20
-208.29093599999999
 30
0.0
 11
116.5
 21
-72.5
 31
0.0
  0
LINE
  8
NOTE
  6
CONTINUOUS
 62
     4
 10
130.02414999999999
 20
-110.14435399999989
 30
0.0
 11
116.5
 21
-72.5
 31
0.0
  0
LINE
  8
NOTE
  6
CONTINUOUS
 62
     4
 10
116.5
 20
-72.5
 30
0.0
 11
147.034434
 21
-98.338891999999987
 31
0.0
  0
LINE
  8
DETAIL
  6
CONTINUOUS
 62
     5
 10
-111.4999999999999
 20
116.5
 30
0.0
 11
111.4999999999999
 21
116.5
 31
0.0
  0
LINE
  8
DETAIL
  6
CONTINUOUS
 62
     5
 10
-116.5
 20
111.4999999999999
 30
0.0
 11
-116.5
 21
-121.737635
 31
0.0
  0
LINE
  8
DETAIL
  6
CONTINUOUS
 62
     5
 10
116.5
 20
111.4999999999999
 30
0.0
 11
116.5
 21
-121.737635
 31
0.0
  0
ARC
  8
DETAIL
  6
CONTINUOUS
 62
     5
 10
-111.4999999999999
 20
111.4999999999999
 30
0.0
 40
5.0
 50
90.0
 51
180.0
  0
ARC
  8
DETAIL
  6
CONTINUOUS
 62
     5
 10
111.4999999999999
 20
111.4999999999999
 30
0.0
 40
5.0
 50
0.0
 51
90.0
  0
LINE
  8
SIZE
  6
CONTINUOUS
 62
    30
 10
-20.0
 20
-140.5
 30
0.0
 11
-385.28387199999997
 21
-140.5
 31
0.0
  0
LINE
  8
SIZE
  6
CONTINUOUS
 62
    30
 10
-131.49999999999989
 20
116.5
 30
0.0
 11
-385.28387199999997
 21
116.5
 31
0.0
  0
LINE
  8
SIZE
  6
CONTINUOUS
 62
    30
 10
-365.28387199999997
 20
-128.49999999999989
 30
0.0
 11
-365.28387199999997
 21
104.4999999999999
 31
0.0
  0
TEXT
  8
SIZE
  6
CONTINUOUS
 62
    30
 10
-390.28387199999997
 20
-85.80714285714285
 30
0.0
 40
64.0
  1
257
 50
90.0
 41
0.9
 72
     1
 11
-390.28387199999997
 21
-11.75
 31
0.0
  0
CIRCLE
  8
SIZE
  6
CONTINUOUS
 62
    30
 10
-365.28387199999997
 20
-140.5
 30
0.0
 40
6.0
  0
LINE
  8
SIZE
  6
CONTINUOUS
 62
    30
 10
-365.28387199999997
 20
-140.5
 30
0.0
 11
-365.28387199999997
 21
-128.49999999999989
 31
0.0
  0
CIRCLE
  8
SIZE
  6
CONTINUOUS
 62
    30
 10
-365.28387199999997
 20
116.5
 30
0.0
 40
6.0
  0
LINE
  8
SIZE
  6
CONTINUOUS
 62
    30
 10
-365.28387199999997
 20
116.5
 30
0.0
 11
-365.28387199999997
 21
104.4999999999999
 31
0.0
  0
LINE
  8
DETAIL
  6
CONTINUOUS
 62
     5
 10
-11.0
 20
119.5
 30
0.0
 11
-11.0
 21
116.5
 31
0.0
  0
LINE
  8
DETAIL
  6
CONTINUOUS
 62
     5
 10
11.0
 20
119.5
 30
0.0
 11
11.0
 21
116.5
 31
0.0
  0
LINE
  8
SIZE
  6
CONTINUOUS
 62
    30
 10
11.0
 20
139.5
 30
0.0
 11
11.0
 21
222.45447200000001
 31
0.0
  0
LINE
  8
SIZE
  6
CONTINUOUS
 62
    30
 10
-11.0
 20
139.5
 30
0.0
 11
-11.0
 21
222.45447200000001
 31
0.0
  0
LINE
  8
SIZE
  6
CONTINUOUS
 62
    30
 10
23.0
 20
202.45447200000001
 30
0.0
 11
35.0
 21
202.45447200000001
 31
0.0
  0
LINE
  8
SIZE
  6
CONTINUOUS
 62
    30
 10
-23.0
 20
202.45447200000001
 30
0.0
 11
-35.0
 21
202.45447200000001
 31
0.0
  0
LINE
  8
SIZE
  6
CONTINUOUS
 62
    30
 10
277.76336900000001
 20
202.45447200000001
 30
0.0
 11
11.0
 21
202.45447200000001
 31
0.0
  0
TEXT
  8
SIZE
  6
CONTINUOUS
 62
    30
 10
159.5062265714285
 20
227.45447200000001
 30
0.0
 40
64.0
  1
22
 41
0.9
 72
     1
 11
206.1347979999999
 21
227.45447200000001
 31
0.0
  0
LINE
  8
SIZE
  6
CONTINUOUS
 62
    30
 10
11.0
 20
202.45447200000001
 30
0.0
 11
-11.0
 21
202.45447200000001
 31
0.0
  0
LINE
  8
SIZE
  6
CONTINUOUS
 62
    30
 10
11.0
 20
202.45447200000001
 30
0.0
 11
-11.0
 21
202.45447200000001
 31
0.0
  0
CIRCLE
  8
SIZE
  6
CONTINUOUS
 62
    30
 10
11.0
 20
202.45447200000001
 30
0.0
 40
6.0
  0
LINE
  8
SIZE
  6
CONTINUOUS
 62
    30
 10
11.0
 20
202.45447200000001
 30
0.0
 11
23.0
 21
202.45447200000001
 31
0.0
  0
CIRCLE
  8
SIZE
  6
CONTINUOUS
 62
    30
 10
-11.0
 20
202.45447200000001
 30
0.0
 40
6.0
  0
LINE
  8
SIZE
  6
CONTINUOUS
 62
    30
 10
-11.0
 20
202.45447200000001
 30
0.0
 11
-23.0
 21
202.45447200000001
 31
0.0
  0
LINE
  8
SIZE
  6
CONTINUOUS
 62
    30
 10
-192.258747
 20
0.0
 30
0.0
 11
-282.33687200000008
 21
0.0
 31
0.0
  0
LINE
  8
SIZE
  6
CONTINUOUS
 62
    30
 10
-20.0
 20
-140.5
 30
0.0
 11
-282.33687200000008
 21
-140.5
 31
0.0
  0
LINE
  8
SIZE
  6
CONTINUOUS
 62
    30
 10
-262.33687200000003
 20
-12.0
 30
0.0
 11
-262.33687200000003
 21
-128.49999999999989
 31
0.0
  0
LINE
  8
SIZE
  6
CONTINUOUS
 62
    30
 10
-262.33687200000003
 20
-439.01729599999999
 30
0.0
 11
-262.33687200000003
 21
-140.5
 31
0.0
  0
TEXT
  8
SIZE
  6
CONTINUOUS
 62
    30
 10
-287.33687200000008
 20
-414.01729571428569
 30
0.0
 40
64.0
  1
140.5
 50
90.0
 41
0.9
 72
     1
 11
-287.33687200000008
 21
-304.30300999999997
 31
0.0
  0
CIRCLE
  8
SIZE
  6
CONTINUOUS
 62
    30
 10
-262.33687200000003
 20
0.0
 30
0.0
 40
6.0
  0
LINE
  8
SIZE
  6
CONTINUOUS
 62
    30
 10
-262.33687200000003
 20
0.0
 30
0.0
 11
-262.33687200000003
 21
-12.0
 31
0.0
  0
CIRCLE
  8
SIZE
  6
CONTINUOUS
 62
    30
 10
-262.33687200000003
 20
-140.5
 30
0.0
 40
6.0
  0
LINE
  8
SIZE
  6
CONTINUOUS
 62
    30
 10
-262.33687200000003
 20
-140.5
 30
0.0
 11
-262.33687200000003
 21
-128.49999999999989
 31
0.0
  0
LINE
  8
SIZE
  6
CONTINUOUS
 62
    30
 10
-31.0
 20
119.5
 30
0.0
 11
-210.68700999999999
 21
119.5
 31
0.0
  0
LINE
  8
SIZE
  6
CONTINUOUS
 62
    30
 10
-131.49999999999989
 20
116.5
 30
0.0
 11
-210.68700999999999
 21
116.5
 31
0.0
  0
LINE
  8
SIZE
  6
CONTINUOUS
 62
    30
 10
-190.68700999999999
 20
131.49999999999989
 30
0.0
 11
-190.68700999999999
 21
143.5
 31
0.0
  0
LINE
  8
SIZE
  6
CONTINUOUS
 62
    30
 10
-190.68700999999999
 20
104.4999999999999
 30
0.0
 11
-190.68700999999999
 21
92.5
 31
0.0
  0
LINE
  8
SIZE
  6
CONTINUOUS
 62
    30
 10
-190.68700999999999
 20
240.152772
 30
0.0
 11
-190.68700999999999
 21
119.5
 31
0.0
  0
TEXT
  8
SIZE
  6
CONTINUOUS
 62
    30
 10
-215.68700999999999
 20
176.75277199999999
 30
0.0
 40
64.0
  1
3
 50
90.0
 41
0.9
 72
     1
 11
-215.68700999999999
 21
195.95277200000001
 31
0.0
  0
LINE
  8
SIZE
  6
CONTINUOUS
 62
    30
 10
-190.68700999999999
 20
119.5
 30
0.0
 11
-190.68700999999999
 21
116.5
 31
0.0
  0
LINE
  8
SIZE
  6
CONTINUOUS
 62
    30
 10
-190.68700999999999
 20
119.5
 30
0.0
 11
-190.68700999999999
 21
116.5
 31
0.0
  0
CIRCLE
  8
SIZE
  6
CONTINUOUS
 62
    30
 10
-190.68700999999999
 20
119.5
 30
0.0
 40
6.0
  0
LINE
  8
SIZE
  6
CONTINUOUS
 62
    30
 10
-190.68700999999999
 20
119.5
 30
0.0
 11
-190.68700999999999
 21
131.49999999999989
 31
0.0
  0
CIRCLE
  8
SIZE
  6
CONTINUOUS
 62
    30
 10
-190.68700999999999
 20
116.5
 30
0.0
 40
6.0
  0
LINE
  8
SIZE
  6
CONTINUOUS
 62
    30
 10
-190.68700999999999
 20
116.5
 30
0.0
 11
-190.68700999999999
 21
104.4999999999999
 31
0.0
  0
LINE
  8
DETAIL
  6
CONTINUOUS
 62
     5
 10
-11.0
 20
119.5
 30
0.0
 11
11.0
 21
119.5
 31
0.0
  0
ARC
  8
DETAIL
  6
CONTINUOUS
 62
     5
 10
0.0
 20
1245.5
 30
0.0
 40
1386.0
 50
265.75430500000039
 51
274.24569499999961
  0
ARC
  8
DETAIL
  6
CONTINUOUS
 62
     5
 10
-101.5
 20
-121.737635
 30
0.0
 40
15.0
 50
180.0
 51
265.75430500000039
  0
ARC
  8
DETAIL
  6
CONTINUOUS
 62
     5
 10
101.5
 20
-121.737635
 30
0.0
 40
15.0
 50
274.24569499999961
 51
0.0
  0
LINE
  8
DETAIL
  6
CONTINUOUS
 62
     5
 10
116.5
 20
-116.5
 30
0.0
 11
-116.5
 21
-116.5
 31
0.0
  0
ARC
  8
DETAIL
  6
CONTINUOUS
 62
     5
 10
77.499999000000003
 20
70.499999000000003
 30
0.0
 40
36.0
 50
0.0
 51
90.0
  0
ARC
  8
DETAIL
  6
CONTINUOUS
 62
     5
 10
192.5820610000001
 20
-13.702109999999999
 30
0.0
 40
144.999999
 50
131.87124700000089
 51
161.5502940000006
  0
ARC
  8
DETAIL
  6
CONTINUOUS
 62
     5
 10
192.5820610000001
 20
-13.702109999999999
 30
0.0
 40
147.999999
 50
132.1495619999998
 51
160.58265300000039
  0
ARC
  8
DETAIL
  6
CONTINUOUS
 62
     5
 10
77.499999000000003
 20
69.999999000000003
 30
0.0
 40
36.0
 50
0.0
 51
90.0
  0
ARC
  8
DETAIL
  6
CONTINUOUS
 62
     5
 10
77.499999000000003
 20
70.499999000000003
 30
0.0
 40
30.0
 50
0.0
 51
90.0
  0
ARC
  8
DETAIL
  6
CONTINUOUS
 62
     5
 10
80.50848899999994
 20
70.499999000000003
 30
0.0
 40
30.0
 50
0.0
 51
90.0
  0
ARC
  8
DETAIL
  6
CONTINUOUS
 62
     5
 10
-77.499999000000003
 20
70.499999000000003
 30
0.0
 40
36.0
 50
90.0
 51
180.0
  0
ARC
  8
DETAIL
  6
CONTINUOUS
 62
     5
 10
196.615983
 20
-26.399710000000031
 30
0.0
 40
181.99999800000001
 50
135.79312199999919
 51
151.31728199999901
  0
ARC
  8
DETAIL
  6
CONTINUOUS
 62
     5
 10
196.615983
 20
-26.399710000000031
 30
0.0
 40
184.99999799999989
 50
136.69007700000029
 51
154.2405990000002
  0
ARC
  8
DETAIL
  6
CONTINUOUS
 62
     5
 10
298.63466299999982
 20
-109.1942649999999
 30
0.0
 40
339.99999700000001
 50
141.92096799999939
 51
148.094990999998
  0
ARC
  8
DETAIL
  6
CONTINUOUS
 62
     5
 10
298.63466299999982
 20
-109.1942649999999
 30
0.0
 40
336.99999700000001
 50
141.5202370000016
 51
146.54453099999881
  0
ARC
  8
DETAIL
  6
CONTINUOUS
 62
     5
 10
-77.499999000000003
 20
70.499999000000003
 30
0.0
 40
30.0
 50
90.0
 51
180.0
  0
ARC
  8
DETAIL
  6
CONTINUOUS
 62
     5
 10
-77.499999000000003
 20
69.999999000000003
 30
0.0
 40
36.0
 50
90.0
 51
180.0
  0
ARC
  8
DETAIL
  6
CONTINUOUS
 62
     5
 10
-80.508488999999997
 20
70.499999000000003
 30
0.0
 40
30.0
 50
90.0
 51
180.0
  0
ARC
  8
DETAIL
  6
CONTINUOUS
 62
     5
 10
243.2790259999999
 20
-116.505331
 30
0.0
 40
322.99999700000001
 50
137.79052099999839
 51
141.26030299999829
  0
ARC
  8
DETAIL
  6
CONTINUOUS
 62
     5
 10
243.2790259999999
 20
-116.505331
 30
0.0
 40
325.99999699999989
 50
138.26698099999911
 51
141.26030299999829
  0
ARC
  8
DETAIL
  6
CONTINUOUS
 62
     5
 10
77.499999000000003
 20
-80.500272999999993
 30
0.0
 40
30.0
 50
270.0
 51
0.0
  0
ARC
  8
DETAIL
  6
CONTINUOUS
 62
     5
 10
-373.67858200000001
 20
87.766633999999954
 30
0.0
 40
459.99999499999979
 50
334.46800700000159
 51
351.27647899999818
  0
ARC
  8
DETAIL
  6
CONTINUOUS
 62
     5
 10
-373.67858200000001
 20
87.766633999999954
 30
0.0
 40
462.99999500000001
 50
334.64520599999929
 51
351.2731800000002
  0
LINE
  8
DETAIL
  6
CONTINUOUS
 62
     5
 10
82.999999000000003
 20
-116.5
 30
0.0
 11
79.999999000000003
 21
-113.5
 31
0.0
  0
LINE
  8
DETAIL
  6
CONTINUOUS
 62
     5
 10
-99.999999000000003
 20
-119.5
 30
0.0
 11
99.999999000000003
 21
-119.5
 31
0.0
  0
ARC
  8
DETAIL
  6
CONTINUOUS
 62
     5
 10
212.08511799999999
 20
-4.4875799999999799
 30
0.0
 40
129.999999
 50
143.61798600000071
 51
170.25411600000101
  0
ARC
  8
DETAIL
  6
CONTINUOUS
 62
     5
 10
212.08511799999999
 20
-4.4875799999999799
 30
0.0
 40
132.999999
 50
142.31716199999869
 51
170.26569300000091
  0
LINE
  8
DETAIL
  6
CONTINUOUS
 62
     5
 10
-113.499999
 20
70.499999000000003
 30
0.0
 11
-113.499999
 21
-116.00027299999989
 31
0.0
  0
LINE
  8
DETAIL
  6
CONTINUOUS
 62
     5
 10
-113.499999
 20
69.999999000000003
 30
0.0
 11
-113.499999
 21
-116.00027299999989
 31
0.0
  0
ARC
  8
DETAIL
  6
CONTINUOUS
 62
     5
 10
-195.35070599999989
 20
92.40164900000002
 30
0.0
 40
249.99999800000001
 50
305.7466939999984
 51
330.1582199999998
  0
ARC
  8
DETAIL
  6
CONTINUOUS
 62
     5
 10
-195.35070599999989
 20
92.40164900000002
 30
0.0
 40
252.99999699999989
 50
306.68003000000198
 51
330.14953299999911
  0
ARC
  8
DETAIL
  6
CONTINUOUS
 62
     5
 10
-70.508488999999997
 20
-73.350532999999984
 30
0.0
 40
40.0
 50
180.0
 51
225.6410729999989
  0
ARC
  8
DETAIL
  6
CONTINUOUS
 62
     5
 10
-176.77547300000001
 20
147.575703
 30
0.0
 40
227.99999799999989
 50
287.6883769999987
 51
321.72838699999829
  0
LINE
  8
DETAIL
  6
CONTINUOUS
 62
     5
 10
-107.499999
 20
70.499999000000003
 30
0.0
 11
-107.499999
 21
-80.500272999999993
 31
0.0
  0
LINE
  8
DETAIL
  6
CONTINUOUS
 62
     5
 10
-77.499999000000003
 20
-110.50027300000001
 30
0.0
 11
77.499999000000003
 21
-110.50027300000001
 31
0.0
  0
LINE
  8
DETAIL
  6
CONTINUOUS
 62
     5
 10
-79.999999000000003
 20
-113.5
 30
0.0
 11
79.999999000000003
 21
-113.5
 31
0.0
  0
ARC
  8
DETAIL
  6
CONTINUOUS
 62
     5
 10
-77.499999000000003
 20
-80.500272999999993
 30
0.0
 40
30.0
 50
180.0
 51
270.0
  0
CIRCLE
  8
DETAIL
  6
CONTINUOUS
 62
     5
 10
-101.999999
 20
-125.999999
 30
0.0
 40
5.0
  0
LINE
  8
DETAIL
  6
CONTINUOUS
 62
     5
 10
-100.999999
 20
-118.5
 30
0.0
 11
-100.999999
 21
-116.5
 31
0.0
  0
ARC
  8
DETAIL
  6
CONTINUOUS
 62
     5
 10
-99.999999000000003
 20
-118.5
 30
0.0
 40
1.0
 50
180.0
 51
270.0
  0
LINE
  8
DETAIL
  6
CONTINUOUS
 62
     5
 10
-79.999999000000003
 20
-116.5
 30
0.0
 11
-79.999999000000003
 21
-113.5
 31
0.0
  0
LINE
  8
DETAIL
  6
CONTINUOUS
 62
     5
 10
-82.999999000000003
 20
-116.5
 30
0.0
 11
-79.999999000000003
 21
-113.5
 31
0.0
  0
LINE
  8
DETAIL
  6
CONTINUOUS
 62
     5
 10
79.999999000000003
 20
-116.5
 30
0.0
 11
79.999999000000003
 21
-113.5
 31
0.0
  0
ARC
  8
DETAIL
  6
CONTINUOUS
 62
     5
 10
-81.612297000000012
 20
143.30235899999991
 30
0.0
 40
89.999999000000003
 50
297.53942599999931
 51
321.68195100000071
  0
ARC
  8
DETAIL
  6
CONTINUOUS
 62
     5
 10
-81.612297000000012
 20
143.30235899999991
 30
0.0
 40
92.999999000000003
 50
297.59010399999943
 51
321.74023500000033
  0
ARC
  8
DETAIL
  6
CONTINUOUS
 62
     5
 10
-176.77547300000001
 20
147.575703
 30
0.0
 40
224.99999800000001
 50
287.93217800000002
 51
319.18113600000038
  0
ARC
  8
DETAIL
  6
CONTINUOUS
 62
     5
 10
-143.81586200000001
 20
170.77406400000001
 30
0.0
 40
184.99999799999989
 50
281.32079099999862
 51
310.69087399999819
  0
ARC
  8
DETAIL
  6
CONTINUOUS
 62
     5
 10
-143.81586200000001
 20
170.77406400000001
 30
0.0
 40
187.99999800000001
 50
281.13780999999977
 51
310.72002699999831
  0
LINE
  8
DETAIL
  6
CONTINUOUS
 62
     5
 10
-110.5084889999999
 20
-73.350532999999984
 30
0.0
 11
-110.5084889999999
 21
70.499999000000003
 31
0.0
  0
ARC
  8
DETAIL
  6
CONTINUOUS
 62
     5
 10
-147.1074439999999
 20
244.13220699999999
 30
0.0
 40
209.99999800000001
 50
280.87149500000152
 51
300.66619100000008
  0
ARC
  8
DETAIL
  6
CONTINUOUS
 62
     5
 10
-147.1074439999999
 20
244.13220699999999
 30
0.0
 40
212.99999800000001
 50
280.71655099999901
 51
300.64426899999881
  0
ARC
  8
DETAIL
  6
CONTINUOUS
 62
     5
 10
-268.99817200000001
 20
144.66581400000001
 30
0.0
 40
342.99999700000001
 50
328.70061599999963
 51
340.85690900000071
  0
ARC
  8
DETAIL
  6
CONTINUOUS
 62
     5
 10
-268.99817200000001
 20
144.66581400000001
 30
0.0
 40
339.99999700000001
 50
328.69421799999969
 51
341.27199499999892
  0
ARC
  8
DETAIL
  6
CONTINUOUS
 62
     5
 10
-234.621241
 20
195.33505199999991
 30
0.0
 40
299.99999700000001
 50
319.49983900000069
 51
331.89318199999872
  0
ARC
  8
DETAIL
  6
CONTINUOUS
 62
     5
 10
-234.621241
 20
195.33505199999991
 30
0.0
 40
302.99999699999989
 50
321.41335899999928
 51
333.67222300000009
  0
ARC
  8
DETAIL
  6
CONTINUOUS
 62
     5
 10
-197.92781999999991
 20
209.30208999999991
 30
0.0
 40
252.99999699999989
 50
314.31810299999933
 51
328.36180200000132
  0
ARC
  8
DETAIL
  6
CONTINUOUS
 62
     5
 10
-197.92781999999991
 20
209.30208999999991
 30
0.0
 40
249.99999800000001
 50
314.33972200000028
 51
326.27493200000163
  0
LINE
  8
DETAIL
  6
CONTINUOUS
 62
     5
 10
113.499999
 20
70.499999000000003
 30
0.0
 11
113.499999
 21
-116.00027299999989
 31
0.0
  0
LINE
  8
DETAIL
  6
CONTINUOUS
 62
     5
 10
113.499999
 20
69.999999000000003
 30
0.0
 11
113.499999
 21
-116.00027299999989
 31
0.0
  0
ARC
  8
DETAIL
  6
CONTINUOUS
 62
     5
 10
70.508489000000054
 20
-73.350532999999984
 30
0.0
 40
40.0
 50
314.35892700000107
 51
0.0
  0
LINE
  8
DETAIL
  6
CONTINUOUS
 62
     5
 10
107.499999
 20
70.499999000000003
 30
0.0
 11
107.499999
 21
-80.500272999999993
 31
0.0
  0
CIRCLE
  8
DETAIL
  6
CONTINUOUS
 62
     5
 10
101.999999
 20
-125.999999
 30
0.0
 40
5.0
  0
ARC
  8
DETAIL
  6
CONTINUOUS
 62
     5
 10
99.999999000000003
 20
-118.5
 30
0.0
 40
1.0
 50
270.0
 51
0.0
  0
LINE
  8
DETAIL
  6
CONTINUOUS
 62
     5
 10
100.999999
 20
-118.5
 30
0.0
 11
100.999999
 21
-116.5
 31
0.0
  0
LINE
  8
DETAIL
  6
CONTINUOUS
 62
     5
 10
110.5084889999999
 20
-73.350532999999984
 30
0.0
 11
110.5084889999999
 21
70.499999000000003
 31
0.0
  0
LINE
  8
DETAIL
  6
CONTINUOUS
 62
     5
 10
-77.499999000000003
 20
106.499999
 30
0.0
 11
77.499999000000003
 21
106.499999
 31
0.0
  0
LINE
  8
DETAIL
  6
CONTINUOUS
 62
     5
 10
77.499999000000003
 20
100.4999989999999
 30
0.0
 11
-80.508488999999997
 21
100.4999989999999
 31
0.0
  0
LINE
  8
DETAIL
  6
CONTINUOUS
 62
     5
 10
77.499999000000003
 20
105.999999
 30
0.0
 11
-77.499999000000003
 21
105.999999
 31
0.0
  0
LINE
  8
BASIS
  6
DASHDOT
 62
     6
 10
-172.258747
 20
0.0
 30
0.0
 11
167.9155199999999
 21
0.0
 31
0.0
  0
CIRCLE
  8
ARRANGE
  6
CONTINUOUS
 62
     1
 10
0.0
 20
0.0
 30
0.0
 40
40.0
  0
POINT
  8
ARRANGE
  6
CONTINUOUS
 62
     1
 10
0.0
 20
0.0
 30
0.0
  0
LINE
  8
OUTLINE
  6
CONTINUOUS
 62
     3
 10
-111.4999999999999
 20
116.5
 30
0.0
 11
-11.0
 21
116.5
 31
0.0
  0
LINE
  8
OUTLINE
  6
CONTINUOUS
 62
     3
 10
11.0
 20
116.5
 30
0.0
 11
111.4999999999999
 21
116.5
 31
0.0
  0
ARC
  8
OUTLINE
  6
CONTINUOUS
 62
     3
 10
0.0
 20
1245.5
 30
0.0
 40
1386.0
 50
265.75430500000039
 51
274.24569499999961
  0
LINE
  8
OUTLINE
  6
CONTINUOUS
 62
     3
 10
-116.5
 20
111.4999999999999
 30
0.0
 11
-116.5
 21
-121.737635
 31
0.0
  0
ARC
  8
OUTLINE
  6
CONTINUOUS
 62
     3
 10
-101.5
 20
-121.737635
 30
0.0
 40
15.0
 50
180.0
 51
265.75430500000039
  0
ARC
  8
OUTLINE
  6
CONTINUOUS
 62
     3
 10
-111.4999999999999
 20
111.4999999999999
 30
0.0
 40
5.0
 50
90.0
 51
180.0
  0
LINE
  8
OUTLINE
  6
CONTINUOUS
 62
     3
 10
116.5
 20
111.4999999999999
 30
0.0
 11
116.5
 21
-121.737635
 31
0.0
  0
ARC
  8
OUTLINE
  6
CONTINUOUS
 62
     3
 10
101.5
 20
-121.737635
 30
0.0
 40
15.0
 50
274.24569499999961
 51
0.0
  0
ARC
  8
OUTLINE
  6
CONTINUOUS
 62
     3
 10
111.4999999999999
 20
111.4999999999999
 30
0.0
 40
5.0
 50
0.0
 51
90.0
  0
LINE
  8
OUTLINE
  6
CONTINUOUS
 62
     3
 10
-11.0
 20
119.5
 30
0.0
 11
-11.0
 21
116.5
 31
0.0
  0
LINE
  8
OUTLINE
  6
CONTINUOUS
 62
     3
 10
11.0
 20
119.5
 30
0.0
 11
11.0
 21
116.5
 31
0.0
  0
LINE
  8
OUTLINE
  6
CONTINUOUS
 62
     3
 10
-11.0
 20
119.5
 30
0.0
 11
11.0
 21
119.5
 31
0.0
  0
TEXT
  8
ETC
  6
CONTINUOUS
 62
    61
 10
377.5931306217567
 20
328.33937530665781
 30
0.0
 40
64.0
  1
EX-15LF8_2
 41
0.9
  0
TEXT
  8
ETC
  6
CONTINUOUS
 62
    61
 10
373.40713662175631
 20
210.3840652918266
 30
0.0
 40
64.0
  1
換気扇
 41
0.9
  0
TEXT
  8
ETC
  6
CONTINUOUS
 62
    61
 10
424.10853487031233
 20
102.23529240560131
 30
0.0
 40
40.0
  1
EX-15LF8
 50
0.0
 41
0.9
 51
0.0
  7
STANDARD
 71
     0
 11
0.0
 21
0.0
 31
0.0
210
0.0
220
0.0
230
1.0
  0
ENDSEC
  0
EOF
