  0
SECTION
  2
HEADER
  9
$ACADVER
  1
AC1009
  9
$DWGCODEPAGE
  3
dos932
  9
$INSBASE
 10
0.0
 20
0.0
 30
0.0
  9
$EXTMIN
 10
-410.58653104187403
 20
-365.29539835790092
 30
-0.0015257624927045
  9
$EXTMAX
 10
1024.2004510180559
 20
565.88745916482003
 30
0.0022888765696933
  9
$LIMMIN
 10
-2970.0
 20
-2100.0
  9
$LIMMAX
 10
2970.0
 20
2100.0
  9
$ORTHOMODE
 70
     1
  9
$REGENMODE
 70
     1
  9
$FILLMODE
 70
     1
  9
$QTEXTMODE
 70
     0
  9
$MIRRTEXT
 70
     0
  9
$LTSCALE
 40
20.0
  9
$ATTMODE
 70
     1
  9
$TEXTSIZE
 40
64.0
  9
$TRACEWID
 40
0.05
  9
$TEXTSTYLE
  7
STANDARD
  9
$CLAYER
  8
NOTE
  9
$CELTYPE
  6
CONTINUOUS
  9
$CECOLOR
 62
     7
  9
$DIMSCALE
 40
1.0
  9
$DIMASZ
 40
12.0
  9
$DIMEXO
 40
20.0
  9
$DIMDLI
 40
200.0
  9
$DIMRND
 40
0.0
  9
$DIMDLE
 40
0.0
  9
$DIMEXE
 40
20.0
  9
$DIMTP
 40
0.0
  9
$DIMTM
 40
0.0
  9
$DIMTXT
 40
64.0
  9
$DIMCEN
 40
0.09
  9
$DIMTSZ
 40
0.0
  9
$DIMTOL
 70
     0
  9
$DIMLIM
 70
     0
  9
$DIMTIH
 70
     0
  9
$DIMTOH
 70
     0
  9
$DIMSE1
 70
     0
  9
$DIMSE2
 70
     0
  9
$DIMTAD
 70
     1
  9
$DIMZIN
 70
     8
  9
$DIMBLK
  1

  9
$DIMASO
 70
     1
  9
$DIMSHO
 70
     0
  9
$DIMPOST
  1

  9
$DIMAPOST
  1

  9
$DIMALT
 70
     0
  9
$DIMALTD
 70
     2
  9
$DIMALTF
 40
25.399999999999999
  9
$DIMLFAC
 40
1.0
  9
$DIMTOFL
 70
     1
  9
$DIMTVP
 40
0.0
  9
$DIMTIX
 70
     1
  9
$DIMSOXD
 70
     0
  9
$DIMSAH
 70
     0
  9
$DIMBLK1
  1

  9
$DIMBLK2
  1

  9
$DIMSTYLE
  2
STANDARD
  9
$DIMCLRD
 70
     7
  9
$DIMCLRE
 70
     7
  9
$DIMCLRT
 70
     7
  9
$DIMTFAC
 40
1.0
  9
$DIMGAP
 40
25.0
  9
$LUNITS
 70
     2
  9
$LUPREC
 70
     4
  9
$SKETCHINC
 40
0.1
  9
$FILLETRAD
 40
3.0
  9
$AUNITS
 70
     1
  9
$AUPREC
 70
     3
  9
$MENU
  1
ACAD
  9
$ELEVATION
 40
0.0
  9
$PELEVATION
 40
0.0
  9
$THICKNESS
 40
50.0
  9
$LIMCHECK
 70
     0
  9
$CHAMFERA
 40
0.0
  9
$CHAMFERB
 40
0.0
  9
$SKPOLY
 70
     0
  9
$TDCREATE
 40
2453019.62301037
  9
$TDUPDATE
 40
2459017.504432558
  9
$TDINDWG
 40
1.7205557176
  9
$TDUSRTIMER
 40
1.7205557176
  9
$USRTIMER
 70
     1
  9
$ANGBASE
 50
0.0
  9
$ANGDIR
 70
     0
  9
$PDMODE
 70
     3
  9
$PDSIZE
 40
-2.0
  9
$PLINEWID
 40
0.0
  9
$SPLFRAME
 70
     0
  9
$SPLINETYPE
 70
     6
  9
$SPLINESEGS
 70
     8
  9
$SURFTAB1
 70
     6
  9
$SURFTAB2
 70
     6
  9
$SURFTYPE
 70
     6
  9
$SURFU
 70
     6
  9
$SURFV
 70
     6
  9
$UCSNAME
  2

  9
$UCSORG
 10
0.0
 20
0.0
 30
0.0
  9
$UCSXDIR
 10
1.0
 20
0.0
 30
0.0
  9
$UCSYDIR
 10
0.0
 20
1.0
 30
0.0
  9
$PUCSNAME
  2

  9
$PUCSORG
 10
0.0
 20
0.0
 30
0.0
  9
$PUCSXDIR
 10
1.0
 20
0.0
 30
0.0
  9
$PUCSYDIR
 10
0.0
 20
1.0
 30
0.0
  9
$USERI1
 70
     0
  9
$USERI2
 70
     0
  9
$USERI3
 70
     0
  9
$USERI4
 70
     0
  9
$USERI5
 70
     0
  9
$USERR1
 40
20.0
  9
$USERR2
 40
0.0
  9
$USERR3
 40
0.0
  9
$USERR4
 40
0.0
  9
$USERR5
 40
0.0
  9
$WORLDVIEW
 70
     1
  9
$SHADEDGE
 70
     3
  9
$SHADEDIF
 70
    70
  9
$TILEMODE
 70
     1
  9
$MAXACTVP
 70
    48
  9
$PINSBASE
 10
0.0
 20
0.0
 30
0.0
  9
$PLIMCHECK
 70
     0
  9
$PEXTMIN
 10
-100000000000000000000.0
 20
-100000000000000000000.0
 30
-100000000000000000000.0
  9
$PEXTMAX
 10
100000000000000000000.0
 20
100000000000000000000.0
 30
100000000000000000000.0
  9
$PLIMMIN
 10
0.0
 20
0.0
  9
$PLIMMAX
 10
12.0
 20
9.0
  9
$UNITMODE
 70
     0
  9
$VISRETAIN
 70
     0
  9
$PLINEGEN
 70
     0
  9
$PSLTSCALE
 70
     0
  9
$TREEDEPTH
 70
  3020
  9
$ATTDIA
 70
     0
  9
$ATTREQ
 70
     1
  9
$BLIPMODE
 70
     1
  9
$COORDS
 70
     1
  9
$DRAGMODE
 70
     2
  9
$OSMODE
 70
     0
  9
$HANDLING
 70
     0
  9
$HANDSEED
  5
EC02
  0
ENDSEC
  0
SECTION
  2
TABLES
  0
TABLE
  2
LTYPE
 70
     2
  0
LTYPE
  2
CONTINUOUS
 70
     0
  3
実線
 72
    65
 73
     0
 40
0.0
  0
LTYPE
  2
DASHDOT
 70
     0
  3
____ _ ____ _ ____ _ ____ _ ____ _ ____ _ ____
 72
    65
 73
     4
 40
5.5
 49
4.0
 49
-0.6
 49
0.3
 49
-0.6
  0
ENDTAB
  0
TABLE
  2
LAYER
 70
    12
  0
LAYER
  2
0
 70
     0
 62
     7
  6
CONTINUOUS
  0
LAYER
  2
BASIS
 70
     0
 62
     6
  6
DASHDOT
  0
LAYER
  2
OUTLINE
 70
     0
 62
     3
  6
CONTINUOUS
  0
LAYER
  2
DETAIL
 70
     0
 62
     5
  6
CONTINUOUS
  0
LAYER
  2
SIZE
 70
     0
 62
    30
  6
CONTINUOUS
  0
LAYER
  2
ARRANGE
 70
     0
 62
     1
  6
CONTINUOUS
  0
LAYER
  2
DEFPOINTS
 70
     0
 62
     7
  6
CONTINUOUS
  0
LAYER
  2
ETC
 70
     0
 62
    61
  6
CONTINUOUS
  0
LAYER
  2
FIX
 70
     0
 62
    11
  6
CONTINUOUS
  0
LAYER
  2
NOTE
 70
     0
 62
     4
  6
CONTINUOUS
  0
LAYER
  2
SERVICESPACE
 70
    64
 62
     2
  6
DASHDOT
  0
LAYER
  2
SYMBOLLINE
 70
    64
 62
    15
  6
CONTINUOUS
  0
ENDTAB
  0
TABLE
  2
STYLE
 70
     1
  0
STYLE
  2
STANDARD
 70
     0
 40
64.0
 41
0.9
 50
0.0
 71
     0
 42
64.0
  3
SIMPLEX.shx
  4
BIGFONT.shx
  0
ENDTAB
  0
TABLE
  2
APPID
 70
    18
  0
APPID
  2
ACAD
 70
     0
  0
APPID
  2
AUTOCAD_POSTSCRIPT_FIGURE
 70
     0
  0
APPID
  2
ACAD_EXEMPT_FROM_CAD_STANDARDS
 70
     0
  0
APPID
  2
ACAD_PSEXT
 70
     0
  0
APPID
  2
ACAUTHENVIRON
 70
     0
  0
APPID
  2
GENIUS_GENOENT_13
 70
     0
  0
APPID
  2
GENIUS_GENCFG_13
 70
     0
  0
APPID
  2
GENIUS_GENCFG0_13
 70
     0
  0
APPID
  2
GENIUS_GENCFG1_13
 70
     0
  0
APPID
  2
GENIUS_GENCFG2_13
 70
     0
  0
APPID
  2
GENIUS_GENCFG3_13
 70
     0
  0
APPID
  2
GENIUS_GENCFG4_13
 70
     0
  0
APPID
  2
GENIUS_GEVCFG0_13
 70
     0
  0
APPID
  2
CONTENTBLOCKICON
 70
     0
  0
APPID
  2
CONTENTBLOCKDESCRIPTION
 70
     0
  0
APPID
  2
ACAD_NAV_VCDISPLAY
 70
     0
  0
APPID
  2
ACAD_MLEADERVER
 70
     0
  0
APPID
  2
ACDBDYNAMICBLOCKGUID
 70
     0
  0
ENDTAB
  0
TABLE
  2
DIMSTYLE
 70
     1
  0
DIMSTYLE
  2
STANDARD
 70
     0
  3

  4

  5
_ORIGIN
  6

  7

 40
1.0
 41
12.0
 42
20.0
 43
200.0
 44
20.0
 45
0.0
 46
0.0
 47
0.0
 48
0.0
140
64.0
141
0.09
142
0.0
143
25.399999999999999
144
1.0
145
0.0
146
1.0
147
25.0
 71
     0
 72
     0
 73
     0
 74
     0
 75
     0
 76
     0
 77
     1
 78
     8
170
     0
171
     2
172
     1
173
     0
174
     1
175
     0
176
     7
177
     7
178
     7
  0
ENDTAB
  0
TABLE
  2
VIEW
 70
     1
  0
VIEW
  2
ALL
 70
     0
 40
4282.6198079999986
 10
0.0
 20
41.309904000000003
 41
5940.0
 11
0.0
 21
0.0
 31
1.0
 12
0.0
 22
0.0
 32
0.0
 42
50.0
 43
0.0
 44
0.0
 50
0.0
 71
     0
  0
ENDTAB
  0
TABLE
  2
UCS
 70
     0
  0
ENDTAB
  0
TABLE
  2
VPORT
 70
     1
  0
VPORT
  2
*ACTIVE
 70
     0
 10
0.0
 20
0.0
 11
1.0
 21
1.0
 12
306.80695998809091
 22
100.2960304034596
 13
0.0
 23
0.0
 14
1.0
 24
1.0
 15
0.0
 25
0.0
 16
0.0
 26
0.0
 36
1.0
 17
0.0
 27
0.0
 37
0.0
 40
814.10184108875103
 41
1.8904458598726119
 42
50.0
 43
0.0
 44
0.0
 50
0.0
 51
0.0
 71
     0
 72
  1000
 73
     1
 74
     3
 75
     0
 76
     0
 77
     0
 78
     0
  0
ENDTAB
  0
ENDSEC
  0
SECTION
  2
BLOCKS
  0
BLOCK
  8
0
  2
_ORIGIN
 70
     0
 10
0.0
 20
0.0
 30
0.0
  3
_ORIGIN
  1
_ORIGIN
  0
CIRCLE
  8
0
  6
CONTINUOUS
 62
     7
 10
0.0
 20
0.0
 30
0.0
 40
0.5
  0
LINE
  8
0
  6
CONTINUOUS
 62
     7
 10
0.0
 20
0.0
 30
0.0
 11
-1.0
 21
0.0
 31
0.0
  0
ENDBLK
  8
0
  0
ENDSEC
  0
SECTION
  2
ENTITIES
  0
LINE
  8
BASIS
  6
DASHDOT
 62
     6
 10
-132.50515899999991
 20
0.0
 30
0.0
 11
111.1736529999999
 21
0.0
 31
0.0
  0
LINE
  8
DETAIL
  6
CONTINUOUS
 62
     5
 10
0.0
 20
-127.6299999999999
 30
0.0
 11
0.0
 21
116.5
 31
0.0
  0
LINE
  8
DETAIL
  6
CONTINUOUS
 62
     5
 10
0.0
 20
116.5
 30
0.0
 11
-59.631518000000028
 21
115.4730919999998
 31
0.0
  0
ARC
  8
DETAIL
  6
CONTINUOUS
 62
     5
 10
-59.285959999999989
 20
95.676107999999999
 30
0.0
 40
19.800000000000001
 50
90.999999999998522
 51
148.2173759999994
  0
ARC
  8
DETAIL
  6
CONTINUOUS
 62
     5
 10
-9.8999999999999773
 20
-127.6299999999999
 30
0.0
 40
9.9000000000000004
 50
270.0
 51
0.0
  0
LINE
  8
DETAIL
  6
CONTINUOUS
 62
     5
 10
-67.846813999999995
 20
-80.605000000000018
 30
0.0
 11
-67.846813999999995
 21
70.464729000000034
 31
0.0
  0
ARC
  8
DETAIL
  6
CONTINUOUS
 62
     5
 10
83.659710000000018
 20
-80.857675999999969
 30
0.0
 40
151.50673499999991
 50
179.9044439999989
 51
193.6065019999991
  0
ARC
  8
DETAIL
  6
CONTINUOUS
 62
     5
 10
68.5
 20
-80.605000000000018
 30
0.0
 40
148.5
 50
191.92718900000031
 51
194.08346800000081
  0
ARC
  8
DETAIL
  6
CONTINUOUS
 62
     5
 10
-76.392116999999985
 20
-110.800271
 30
0.0
 40
0.4950000000000001
 50
63.392110999999197
 51
90.0
  0
LINE
  8
DETAIL
  6
CONTINUOUS
 62
     5
 10
-76.392116999999985
 20
-110.30527099999991
 30
0.0
 11
-76.594906999999978
 21
-110.30527099999991
 31
0.0
  0
ARC
  8
DETAIL
  6
CONTINUOUS
 62
     5
 10
-76.594906999999978
 20
-109.810271
 30
0.0
 40
0.4950000000000001
 50
191.3806490000014
 51
270.0
  0
ARC
  8
DETAIL
  6
CONTINUOUS
 62
     5
 10
-97.084621999999968
 20
-97.122950000000003
 30
0.0
 40
24.75
 50
325.06693800000068
 51
0.0
  0
LINE
  8
DETAIL
  6
CONTINUOUS
 62
     5
 10
-72.334621999999968
 20
-97.122950000000003
 30
0.0
 11
-72.334621999999968
 21
70.464729000000034
 31
0.0
  0
ARC
  8
DETAIL
  6
CONTINUOUS
 62
     5
 10
-59.285959999999989
 20
95.676107999999999
 30
0.0
 40
19.800000000000001
 50
149.887596
 51
173.1673650000003
  0
ARC
  8
DETAIL
  6
CONTINUOUS
 62
     5
 10
68.5
 20
80.364729000000011
 30
0.0
 40
148.5
 50
173.1673650000003
 51
180.0
  0
LINE
  8
DETAIL
  6
CONTINUOUS
 62
     5
 10
-80.0
 20
80.364729000000011
 30
0.0
 11
-80.0
 21
-80.605000000000018
 31
0.0
  0
ARC
  8
DETAIL
  6
CONTINUOUS
 62
     5
 10
68.5
 20
-80.605000000000018
 30
0.0
 40
148.5
 50
180.0
 51
191.3806490000014
  0
LINE
  8
DETAIL
  6
CONTINUOUS
 62
     5
 10
-63.594883999999979
 20
-116.5
 30
0.0
 11
-75.596492000000012
 21
-116.5
 31
0.0
  0
LINE
  8
DETAIL
  6
CONTINUOUS
 62
     5
 10
-67.846813999999995
 20
-79.199999999999989
 30
0.0
 11
-67.846813999999995
 21
69.299999999999955
 31
0.0
  0
ARC
  8
DETAIL
  6
CONTINUOUS
 62
     5
 10
-53.795056999999993
 20
-120.7
 30
0.0
 40
19.800000000000001
 50
198.15197000000001
 51
270.0
  0
LINE
  8
DETAIL
  6
CONTINUOUS
 62
     5
 10
-9.8999999999999773
 20
-140.5
 30
0.0
 11
-53.795056999999993
 21
-140.5
 31
0.0
  0
ARC
  8
DETAIL
  6
CONTINUOUS
 62
     5
 10
68.5
 20
-80.605000000000018
 30
0.0
 40
148.5
 50
194.2804580000014
 51
198.15197000000001
  0
LINE
  8
DETAIL
  6
CONTINUOUS
 62
     5
 10
-9.8999999999999773
 20
-116.5
 30
0.0
 11
-9.8999999999999773
 21
-140.5
 31
0.0
  0
CIRCLE
  8
FIX
  6
CONTINUOUS
 62
    11
 10
0.0
 20
98.0
 30
0.0
 40
2.5
  0
LINE
  8
BASIS
  6
DASHDOT
 62
     6
 10
0.0
 20
118.0
 30
0.0
 11
0.0
 21
78.0
 31
0.0
  0
LINE
  8
BASIS
  6
DASHDOT
 62
     6
 10
-20.0
 20
98.0
 30
0.0
 11
20.0
 21
98.0
 31
0.0
  0
LINE
  8
NOTE
  6
CONTINUOUS
 62
     4
 10
-31.437204000000008
 20
-122.7326139999999
 30
0.0
 11
0.0
 21
-98.0
 31
0.0
  0
LINE
  8
NOTE
  6
CONTINUOUS
 62
     4
 10
0.0
 20
-98.0
 30
0.0
 11
-14.859110999999981
 21
-135.137674
 31
0.0
  0
LINE
  8
NOTE
  6
CONTINUOUS
 62
     4
 10
0.0
 20
-98.0
 30
0.0
 11
-148.6019609999999
 21
-300.63300699999991
 31
0.0
  0
CIRCLE
  8
FIX
  6
CONTINUOUS
 62
    11
 10
0.0
 20
-98.0
 30
0.0
 40
2.5
  0
CIRCLE
  8
FIX
  6
CONTINUOUS
 62
    11
 10
0.0
 20
0.0
 30
0.0
 40
2.5
  0
LINE
  8
DETAIL
  6
CONTINUOUS
 62
     5
 10
75.0
 20
-85.0
 30
0.0
 11
0.0
 21
-85.0
 31
0.0
  0
LINE
  8
DETAIL
  6
CONTINUOUS
 62
     5
 10
75.0
 20
85.0
 30
0.0
 11
0.0
 21
85.0
 31
0.0
  0
LINE
  8
DETAIL
  6
CONTINUOUS
 62
     5
 10
75.0
 20
85.0
 30
0.0
 11
75.0
 21
-85.0
 31
0.0
  0
LINE
  8
BASIS
  6
DASHDOT
 62
     6
 10
0.0
 20
-118.0
 30
0.0
 11
0.0
 21
-78.0
 31
0.0
  0
LINE
  8
BASIS
  6
DASHDOT
 62
     6
 10
-20.0
 20
-98.0
 30
0.0
 11
20.0
 21
-98.0
 31
0.0
  0
LINE
  8
BASIS
  6
DASHDOT
 62
     6
 10
0.0
 20
-20.0
 30
0.0
 11
0.0
 21
20.0
 31
0.0
  0
LINE
  8
BASIS
  6
DASHDOT
 62
     6
 10
20.0
 20
0.0
 30
0.0
 11
-20.0
 21
0.0
 31
0.0
  0
LINE
  8
DETAIL
  6
CONTINUOUS
 62
     5
 10
-75.596492000000012
 20
-116.5
 30
0.0
 11
0.0
 21
-116.5
 31
0.0
  0
LINE
  8
DETAIL
  6
CONTINUOUS
 62
     5
 10
-75.536426000000006
 20
-116.74027099999979
 30
0.0
 11
-75.411338000000001
 21
-117.2352709999999
 31
0.0
  0
LINE
  8
DETAIL
  6
CONTINUOUS
 62
     5
 10
-11.0
 20
119.5
 30
0.0
 11
-11.0
 21
116.5
 31
0.0
  0
LINE
  8
DETAIL
  6
CONTINUOUS
 62
     5
 10
0.0
 20
119.5
 30
0.0
 11
0.0
 21
116.5
 31
0.0
  0
LINE
  8
SIZE
  6
CONTINUOUS
 62
    30
 10
20.0
 20
119.5
 30
0.0
 11
445.01356251185081
 21
119.5
 31
0.0
  0
LINE
  8
SIZE
  6
CONTINUOUS
 62
    30
 10
20.0
 20
116.5
 30
0.0
 11
445.01356251185081
 21
116.5
 31
0.0
  0
LINE
  8
SIZE
  6
CONTINUOUS
 62
    30
 10
425.01356251185081
 20
131.4999999999998
 30
0.0
 11
425.01356251185081
 21
143.5
 31
0.0
  0
LINE
  8
SIZE
  6
CONTINUOUS
 62
    30
 10
425.01356251185081
 20
104.4999999999999
 30
0.0
 11
425.01356251185081
 21
92.5
 31
0.0
  0
LINE
  8
SIZE
  6
CONTINUOUS
 62
    30
 10
425.01356251185081
 20
240.152772
 30
0.0
 11
425.01356251185081
 21
119.5
 31
0.0
  0
TEXT
  8
SIZE
  6
CONTINUOUS
 62
    30
 10
400.01356251185081
 20
176.75277199999999
 30
0.0
 40
64.0
  1
3
 50
90.0
 41
0.9
 72
     1
 11
400.01356251185081
 21
195.95277200000001
 31
0.0
  0
LINE
  8
SIZE
  6
CONTINUOUS
 62
    30
 10
425.01356251185081
 20
119.5
 30
0.0
 11
425.01356251185081
 21
116.5
 31
0.0
  0
LINE
  8
SIZE
  6
CONTINUOUS
 62
    30
 10
425.01356251185081
 20
119.5
 30
0.0
 11
425.01356251185081
 21
116.5
 31
0.0
  0
CIRCLE
  8
SIZE
  6
CONTINUOUS
 62
    30
 10
425.01356251185081
 20
119.5
 30
0.0
 40
6.0
  0
LINE
  8
SIZE
  6
CONTINUOUS
 62
    30
 10
425.01356251185081
 20
119.5
 30
0.0
 11
425.01356251185081
 21
131.4999999999998
 31
0.0
  0
CIRCLE
  8
SIZE
  6
CONTINUOUS
 62
    30
 10
425.01356251185081
 20
116.5
 30
0.0
 40
6.0
  0
LINE
  8
SIZE
  6
CONTINUOUS
 62
    30
 10
425.01356251185081
 20
116.5
 30
0.0
 11
425.01356251185081
 21
104.4999999999999
 31
0.0
  0
LINE
  8
SIZE
  6
CONTINUOUS
 62
    30
 10
-11.0
 20
139.5
 30
0.0
 11
-11.0
 21
222.45447200000001
 31
0.0
  0
LINE
  8
SIZE
  6
CONTINUOUS
 62
    30
 10
0.0
 20
139.5
 30
0.0
 11
0.0
 21
222.45447200000001
 31
0.0
  0
LINE
  8
SIZE
  6
CONTINUOUS
 62
    30
 10
-23.0
 20
202.45447200000001
 30
0.0
 11
-35.0
 21
202.45447200000001
 31
0.0
  0
LINE
  8
SIZE
  6
CONTINUOUS
 62
    30
 10
12.0
 20
202.45447200000001
 30
0.0
 11
24.0
 21
202.45447200000001
 31
0.0
  0
LINE
  8
SIZE
  6
CONTINUOUS
 62
    30
 10
-181.0593809999998
 20
202.45447200000001
 30
0.0
 11
-11.0
 21
202.45447200000001
 31
0.0
  0
TEXT
  8
SIZE
  6
CONTINUOUS
 62
    30
 10
-156.059381
 20
227.45447200000001
 30
0.0
 40
64.0
  1
11
 41
0.9
 72
     1
 11
-127.259381
 21
227.45447200000001
 31
0.0
  0
LINE
  8
SIZE
  6
CONTINUOUS
 62
    30
 10
-11.0
 20
202.45447200000001
 30
0.0
 11
0.0
 21
202.45447200000001
 31
0.0
  0
LINE
  8
SIZE
  6
CONTINUOUS
 62
    30
 10
-11.0
 20
202.45447200000001
 30
0.0
 11
0.0
 21
202.45447200000001
 31
0.0
  0
CIRCLE
  8
SIZE
  6
CONTINUOUS
 62
    30
 10
-11.0
 20
202.45447200000001
 30
0.0
 40
6.0
  0
LINE
  8
SIZE
  6
CONTINUOUS
 62
    30
 10
-11.0
 20
202.45447200000001
 30
0.0
 11
-23.0
 21
202.45447200000001
 31
0.0
  0
CIRCLE
  8
SIZE
  6
CONTINUOUS
 62
    30
 10
0.0
 20
202.45447200000001
 30
0.0
 40
6.0
  0
LINE
  8
SIZE
  6
CONTINUOUS
 62
    30
 10
0.0
 20
202.45447200000001
 30
0.0
 11
12.0
 21
202.45447200000001
 31
0.0
  0
LINE
  8
SIZE
  6
CONTINUOUS
 62
    30
 10
0.0
 20
136.4999999999998
 30
0.0
 11
0.0
 21
461.78952407299948
 31
0.0
  0
LINE
  8
SIZE
  6
CONTINUOUS
 62
    30
 10
75.0
 20
105.4999999999999
 30
0.0
 11
75.0
 21
461.78952407299948
 31
0.0
  0
LINE
  8
SIZE
  6
CONTINUOUS
 62
    30
 10
12.0
 20
441.78952407299948
 30
0.0
 11
63.0
 21
441.78952407299948
 31
0.0
  0
LINE
  8
SIZE
  6
CONTINUOUS
 62
    30
 10
244.33680099999989
 20
441.78952407299948
 30
0.0
 11
75.0
 21
441.78952407299948
 31
0.0
  0
TEXT
  8
SIZE
  6
CONTINUOUS
 62
    30
 10
126.0796585714285
 20
466.78952407299948
 30
0.0
 40
64.0
  1
75
 41
0.9
 72
     1
 11
172.70822999999999
 21
466.78952407299948
 31
0.0
  0
CIRCLE
  8
SIZE
  6
CONTINUOUS
 62
    30
 10
0.0
 20
441.78952407299948
 30
0.0
 40
6.0
  0
LINE
  8
SIZE
  6
CONTINUOUS
 62
    30
 10
0.0
 20
441.78952407299948
 30
0.0
 11
12.0
 21
441.78952407299948
 31
0.0
  0
CIRCLE
  8
SIZE
  6
CONTINUOUS
 62
    30
 10
75.0
 20
441.78952407299948
 30
0.0
 40
6.0
  0
LINE
  8
SIZE
  6
CONTINUOUS
 62
    30
 10
75.0
 20
441.78952407299948
 30
0.0
 11
63.0
 21
441.78952407299948
 31
0.0
  0
LINE
  8
SIZE
  6
CONTINUOUS
 62
    30
 10
-80.0
 20
100.3647289999999
 30
0.0
 11
-80.0
 21
461.78952407299948
 31
0.0
  0
LINE
  8
SIZE
  6
CONTINUOUS
 62
    30
 10
0.0
 20
136.4999999999998
 30
0.0
 11
0.0
 21
461.78952407299948
 31
0.0
  0
LINE
  8
SIZE
  6
CONTINUOUS
 62
    30
 10
-68.0
 20
441.78952407299948
 30
0.0
 11
-12.0
 21
441.78952407299948
 31
0.0
  0
LINE
  8
SIZE
  6
CONTINUOUS
 62
    30
 10
-252.58966899999999
 20
441.78952407299948
 30
0.0
 11
-80.0
 21
441.78952407299948
 31
0.0
  0
TEXT
  8
SIZE
  6
CONTINUOUS
 62
    30
 10
-227.58966842857129
 20
466.78952407299948
 30
0.0
 40
64.0
  1
80
 41
0.9
 72
     1
 11
-180.96109699999991
 21
466.78952407299948
 31
0.0
  0
CIRCLE
  8
SIZE
  6
CONTINUOUS
 62
    30
 10
-80.0
 20
441.78952407299948
 30
0.0
 40
6.0
  0
LINE
  8
SIZE
  6
CONTINUOUS
 62
    30
 10
-80.0
 20
441.78952407299948
 30
0.0
 11
-68.0
 21
441.78952407299948
 31
0.0
  0
CIRCLE
  8
SIZE
  6
CONTINUOUS
 62
    30
 10
0.0
 20
441.78952407299948
 30
0.0
 40
6.0
  0
LINE
  8
SIZE
  6
CONTINUOUS
 62
    30
 10
0.0
 20
441.78952407299948
 30
0.0
 11
-12.0
 21
441.78952407299948
 31
0.0
  0
LINE
  8
DETAIL
  6
CONTINUOUS
 62
     5
 10
0.0
 20
119.5
 30
0.0
 11
-11.0
 21
119.5
 31
0.0
  0
LINE
  8
SIZE
  6
CONTINUOUS
 62
    30
 10
40.0
 20
98.0
 30
0.0
 11
315.45046300000001
 21
98.0
 31
0.0
  0
LINE
  8
SIZE
  6
CONTINUOUS
 62
    30
 10
40.0
 20
-98.0
 30
0.0
 11
315.45046300000001
 21
-98.0
 31
0.0
  0
LINE
  8
SIZE
  6
CONTINUOUS
 62
    30
 10
295.45046300000001
 20
86.0
 30
0.0
 11
295.45046300000001
 21
-86.0
 31
0.0
  0
LINE
  8
SIZE
  6
CONTINUOUS
 62
    30
 10
295.45046300000001
 20
-341.078776
 30
0.0
 11
295.45046300000001
 21
-98.0
 31
0.0
  0
TEXT
  8
SIZE
  6
CONTINUOUS
 62
    30
 10
270.45046300000001
 20
-316.078776
 30
0.0
 40
64.0
  1
196
 50
90.0
 41
0.9
 72
     1
 11
270.45046300000001
 21
-248.87877599999999
 31
0.0
  0
CIRCLE
  8
SIZE
  6
CONTINUOUS
 62
    30
 10
295.45046300000001
 20
98.0
 30
0.0
 40
6.0
  0
LINE
  8
SIZE
  6
CONTINUOUS
 62
    30
 10
295.45046300000001
 20
98.0
 30
0.0
 11
295.45046300000001
 21
86.0
 31
0.0
  0
CIRCLE
  8
SIZE
  6
CONTINUOUS
 62
    30
 10
295.45046300000001
 20
-98.0
 30
0.0
 40
6.0
  0
LINE
  8
SIZE
  6
CONTINUOUS
 62
    30
 10
295.45046300000001
 20
-98.0
 30
0.0
 11
295.45046300000001
 21
-86.0
 31
0.0
  0
LINE
  8
SIZE
  6
CONTINUOUS
 62
    30
 10
-60.610098999999991
 20
-140.5
 30
0.0
 11
-246.21892
 21
-140.5
 31
0.0
  0
LINE
  8
SIZE
  6
CONTINUOUS
 62
    30
 10
-153.34905900000001
 20
0.0
 30
0.0
 11
-246.21892
 21
0.0
 31
0.0
  0
LINE
  8
SIZE
  6
CONTINUOUS
 62
    30
 10
-226.21892
 20
-152.5
 30
0.0
 11
-226.21892
 21
-164.5
 31
0.0
  0
LINE
  8
SIZE
  6
CONTINUOUS
 62
    30
 10
-226.21892
 20
12.0
 30
0.0
 11
-226.21892
 21
24.0
 31
0.0
  0
LINE
  8
SIZE
  6
CONTINUOUS
 62
    30
 10
-226.21892
 20
-140.5
 30
0.0
 11
-226.21892
 21
0.0
 31
0.0
  0
CIRCLE
  8
SIZE
  6
CONTINUOUS
 62
    30
 10
-226.21892
 20
-140.5
 30
0.0
 40
6.0
  0
LINE
  8
SIZE
  6
CONTINUOUS
 62
    30
 10
-226.21892
 20
-140.5
 30
0.0
 11
-226.21892
 21
-152.5
 31
0.0
  0
CIRCLE
  8
SIZE
  6
CONTINUOUS
 62
    30
 10
-226.21892
 20
0.0
 30
0.0
 40
6.0
  0
LINE
  8
SIZE
  6
CONTINUOUS
 62
    30
 10
-226.21892
 20
0.0
 30
0.0
 11
-226.21892
 21
12.0
 31
0.0
  0
TEXT
  8
SIZE
  6
CONTINUOUS
 62
    30
 10
-251.21892
 20
-179.96428571428569
 30
0.0
 40
64.0
  1
140.5
 50
90.0
 41
0.9
 72
     1
 11
-251.21892
 21
-70.25
 31
0.0
  0
LINE
  8
SIZE
  6
CONTINUOUS
 62
    30
 10
20.0
 20
116.5
 30
0.0
 11
643.52254326151296
 21
116.5
 31
0.0
  0
LINE
  8
SIZE
  6
CONTINUOUS
 62
    30
 10
10.100000000000019
 20
-140.5
 30
0.0
 11
643.52254326151296
 21
-140.5
 31
0.0
  0
LINE
  8
SIZE
  6
CONTINUOUS
 62
    30
 10
623.52254326151296
 20
104.4999999999999
 30
0.0
 11
623.52254326151296
 21
-128.4999999999998
 31
0.0
  0
CIRCLE
  8
SIZE
  6
CONTINUOUS
 62
    30
 10
623.52254326151296
 20
116.5
 30
0.0
 40
6.0
  0
LINE
  8
SIZE
  6
CONTINUOUS
 62
    30
 10
623.52254326151296
 20
116.5
 30
0.0
 11
623.52254326151296
 21
104.4999999999999
 31
0.0
  0
CIRCLE
  8
SIZE
  6
CONTINUOUS
 62
    30
 10
623.52254326151296
 20
-140.5
 30
0.0
 40
6.0
  0
LINE
  8
SIZE
  6
CONTINUOUS
 62
    30
 10
623.52254326151296
 20
-140.5
 30
0.0
 11
623.52254326151296
 21
-128.4999999999998
 31
0.0
  0
TEXT
  8
SIZE
  6
CONTINUOUS
 62
    30
 10
598.52254326151296
 20
-86.05714285714285
 30
0.0
 40
64.0
  1
257
 50
90.0
 41
0.9
 72
     1
 11
598.52254326151296
 21
-12.0
 31
0.0
  0
LINE
  8
NOTE
  6
CONTINUOUS
 62
     4
 10
-148.6019609999999
 20
-300.63300699999991
 30
0.0
 11
-410.56541199999992
 21
-300.63300699999991
 31
0.0
  0
TEXT
  8
NOTE
  6
CONTINUOUS
 62
     4
 10
-399.74784599999992
 20
-277.44620800000001
 30
0.0
 40
64.0
  1
4-φ5
 41
0.9
  0
LINE
  8
NOTE
  6
CONTINUOUS
 62
     4
 10
53.782468998704871
 20
-270.28782446379478
 30
0.0
 11
0.0
 21
-72.5
 31
0.0
  0
LINE
  8
NOTE
  6
CONTINUOUS
 62
     4
 10
0.8112509928296703
 20
-112.4917722311763
 30
0.0
 11
0.0
 21
-72.5
 31
0.0
  0
LINE
  8
NOTE
  6
CONTINUOUS
 62
     4
 10
0.0
 20
-72.5
 30
0.0
 11
20.69845001352207
 21
-106.72826524943351
 31
0.0
  0
LINE
  8
NOTE
  6
CONTINUOUS
 62
     4
 10
0.0
 20
-92.5
 30
0.0
 11
0.0
 21
-52.5
 31
0.0
  0
LINE
  8
NOTE
  6
CONTINUOUS
 62
     4
 10
20.0
 20
-72.5
 30
0.0
 11
-20.0
 21
-72.5
 31
0.0
  0
LINE
  8
DETAIL
  6
CONTINUOUS
 62
     5
 10
-67.846813999999995
 20
70.464729000000034
 30
0.0
 11
-68.735783999999967
 21
75.114372000000003
 31
0.0
  0
LINE
  8
DETAIL
  6
CONTINUOUS
 62
     5
 10
-68.735783999999967
 20
75.114372000000003
 30
0.0
 11
-70.017989
 21
79.68903899999998
 31
0.0
  0
LINE
  8
DETAIL
  6
CONTINUOUS
 62
     5
 10
-70.017989
 20
79.68903899999998
 30
0.0
 11
-70.017989
 21
79.68903899999998
 31
0.0
  0
LINE
  8
DETAIL
  6
CONTINUOUS
 62
     5
 10
-70.017989
 20
79.68903899999998
 30
0.0
 11
-71.938727999999969
 21
84.110152999999968
 31
0.0
  0
LINE
  8
DETAIL
  6
CONTINUOUS
 62
     5
 10
-71.938727999999969
 20
84.110152999999968
 30
0.0
 11
-74.151554000000033
 21
88.28472899999997
 31
0.0
  0
LINE
  8
DETAIL
  6
CONTINUOUS
 62
     5
 10
-74.151554000000033
 20
88.28472899999997
 30
0.0
 11
-74.151554000000033
 21
88.28472899999997
 31
0.0
  0
LINE
  8
DETAIL
  6
CONTINUOUS
 62
     5
 10
-74.151554000000033
 20
88.28472899999997
 30
0.0
 11
-76.183232999999973
 21
92.135940000000005
 31
0.0
  0
LINE
  8
DETAIL
  6
CONTINUOUS
 62
     5
 10
-76.183232999999973
 20
92.135940000000005
 30
0.0
 11
-77.645130999999992
 21
95.666014000000018
 31
0.0
  0
LINE
  8
DETAIL
  6
CONTINUOUS
 62
     5
 10
-77.645130999999992
 20
95.666014000000018
 30
0.0
 11
-77.645130999999992
 21
95.666014000000018
 31
0.0
  0
LINE
  8
DETAIL
  6
CONTINUOUS
 62
     5
 10
-77.645130999999992
 20
95.666014000000018
 30
0.0
 11
-78.278756999999985
 21
98.83183600000001
 31
0.0
  0
LINE
  8
DETAIL
  6
CONTINUOUS
 62
     5
 10
-78.278756999999985
 20
98.83183600000001
 30
0.0
 11
-78.261600999999985
 21
101.3298739999999
 31
0.0
  0
LINE
  8
DETAIL
  6
CONTINUOUS
 62
     5
 10
-72.334621999999968
 20
70.464729000000034
 30
0.0
 11
-73.223592000000053
 21
75.114372000000003
 31
0.0
  0
LINE
  8
DETAIL
  6
CONTINUOUS
 62
     5
 10
-73.223592000000053
 20
75.114372000000003
 30
0.0
 11
-74.50579700000003
 21
79.68903899999998
 31
0.0
  0
LINE
  8
DETAIL
  6
CONTINUOUS
 62
     5
 10
-74.50579700000003
 20
79.68903899999998
 30
0.0
 11
-74.50579700000003
 21
79.68903899999998
 31
0.0
  0
LINE
  8
DETAIL
  6
CONTINUOUS
 62
     5
 10
-74.50579700000003
 20
79.68903899999998
 30
0.0
 11
-76.426535000000001
 21
84.110152999999968
 31
0.0
  0
LINE
  8
DETAIL
  6
CONTINUOUS
 62
     5
 10
-76.426535000000001
 20
84.110152999999968
 30
0.0
 11
-78.639361000000008
 21
88.28472899999997
 31
0.0
  0
LINE
  8
DETAIL
  6
CONTINUOUS
 62
     5
 10
-78.639361000000008
 20
88.28472899999997
 30
0.0
 11
-78.639361000000008
 21
88.28472899999997
 31
0.0
  0
LINE
  8
DETAIL
  6
CONTINUOUS
 62
     5
 10
-78.639361000000008
 20
88.28472899999997
 30
0.0
 11
-79.141987999999969
 21
89.562985999999967
 31
0.0
  0
LINE
  8
DETAIL
  6
CONTINUOUS
 62
     5
 10
-79.141987999999969
 20
89.562985999999967
 30
0.0
 11
-79.487214999999992
 21
92.694943000000023
 31
0.0
  0
LINE
  8
DETAIL
  6
CONTINUOUS
 62
     5
 10
-67.846813999999995
 20
70.464729000000034
 30
0.0
 11
-68.735783999999967
 21
75.114372000000003
 31
0.0
  0
LINE
  8
DETAIL
  6
CONTINUOUS
 62
     5
 10
-68.735783999999967
 20
75.114372000000003
 30
0.0
 11
-70.017989
 21
79.68903899999998
 31
0.0
  0
LINE
  8
DETAIL
  6
CONTINUOUS
 62
     5
 10
-70.017989
 20
79.68903899999998
 30
0.0
 11
-70.017989
 21
79.68903899999998
 31
0.0
  0
LINE
  8
DETAIL
  6
CONTINUOUS
 62
     5
 10
-70.017989
 20
79.68903899999998
 30
0.0
 11
-71.938727999999969
 21
84.110152999999968
 31
0.0
  0
LINE
  8
DETAIL
  6
CONTINUOUS
 62
     5
 10
-71.938727999999969
 20
84.110152999999968
 30
0.0
 11
-74.151554000000033
 21
88.28472899999997
 31
0.0
  0
LINE
  8
DETAIL
  6
CONTINUOUS
 62
     5
 10
-74.151554000000033
 20
88.28472899999997
 30
0.0
 11
-74.151554000000033
 21
88.28472899999997
 31
0.0
  0
LINE
  8
DETAIL
  6
CONTINUOUS
 62
     5
 10
-74.151554000000033
 20
88.28472899999997
 30
0.0
 11
-76.183232999999973
 21
92.135940000000005
 31
0.0
  0
LINE
  8
DETAIL
  6
CONTINUOUS
 62
     5
 10
-76.183232999999973
 20
92.135940000000005
 30
0.0
 11
-77.645130999999992
 21
95.666014000000018
 31
0.0
  0
LINE
  8
DETAIL
  6
CONTINUOUS
 62
     5
 10
-77.645130999999992
 20
95.666014000000018
 30
0.0
 11
-77.645130999999992
 21
95.666014000000018
 31
0.0
  0
LINE
  8
DETAIL
  6
CONTINUOUS
 62
     5
 10
-77.645130999999992
 20
95.666014000000018
 30
0.0
 11
-78.278756999999985
 21
98.83183600000001
 31
0.0
  0
LINE
  8
DETAIL
  6
CONTINUOUS
 62
     5
 10
-78.278756999999985
 20
98.83183600000001
 30
0.0
 11
-78.261600999999985
 21
101.3298739999999
 31
0.0
  0
LINE
  8
DETAIL
  6
CONTINUOUS
 62
     5
 10
-78.261600999999985
 20
101.3298739999999
 30
0.0
 11
-78.261600999999985
 21
101.3298739999999
 31
0.0
  0
LINE
  8
DETAIL
  6
CONTINUOUS
 62
     5
 10
-78.261600999999985
 20
101.3298739999999
 30
0.0
 11
-77.803950999999984
 21
103.0467749999999
 31
0.0
  0
LINE
  8
DETAIL
  6
CONTINUOUS
 62
     5
 10
-77.803950999999984
 20
103.0467749999999
 30
0.0
 11
-76.811318999999969
 21
104.8903249999999
 31
0.0
  0
LINE
  8
DETAIL
  6
CONTINUOUS
 62
     5
 10
-76.811318999999969
 20
104.8903249999999
 30
0.0
 11
-76.811318999999969
 21
104.8903249999999
 31
0.0
  0
LINE
  8
DETAIL
  6
CONTINUOUS
 62
     5
 10
-76.811318999999969
 20
104.8903249999999
 30
0.0
 11
-76.47453999999999
 21
105.478554
 31
0.0
  0
LINE
  8
DETAIL
  6
CONTINUOUS
 62
     5
 10
-76.47453999999999
 20
105.478554
 30
0.0
 11
-76.116998999999964
 21
106.10472900000001
 31
0.0
  0
LINE
  8
OUTLINE
  6
CONTINUOUS
 62
     3
 10
75.0
 20
85.0
 30
0.0
 11
75.0
 21
-85.0
 31
0.0
  0
LINE
  8
OUTLINE
  6
CONTINUOUS
 62
     3
 10
-80.0
 20
80.364729000000011
 30
0.0
 11
-80.0
 21
-80.605000000000018
 31
0.0
  0
LINE
  8
OUTLINE
  6
CONTINUOUS
 62
     3
 10
0.0
 20
-127.6299999999999
 30
0.0
 11
0.0
 21
-85.0
 31
0.0
  0
LINE
  8
OUTLINE
  6
CONTINUOUS
 62
     3
 10
0.0
 20
85.0
 30
0.0
 11
0.0
 21
116.5
 31
0.0
  0
POINT
  8
ARRANGE
  6
CONTINUOUS
 62
     1
 10
0.0
 20
0.0
 30
0.0
  0
CIRCLE
  8
ARRANGE
  6
CONTINUOUS
 62
     1
 10
0.0
 20
0.0
 30
0.0
 40
40.0
  0
LINE
  8
OUTLINE
  6
CONTINUOUS
 62
     3
 10
75.0
 20
-85.0
 30
0.0
 11
0.0
 21
-85.0
 31
0.0
  0
ARC
  8
OUTLINE
  6
CONTINUOUS
 62
     3
 10
68.5
 20
-80.605000000000018
 30
0.0
 40
148.5
 50
180.0
 51
191.3806490000014
  0
LINE
  8
OUTLINE
  6
CONTINUOUS
 62
     3
 10
-9.8999999999999773
 20
-140.5
 30
0.0
 11
-53.795057000000043
 21
-140.5
 31
0.0
  0
LINE
  8
OUTLINE
  6
CONTINUOUS
 62
     3
 10
-75.536426000000006
 20
-116.74027099999979
 30
0.0
 11
-75.411338000000001
 21
-117.2352709999999
 31
0.0
  0
ARC
  8
OUTLINE
  6
CONTINUOUS
 62
     3
 10
68.5
 20
-80.605000000000018
 30
0.0
 40
148.5
 50
194.2804580000014
 51
198.15197000000001
  0
ARC
  8
OUTLINE
  6
CONTINUOUS
 62
     3
 10
-97.084621999999968
 20
-97.122950000000003
 30
0.0
 40
24.75
 50
325.06693800000068
 51
327.67390999999918
  0
ARC
  8
OUTLINE
  6
CONTINUOUS
 62
     3
 10
-76.594906999999921
 20
-109.810271
 30
0.0
 40
0.4950000000000001
 50
191.3806490000014
 51
270.0
  0
LINE
  8
OUTLINE
  6
CONTINUOUS
 62
     3
 10
-76.392116999999985
 20
-110.30527099999991
 30
0.0
 11
-76.594906999999921
 21
-110.30527099999991
 31
0.0
  0
ARC
  8
OUTLINE
  6
CONTINUOUS
 62
     3
 10
-76.392116999999985
 20
-110.800271
 30
0.0
 40
0.4950000000000001
 50
63.392110999999197
 51
90.0
  0
ARC
  8
OUTLINE
  6
CONTINUOUS
 62
     3
 10
68.5
 20
-80.605000000000018
 30
0.0
 40
148.5
 50
191.92718900000031
 51
194.08346800000081
  0
ARC
  8
OUTLINE
  6
CONTINUOUS
 62
     3
 10
-53.795057000000043
 20
-120.6999999999999
 30
0.0
 40
19.800000000000001
 50
198.15197000000001
 51
270.0
  0
LINE
  8
OUTLINE
  6
CONTINUOUS
 62
     3
 10
-9.8999999999999773
 20
-137.52999999999989
 30
0.0
 11
-9.8999999999999773
 21
-140.5
 31
0.0
  0
ARC
  8
OUTLINE
  6
CONTINUOUS
 62
     3
 10
-9.8999999999999773
 20
-127.6299999999999
 30
0.0
 40
9.9000000000000004
 50
270.0
 51
0.0
  0
LINE
  8
OUTLINE
  6
CONTINUOUS
 62
     3
 10
75.0
 20
85.0
 30
0.0
 11
0.0
 21
85.0
 31
0.0
  0
ARC
  8
OUTLINE
  6
CONTINUOUS
 62
     3
 10
68.5
 20
80.364729000000011
 30
0.0
 40
148.5
 50
173.1673650000003
 51
180.0
  0
LINE
  8
OUTLINE
  6
CONTINUOUS
 62
     3
 10
0.0
 20
116.5
 30
0.0
 11
-59.631518000000028
 21
115.4730919999998
 31
0.0
  0
ARC
  8
OUTLINE
  6
CONTINUOUS
 62
     3
 10
-59.285959999999932
 20
95.676107999999999
 30
0.0
 40
19.800000000000001
 50
149.887596
 51
173.1673650000003
  0
ARC
  8
OUTLINE
  6
CONTINUOUS
 62
     3
 10
-59.285959999999932
 20
95.676107999999999
 30
0.0
 40
19.800000000000001
 50
90.999999999998522
 51
148.2173759999994
  0
LINE
  8
SIZE
  6
CONTINUOUS
 62
    30
 10
75.0
 20
85.0
 30
0.0
 11
512.89695200000006
 21
85.0
 31
0.0
  0
LINE
  8
SIZE
  6
CONTINUOUS
 62
    30
 10
492.89695200000011
 20
72.999999999999886
 30
0.0
 11
492.89695200000011
 21
-365.22063722062279
 31
0.0
  0
CIRCLE
  8
SIZE
  6
CONTINUOUS
 62
    30
 10
492.89695200000011
 20
85.0
 30
0.0
 40
6.0
  0
LINE
  8
SIZE
  6
CONTINUOUS
 62
    30
 10
492.89695200000011
 20
85.0
 30
0.0
 11
492.89695200000011
 21
72.999999999999886
 31
0.0
  0
LINE
  8
SIZE
  6
CONTINUOUS
 62
    30
 10
75.0
 20
-85.0
 30
0.0
 11
512.89695200000006
 21
-85.0
 31
0.0
  0
CIRCLE
  8
SIZE
  6
CONTINUOUS
 62
    30
 10
492.89695200000011
 20
-85.0
 30
0.0
 40
6.0
  0
TEXT
  8
SIZE
  6
CONTINUOUS
 62
    30
 10
471.58015304112678
 20
-363.25659900161969
 30
0.0
 40
64.0
  1
□170
 50
90.0
 41
0.9
 72
     1
 11
471.58015304112678
 21
-258.20517043019117
 31
0.0
  0
LINE
  8
DETAIL
  6
CONTINUOUS
 62
     5
 10
175.39290444530161
 20
31.951785202747939
 30
0.0
 11
170.53872052808401
 21
36.996277002488569
 31
0.0
  0
LINE
  8
DETAIL
  6
CONTINUOUS
 62
     5
 10
104.30344957863051
 20
64.049904852965369
 30
0.0
 11
111.2975081391924
 21
63.744710044336223
 31
0.0
  0
LINE
  8
DETAIL
  6
CONTINUOUS
 62
     5
 10
170.53872052808401
 20
36.996277002488569
 30
0.0
 11
111.2975081391924
 21
63.744710044336223
 31
0.0
  0
LINE
  8
DETAIL
  6
CONTINUOUS
 62
     5
 10
75.0
 20
65.520021963881959
 30
0.0
 11
86.25685131665341
 21
65.548221214004116
 31
0.0
  0
ARC
  8
DETAIL
  6
CONTINUOUS
 62
     5
 10
209.65890153589501
 20
14.28567601984162
 30
0.0
 40
1.999999980000009
 50
245.70000000000601
 51
335.70000000000601
  0
LINE
  8
DETAIL
  6
CONTINUOUS
 62
     5
 10
214.59395639725699
 20
11.242830137809049
 30
0.0
 11
212.06714885657681
 21
14.759254924060309
 31
0.0
  0
LINE
  8
DETAIL
  6
CONTINUOUS
 62
     5
 10
214.59395639725699
 20
11.242830137809049
 30
0.0
 11
214.9999981566416
 21
11.534600740569431
 31
0.0
  0
LINE
  8
DETAIL
  6
CONTINUOUS
 62
     5
 10
214.9999981566416
 20
11.534600740569431
 30
0.0
 11
212.30473677991901
 21
15.28545384590473
 31
0.0
  0
LINE
  8
DETAIL
  6
CONTINUOUS
 62
     5
 10
208.83587282691411
 20
12.46286948479872
 30
0.0
 11
86.25685131665341
 21
65.548221214004116
 31
0.0
  0
LINE
  8
DETAIL
  6
CONTINUOUS
 62
     5
 10
212.30473677991901
 20
15.28545384590473
 30
0.0
 11
75.0
 21
75.019720966948739
 31
0.0
  0
LINE
  8
DETAIL
  6
CONTINUOUS
 62
     5
 10
211.48170807093811
 20
13.4626473108616
 30
0.0
 11
212.30473677991901
 21
15.28545384590473
 31
0.0
  0
LINE
  8
DETAIL
  6
CONTINUOUS
 62
     5
 10
20.500000545000152
 20
94.999999900000034
 30
0.0
 11
20.000000549998731
 21
94.499999905000095
 31
0.0
  0
LINE
  8
DETAIL
  6
CONTINUOUS
 62
     5
 10
23.500000514999559
 20
94.999999900000034
 30
0.0
 11
24.00000050999915
 21
94.499999905000095
 31
0.0
  0
LINE
  8
DETAIL
  6
CONTINUOUS
 62
     5
 10
20.500000545000152
 20
94.999999900000034
 30
0.0
 11
23.500000514999559
 21
94.999999900000034
 31
0.0
  0
LINE
  8
DETAIL
  6
CONTINUOUS
 62
     5
 10
20.000000549998731
 20
94.499999905000095
 30
0.0
 11
20.000000549998731
 21
85.0
 31
0.0
  0
LINE
  8
DETAIL
  6
CONTINUOUS
 62
     5
 10
24.00000050999915
 20
94.499999905000095
 30
0.0
 11
24.00000050999915
 21
85.0
 31
0.0
  0
LINE
  8
DETAIL
  6
CONTINUOUS
 62
     5
 10
22.000000529998939
 20
94.999999900000034
 30
0.0
 11
22.000000529998939
 21
85.0
 31
0.0
  0
LINE
  8
SIZE
  6
CONTINUOUS
 62
    30
 10
22.000000529998939
 20
114.99999990000001
 30
0.0
 11
22.00000052999896
 21
342.45960439782971
 31
0.0
  0
LINE
  8
SIZE
  6
CONTINUOUS
 62
    30
 10
0.0000007499984382
 20
139.5
 30
0.0
 11
0.0000007499984507
 21
342.45960439782971
 31
0.0
  0
LINE
  8
SIZE
  6
CONTINUOUS
 62
    30
 10
34.000000529998957
 20
322.45960439782971
 30
0.0
 11
46.000000529998957
 21
322.45960439782971
 31
0.0
  0
LINE
  8
SIZE
  6
CONTINUOUS
 62
    30
 10
-11.999999250001551
 20
322.45960439782971
 30
0.0
 11
-215.0146339486819
 21
322.45960439782971
 31
0.0
  0
LINE
  8
SIZE
  6
CONTINUOUS
 62
    30
 10
22.00000052999896
 20
322.45960439782971
 30
0.0
 11
0.0000007499984495
 21
322.45960439782971
 31
0.0
  0
CIRCLE
  8
SIZE
  6
CONTINUOUS
 62
    30
 10
22.00000052999896
 20
322.45960439782971
 30
0.0
 40
6.0
  0
LINE
  8
SIZE
  6
CONTINUOUS
 62
    30
 10
22.00000052999896
 20
322.45960439782971
 30
0.0
 11
34.000000529998957
 21
322.45960439782971
 31
0.0
  0
CIRCLE
  8
SIZE
  6
CONTINUOUS
 62
    30
 10
0.0000007499984495
 20
322.45960439782971
 30
0.0
 40
6.0
  0
LINE
  8
SIZE
  6
CONTINUOUS
 62
    30
 10
0.0000007499984495
 20
322.45960439782971
 30
0.0
 11
-11.999999250001551
 21
322.45960439782971
 31
0.0
  0
TEXT
  8
SIZE
  6
CONTINUOUS
 62
    30
 10
-196.95406252011051
 20
347.45960439782971
 30
0.0
 40
64.0
  1
22
 50
0.0
 41
0.9
 51
0.0
  7
STANDARD
 71
     0
 72
     1
 11
-143.3860625201105
 21
347.45960439782971
 31
0.0
210
0.0
220
0.0
230
1.0
  0
POINT
  8
DEFPOINTS
  6
CONTINUOUS
 62
    30
 10
22.000000529998939
 20
94.999999900000034
 30
0.0
  0
POINT
  8
DEFPOINTS
  6
CONTINUOUS
 62
    30
 10
0.000000749998437
 20
119.5
 30
0.0
  0
POINT
  8
DEFPOINTS
  6
CONTINUOUS
 62
    30
 10
0.0000007499984495
 20
322.45960439782971
 30
0.0
  0
LINE
  8
SIZE
  6
CONTINUOUS
 62
    30
 10
214.9999981566416
 20
31.534600740569431
 30
0.0
 11
214.9999981566416
 21
342.45960439782971
 31
0.0
  0
LINE
  8
SIZE
  6
CONTINUOUS
 62
    30
 10
75.0
 20
105.0
 30
0.0
 11
75.000000000000014
 21
342.45960439782971
 31
0.0
  0
LINE
  8
SIZE
  6
CONTINUOUS
 62
    30
 10
87.000000000000014
 20
322.45960439782971
 30
0.0
 11
202.9999981566416
 21
322.45960439782971
 31
0.0
  0
LINE
  8
SIZE
  6
CONTINUOUS
 62
    30
 10
214.9999981566416
 20
322.45960439782971
 30
0.0
 11
414.14285529949882
 21
322.45960439782971
 31
0.0
  0
CIRCLE
  8
SIZE
  6
CONTINUOUS
 62
    30
 10
75.000000000000014
 20
322.45960439782971
 30
0.0
 40
6.0
  0
LINE
  8
SIZE
  6
CONTINUOUS
 62
    30
 10
75.000000000000014
 20
322.45960439782971
 30
0.0
 11
87.000000000000014
 21
322.45960439782971
 31
0.0
  0
CIRCLE
  8
SIZE
  6
CONTINUOUS
 62
    30
 10
214.9999981566416
 20
322.45960439782971
 30
0.0
 40
6.0
  0
LINE
  8
SIZE
  6
CONTINUOUS
 62
    30
 10
214.9999981566416
 20
322.45960439782971
 30
0.0
 11
202.9999981566416
 21
322.45960439782971
 31
0.0
  0
TEXT
  8
SIZE
  6
CONTINUOUS
 62
    30
 10
244.82742672807021
 20
347.45960439782971
 30
0.0
 40
64.0
  1
140
 50
0.0
 41
0.9
 51
0.0
  7
STANDARD
 71
     0
 72
     1
 11
320.57142672807021
 21
347.45960439782971
 31
0.0
210
0.0
220
0.0
230
1.0
  0
POINT
  8
DEFPOINTS
  6
CONTINUOUS
 62
    30
 10
214.9999981566416
 20
11.534600740569431
 30
0.0
  0
POINT
  8
DEFPOINTS
  6
CONTINUOUS
 62
    30
 10
75.0
 20
85.0
 30
0.0
  0
POINT
  8
DEFPOINTS
  6
CONTINUOUS
 62
    30
 10
75.000000000000014
 20
322.45960439782971
 30
0.0
  0
TEXT
  8
ETC
  6
CONTINUOUS
 62
    61
 10
489.3040077554756
 20
501.83124600276119
 30
0.0
 40
64.0
  1
EX-15LF8_4
 41
0.9
  0
TEXT
  8
ETC
  6
CONTINUOUS
 62
    61
 10
485.1180137554752
 20
383.87593598793001
 30
0.0
 40
64.0
  1
換気扇
 41
0.9
  0
TEXT
  8
ETC
  6
CONTINUOUS
 62
    61
 10
535.81941200403116
 20
275.72716310170472
 30
0.0
 40
40.0
  1
EX-15LF8
 50
0.0
 41
0.9
 51
0.0
  7
STANDARD
 71
     0
 11
0.0
 21
0.0
 31
0.0
210
0.0
220
0.0
230
1.0
  0
TEXT
  8
NOTE
  6
CONTINUOUS
 62
     4
 10
64.206210998704819
 20
-249.0113494637948
 30
0.0
 40
64.0
  1
EL
 41
0.9
  0
LINE
  8
NOTE
  6
CONTINUOUS
 62
     4
 10
160.8653939987048
 20
-270.28782446379478
 30
0.0
 11
53.782468998704871
 21
-270.28782446379478
 31
0.0
  0
ENDSEC
  0
EOF
