  0
SECTION
  2
HEADER
  9
$ACADVER
  1
AC1009
  9
$DWGCODEPAGE
  3
dos932
  9
$INSBASE
 10
0.0
 20
0.0
 30
0.0
  9
$EXTMIN
 10
-584.60996874446391
 20
-404.06798141085159
 30
-0.0091548543316549
  9
$EXTMAX
 10
1195.504772506541
 20
656.25000809814082
 30
0.00228976133684
  9
$LIMMIN
 10
-2970.0
 20
-2100.0
  9
$LIMMAX
 10
2970.0
 20
2100.0
  9
$ORTHOMODE
 70
     1
  9
$REGENMODE
 70
     1
  9
$FILLMODE
 70
     1
  9
$QTEXTMODE
 70
     0
  9
$MIRRTEXT
 70
     0
  9
$LTSCALE
 40
20.0
  9
$ATTMODE
 70
     1
  9
$TEXTSIZE
 40
64.0
  9
$TRACEWID
 40
0.05
  9
$TEXTSTYLE
  7
STANDARD
  9
$CLAYER
  8
SIZE
  9
$CELTYPE
  6
CONTINUOUS
  9
$CECOLOR
 62
     7
  9
$DIMSCALE
 40
1.0
  9
$DIMASZ
 40
12.0
  9
$DIMEXO
 40
20.0
  9
$DIMDLI
 40
200.0
  9
$DIMRND
 40
0.0
  9
$DIMDLE
 40
0.0
  9
$DIMEXE
 40
20.0
  9
$DIMTP
 40
0.0
  9
$DIMTM
 40
0.0
  9
$DIMTXT
 40
64.0
  9
$DIMCEN
 40
0.09
  9
$DIMTSZ
 40
0.0
  9
$DIMTOL
 70
     0
  9
$DIMLIM
 70
     0
  9
$DIMTIH
 70
     0
  9
$DIMTOH
 70
     0
  9
$DIMSE1
 70
     0
  9
$DIMSE2
 70
     0
  9
$DIMTAD
 70
     1
  9
$DIMZIN
 70
     8
  9
$DIMBLK
  1

  9
$DIMASO
 70
     1
  9
$DIMSHO
 70
     0
  9
$DIMPOST
  1

  9
$DIMAPOST
  1

  9
$DIMALT
 70
     0
  9
$DIMALTD
 70
     2
  9
$DIMALTF
 40
25.399999999999999
  9
$DIMLFAC
 40
1.0
  9
$DIMTOFL
 70
     1
  9
$DIMTVP
 40
0.0
  9
$DIMTIX
 70
     1
  9
$DIMSOXD
 70
     0
  9
$DIMSAH
 70
     0
  9
$DIMBLK1
  1

  9
$DIMBLK2
  1

  9
$DIMSTYLE
  2
STANDARD
  9
$DIMCLRD
 70
     7
  9
$DIMCLRE
 70
     7
  9
$DIMCLRT
 70
     7
  9
$DIMTFAC
 40
1.0
  9
$DIMGAP
 40
25.0
  9
$LUNITS
 70
     2
  9
$LUPREC
 70
     4
  9
$SKETCHINC
 40
0.1
  9
$FILLETRAD
 40
3.0
  9
$AUNITS
 70
     1
  9
$AUPREC
 70
     3
  9
$MENU
  1
ACAD
  9
$ELEVATION
 40
0.0
  9
$PELEVATION
 40
0.0
  9
$THICKNESS
 40
50.0
  9
$LIMCHECK
 70
     0
  9
$CHAMFERA
 40
0.0
  9
$CHAMFERB
 40
0.0
  9
$SKPOLY
 70
     0
  9
$TDCREATE
 40
2453019.62301037
  9
$TDUPDATE
 40
2459017.50500956
  9
$TDINDWG
 40
1.7231452778
  9
$TDUSRTIMER
 40
1.7231452778
  9
$USRTIMER
 70
     1
  9
$ANGBASE
 50
0.0
  9
$ANGDIR
 70
     0
  9
$PDMODE
 70
     3
  9
$PDSIZE
 40
-2.0
  9
$PLINEWID
 40
0.0
  9
$SPLFRAME
 70
     0
  9
$SPLINETYPE
 70
     6
  9
$SPLINESEGS
 70
     8
  9
$SURFTAB1
 70
     6
  9
$SURFTAB2
 70
     6
  9
$SURFTYPE
 70
     6
  9
$SURFU
 70
     6
  9
$SURFV
 70
     6
  9
$UCSNAME
  2

  9
$UCSORG
 10
0.0
 20
0.0
 30
0.0
  9
$UCSXDIR
 10
1.0
 20
0.0
 30
0.0
  9
$UCSYDIR
 10
0.0
 20
1.0
 30
0.0
  9
$PUCSNAME
  2

  9
$PUCSORG
 10
0.0
 20
0.0
 30
0.0
  9
$PUCSXDIR
 10
1.0
 20
0.0
 30
0.0
  9
$PUCSYDIR
 10
0.0
 20
1.0
 30
0.0
  9
$USERI1
 70
     0
  9
$USERI2
 70
     0
  9
$USERI3
 70
     0
  9
$USERI4
 70
     0
  9
$USERI5
 70
     0
  9
$USERR1
 40
20.0
  9
$USERR2
 40
0.0
  9
$USERR3
 40
0.0
  9
$USERR4
 40
0.0
  9
$USERR5
 40
0.0
  9
$WORLDVIEW
 70
     1
  9
$SHADEDGE
 70
     3
  9
$SHADEDIF
 70
    70
  9
$TILEMODE
 70
     1
  9
$MAXACTVP
 70
    48
  9
$PINSBASE
 10
0.0
 20
0.0
 30
0.0
  9
$PLIMCHECK
 70
     0
  9
$PEXTMIN
 10
-100000000000000000000.0
 20
-100000000000000000000.0
 30
-100000000000000000000.0
  9
$PEXTMAX
 10
100000000000000000000.0
 20
100000000000000000000.0
 30
100000000000000000000.0
  9
$PLIMMIN
 10
0.0
 20
0.0
  9
$PLIMMAX
 10
12.0
 20
9.0
  9
$UNITMODE
 70
     0
  9
$VISRETAIN
 70
     0
  9
$PLINEGEN
 70
     0
  9
$PSLTSCALE
 70
     0
  9
$TREEDEPTH
 70
  3020
  9
$ATTDIA
 70
     0
  9
$ATTREQ
 70
     1
  9
$BLIPMODE
 70
     1
  9
$COORDS
 70
     1
  9
$DRAGMODE
 70
     2
  9
$OSMODE
 70
     0
  9
$HANDLING
 70
     0
  9
$HANDSEED
  5
FB1E
  0
ENDSEC
  0
SECTION
  2
TABLES
  0
TABLE
  2
LTYPE
 70
     2
  0
LTYPE
  2
CONTINUOUS
 70
     0
  3
実線
 72
    65
 73
     0
 40
0.0
  0
LTYPE
  2
DASHDOT
 70
     0
  3
____ _ ____ _ ____ _ ____ _ ____ _ ____ _ ____
 72
    65
 73
     4
 40
5.5
 49
4.0
 49
-0.6
 49
0.3
 49
-0.6
  0
ENDTAB
  0
TABLE
  2
LAYER
 70
    12
  0
LAYER
  2
0
 70
     0
 62
     7
  6
CONTINUOUS
  0
LAYER
  2
BASIS
 70
     0
 62
     6
  6
DASHDOT
  0
LAYER
  2
OUTLINE
 70
     0
 62
     3
  6
CONTINUOUS
  0
LAYER
  2
DETAIL
 70
     0
 62
     5
  6
CONTINUOUS
  0
LAYER
  2
SIZE
 70
     0
 62
    30
  6
CONTINUOUS
  0
LAYER
  2
ARRANGE
 70
     0
 62
     1
  6
CONTINUOUS
  0
LAYER
  2
DEFPOINTS
 70
     0
 62
     7
  6
CONTINUOUS
  0
LAYER
  2
ETC
 70
     0
 62
    61
  6
CONTINUOUS
  0
LAYER
  2
FIX
 70
     0
 62
    11
  6
CONTINUOUS
  0
LAYER
  2
NOTE
 70
     0
 62
     4
  6
CONTINUOUS
  0
LAYER
  2
SERVICESPACE
 70
    64
 62
     2
  6
DASHDOT
  0
LAYER
  2
SYMBOLLINE
 70
    64
 62
    15
  6
CONTINUOUS
  0
ENDTAB
  0
TABLE
  2
STYLE
 70
     1
  0
STYLE
  2
STANDARD
 70
     0
 40
64.0
 41
0.9
 50
0.0
 71
     0
 42
64.0
  3
SIMPLEX.shx
  4
BIGFONT.shx
  0
ENDTAB
  0
TABLE
  2
APPID
 70
    18
  0
APPID
  2
ACAD
 70
     0
  0
APPID
  2
AUTOCAD_POSTSCRIPT_FIGURE
 70
     0
  0
APPID
  2
ACAD_EXEMPT_FROM_CAD_STANDARDS
 70
     0
  0
APPID
  2
ACAD_PSEXT
 70
     0
  0
APPID
  2
ACAUTHENVIRON
 70
     0
  0
APPID
  2
GENIUS_GENOENT_13
 70
     0
  0
APPID
  2
GENIUS_GENCFG_13
 70
     0
  0
APPID
  2
GENIUS_GENCFG0_13
 70
     0
  0
APPID
  2
GENIUS_GENCFG1_13
 70
     0
  0
APPID
  2
GENIUS_GENCFG2_13
 70
     0
  0
APPID
  2
GENIUS_GENCFG3_13
 70
     0
  0
APPID
  2
GENIUS_GENCFG4_13
 70
     0
  0
APPID
  2
GENIUS_GEVCFG0_13
 70
     0
  0
APPID
  2
CONTENTBLOCKICON
 70
     0
  0
APPID
  2
CONTENTBLOCKDESCRIPTION
 70
     0
  0
APPID
  2
ACAD_NAV_VCDISPLAY
 70
     0
  0
APPID
  2
ACAD_MLEADERVER
 70
     0
  0
APPID
  2
ACDBDYNAMICBLOCKGUID
 70
     0
  0
ENDTAB
  0
TABLE
  2
DIMSTYLE
 70
     1
  0
DIMSTYLE
  2
STANDARD
 70
     0
  3

  4

  5
_ORIGIN
  6

  7

 40
1.0
 41
12.0
 42
20.0
 43
200.0
 44
20.0
 45
0.0
 46
0.0
 47
0.0
 48
0.0
140
64.0
141
0.09
142
0.0
143
25.399999999999999
144
1.0
145
0.0
146
1.0
147
25.0
 71
     0
 72
     0
 73
     0
 74
     0
 75
     0
 76
     0
 77
     1
 78
     8
170
     0
171
     2
172
     1
173
     0
174
     1
175
     0
176
     7
177
     7
178
     7
  0
ENDTAB
  0
TABLE
  2
VIEW
 70
     1
  0
VIEW
  2
ALL
 70
     0
 40
4282.6198079999986
 10
0.0
 20
41.309904000000003
 41
5940.0
 11
0.0
 21
0.0
 31
1.0
 12
0.0
 22
0.0
 32
0.0
 42
50.0
 43
0.0
 44
0.0
 50
0.0
 71
     0
  0
ENDTAB
  0
TABLE
  2
UCS
 70
     0
  0
ENDTAB
  0
TABLE
  2
VPORT
 70
     1
  0
VPORT
  2
*ACTIVE
 70
     0
 10
0.0
 20
0.0
 11
1.0
 21
1.0
 12
305.44740188103862
 22
126.0910133436446
 13
0.0
 23
0.0
 14
1.0
 24
1.0
 15
0.0
 25
0.0
 16
0.0
 26
0.0
 36
1.0
 17
0.0
 27
0.0
 37
0.0
 40
743.015541306915
 41
2.1112877583465819
 42
50.0
 43
0.0
 44
0.0
 50
0.0
 51
0.0
 71
     0
 72
  1000
 73
     1
 74
     3
 75
     0
 76
     0
 77
     0
 78
     0
  0
ENDTAB
  0
ENDSEC
  0
SECTION
  2
BLOCKS
  0
BLOCK
  8
0
  2
_ORIGIN
 70
     0
 10
0.0
 20
0.0
 30
0.0
  3
_ORIGIN
  1
_ORIGIN
  0
CIRCLE
  8
0
  6
CONTINUOUS
 62
     7
 10
0.0
 20
0.0
 30
0.0
 40
0.5
  0
LINE
  8
0
  6
CONTINUOUS
 62
     7
 10
0.0
 20
0.0
 30
0.0
 11
-1.0
 21
0.0
 31
0.0
  0
ENDBLK
  8
0
  0
ENDSEC
  0
SECTION
  2
ENTITIES
  0
POINT
  8
ARRANGE
  6
CONTINUOUS
 62
     1
 10
0.0
 20
0.0
 30
0.0
  0
LINE
  8
BASIS
  6
DASHDOT
 62
     6
 10
127.1674189999999
 20
0.0
 30
0.0
 11
-133.34905900000001
 21
0.0
 31
0.0
  0
LINE
  8
SIZE
  6
CONTINUOUS
 62
    30
 10
-85.0
 20
129.2700679999999
 30
0.0
 11
-85.0
 21
551.79183614693704
 31
0.0
  0
LINE
  8
SIZE
  6
CONTINUOUS
 62
    30
 10
0.0
 20
136.0
 30
0.0
 11
0.0
 21
551.79183614693704
 31
0.0
  0
LINE
  8
SIZE
  6
CONTINUOUS
 62
    30
 10
-73.0
 20
531.79183614693693
 30
0.0
 11
-12.0
 21
531.79183614693693
 31
0.0
  0
LINE
  8
SIZE
  6
CONTINUOUS
 62
    30
 10
-252.58966899999999
 20
531.79183614693693
 30
0.0
 11
-85.0
 21
531.79183614693693
 31
0.0
  0
TEXT
  8
SIZE
  6
CONTINUOUS
 62
    30
 10
-227.58966842857129
 20
556.79183614693693
 30
0.0
 40
64.0
  1
85
 41
0.9
 72
     1
 11
-180.96109699999991
 21
556.79183614693693
 31
0.0
  0
CIRCLE
  8
SIZE
  6
CONTINUOUS
 62
    30
 10
-85.0
 20
531.79183614693693
 30
0.0
 40
6.0
  0
LINE
  8
SIZE
  6
CONTINUOUS
 62
    30
 10
-85.0
 20
531.79183614693693
 30
0.0
 11
-73.0
 21
531.79183614693693
 31
0.0
  0
CIRCLE
  8
SIZE
  6
CONTINUOUS
 62
    30
 10
0.0
 20
531.79183614693693
 30
0.0
 40
6.0
  0
LINE
  8
SIZE
  6
CONTINUOUS
 62
    30
 10
0.0
 20
531.79183614693693
 30
0.0
 11
-12.0
 21
531.79183614693693
 31
0.0
  0
LINE
  8
NOTE
  6
CONTINUOUS
 62
     4
 10
0.0
 20
-93.0
 30
0.0
 11
0.0
 21
-53.0
 31
0.0
  0
LINE
  8
NOTE
  6
CONTINUOUS
 62
     4
 10
-20.0
 20
-73.0
 30
0.0
 11
20.0
 21
-73.0
 31
0.0
  0
LINE
  8
SIZE
  6
CONTINUOUS
 62
    30
 10
-153.34905900000001
 20
0.0
 30
0.0
 11
-263.56532900000002
 21
0.0
 31
0.0
  0
LINE
  8
SIZE
  6
CONTINUOUS
 62
    30
 10
-40.0
 20
-73.0
 30
0.0
 11
-263.56532900000002
 21
-73.0
 31
0.0
  0
LINE
  8
SIZE
  6
CONTINUOUS
 62
    30
 10
-243.56532899999991
 20
12.0
 30
0.0
 11
-243.56532899999991
 21
24.0
 31
0.0
  0
LINE
  8
SIZE
  6
CONTINUOUS
 62
    30
 10
-243.56532899999991
 20
-85.0
 30
0.0
 11
-243.56532899999991
 21
-97.0
 31
0.0
  0
LINE
  8
SIZE
  6
CONTINUOUS
 62
    30
 10
-243.56532899999991
 20
179.0356689999999
 30
0.0
 11
-243.56532899999991
 21
0.0
 31
0.0
  0
TEXT
  8
SIZE
  6
CONTINUOUS
 62
    30
 10
-268.56532900000002
 20
60.778525571428418
 30
0.0
 40
64.0
  1
73
 50
90.0
 41
0.9
 72
     1
 11
-268.56532900000002
 21
107.40709699999989
 31
0.0
  0
LINE
  8
SIZE
  6
CONTINUOUS
 62
    30
 10
-243.56532899999991
 20
0.0
 30
0.0
 11
-243.56532899999991
 21
-73.0
 31
0.0
  0
LINE
  8
SIZE
  6
CONTINUOUS
 62
    30
 10
-243.56532899999991
 20
0.0
 30
0.0
 11
-243.56532899999991
 21
-73.0
 31
0.0
  0
CIRCLE
  8
SIZE
  6
CONTINUOUS
 62
    30
 10
-243.56532899999991
 20
0.0
 30
0.0
 40
6.0
  0
LINE
  8
SIZE
  6
CONTINUOUS
 62
    30
 10
-243.56532899999991
 20
0.0
 30
0.0
 11
-243.56532899999991
 21
12.0
 31
0.0
  0
CIRCLE
  8
SIZE
  6
CONTINUOUS
 62
    30
 10
-243.56532899999991
 20
-73.0
 30
0.0
 40
6.0
  0
LINE
  8
SIZE
  6
CONTINUOUS
 62
    30
 10
-243.56532899999991
 20
-73.0
 30
0.0
 11
-243.56532899999991
 21
-85.0
 31
0.0
  0
LINE
  8
NOTE
  6
CONTINUOUS
 62
     4
 10
131.36293704965249
 20
-251.93265773738739
 30
0.0
 11
0.0
 21
-73.0
 31
0.0
  0
LINE
  8
NOTE
  6
CONTINUOUS
 62
     4
 10
31.86247489294178
 20
-97.182280779177376
 30
0.0
 11
0.0
 21
-73.0
 31
0.0
  0
LINE
  8
NOTE
  6
CONTINUOUS
 62
     4
 10
0.0
 20
-73.0
 30
0.0
 11
15.50257170246808
 21
-109.87370722417189
 31
0.0
  0
CIRCLE
  8
ARRANGE
  6
CONTINUOUS
 62
     1
 10
0.0
 20
0.0
 30
0.0
 40
40.0
  0
LINE
  8
DETAIL
  6
CONTINUOUS
 62
     5
 10
0.0
 20
116.0
 30
0.0
 11
-49.0
 21
116.0
 31
0.0
  0
LINE
  8
DETAIL
  6
CONTINUOUS
 62
     5
 10
0.0
 20
-140.5
 30
0.0
 11
-42.293897000000023
 21
-140.5
 31
0.0
  0
LINE
  8
DETAIL
  6
CONTINUOUS
 62
     5
 10
0.0
 20
116.0
 30
0.0
 11
0.0
 21
-140.5
 31
0.0
  0
LINE
  8
SIZE
  6
CONTINUOUS
 62
    30
 10
20.0
 20
-140.5
 30
0.0
 11
641.52130121211735
 21
-140.5
 31
0.0
  0
LINE
  8
SIZE
  6
CONTINUOUS
 62
    30
 10
20.0
 20
116.0
 30
0.0
 11
641.52130121211735
 21
116.0
 31
0.0
  0
LINE
  8
SIZE
  6
CONTINUOUS
 62
    30
 10
621.52130121211735
 20
-128.49999999999989
 30
0.0
 11
621.52130121211735
 21
104.0
 31
0.0
  0
TEXT
  8
SIZE
  6
CONTINUOUS
 62
    30
 10
597.18126221211742
 20
-127.45
 30
0.0
 40
64.0
  1
256.5
 50
90.0
 41
0.9
 72
     1
 11
597.18126221211742
 21
-12.25
 31
0.0
  0
CIRCLE
  8
SIZE
  6
CONTINUOUS
 62
    30
 10
621.52130121211735
 20
-140.5
 30
0.0
 40
6.0
  0
LINE
  8
SIZE
  6
CONTINUOUS
 62
    30
 10
621.52130121211735
 20
-140.5
 30
0.0
 11
621.52130121211735
 21
-128.49999999999989
 31
0.0
  0
CIRCLE
  8
SIZE
  6
CONTINUOUS
 62
    30
 10
621.52130121211735
 20
116.0
 30
0.0
 40
6.0
  0
LINE
  8
SIZE
  6
CONTINUOUS
 62
    30
 10
621.52130121211735
 20
116.0
 30
0.0
 11
621.52130121211735
 21
104.0
 31
0.0
  0
LINE
  8
DETAIL
  6
CONTINUOUS
 62
     5
 10
0.0
 20
120.0
 30
0.0
 11
0.0
 21
116.0
 31
0.0
  0
LINE
  8
DETAIL
  6
CONTINUOUS
 62
     5
 10
-11.0
 20
120.0
 30
0.0
 11
-11.0
 21
116.0
 31
0.0
  0
LINE
  8
DETAIL
  6
CONTINUOUS
 62
     5
 10
0.0
 20
120.0
 30
0.0
 11
-11.0
 21
120.0
 31
0.0
  0
LINE
  8
SIZE
  6
CONTINUOUS
 62
    30
 10
-11.0
 20
140.0
 30
0.0
 11
-11.0
 21
292.33130189342739
 31
0.0
  0
LINE
  8
SIZE
  6
CONTINUOUS
 62
    30
 10
0.0
 20
140.0
 30
0.0
 11
0.0
 21
292.33130189342739
 31
0.0
  0
LINE
  8
SIZE
  6
CONTINUOUS
 62
    30
 10
-23.0
 20
272.33130189342739
 30
0.0
 11
-35.0
 21
272.33130189342739
 31
0.0
  0
LINE
  8
SIZE
  6
CONTINUOUS
 62
    30
 10
12.0
 20
272.33130189342739
 30
0.0
 11
24.0
 21
272.33130189342739
 31
0.0
  0
LINE
  8
SIZE
  6
CONTINUOUS
 62
    30
 10
-201.96238584364411
 20
272.33130189342739
 30
0.0
 11
-11.000000000000011
 21
272.33130189342739
 31
0.0
  0
TEXT
  8
SIZE
  6
CONTINUOUS
 62
    30
 10
-176.96238584364431
 20
297.33130189342739
 30
0.0
 40
64.0
  1
11
 41
0.9
 72
     1
 11
-148.1623858436443
 21
297.33130189342739
 31
0.0
  0
LINE
  8
SIZE
  6
CONTINUOUS
 62
    30
 10
-11.0
 20
272.33130189342739
 30
0.0
 11
0.0
 21
272.33130189342739
 31
0.0
  0
LINE
  8
SIZE
  6
CONTINUOUS
 62
    30
 10
-11.0
 20
272.33130189342739
 30
0.0
 11
0.0
 21
272.33130189342739
 31
0.0
  0
CIRCLE
  8
SIZE
  6
CONTINUOUS
 62
    30
 10
-11.0
 20
272.33130189342739
 30
0.0
 40
6.0
  0
LINE
  8
SIZE
  6
CONTINUOUS
 62
    30
 10
-11.0
 20
272.33130189342739
 30
0.0
 11
-23.0
 21
272.33130189342739
 31
0.0
  0
CIRCLE
  8
SIZE
  6
CONTINUOUS
 62
    30
 10
0.0
 20
272.33130189342739
 30
0.0
 40
6.0
  0
LINE
  8
SIZE
  6
CONTINUOUS
 62
    30
 10
0.0
 20
272.33130189342739
 30
0.0
 11
12.0
 21
272.33130189342739
 31
0.0
  0
LINE
  8
SIZE
  6
CONTINUOUS
 62
    30
 10
20.0
 20
120.0
 30
0.0
 11
380.80177721211737
 21
120.0
 31
0.0
  0
LINE
  8
SIZE
  6
CONTINUOUS
 62
    30
 10
20.0
 20
116.0
 30
0.0
 11
380.80177721211737
 21
116.0
 31
0.0
  0
LINE
  8
SIZE
  6
CONTINUOUS
 62
    30
 10
360.80177721211737
 20
132.0
 30
0.0
 11
360.80177721211737
 21
144.0
 31
0.0
  0
LINE
  8
SIZE
  6
CONTINUOUS
 62
    30
 10
360.80177721211737
 20
104.0
 30
0.0
 11
360.80177721211737
 21
92.0
 31
0.0
  0
LINE
  8
SIZE
  6
CONTINUOUS
 62
    30
 10
360.80177721211737
 20
241.02420099999989
 30
0.0
 11
360.80177721211737
 21
120.0
 31
0.0
  0
TEXT
  8
SIZE
  6
CONTINUOUS
 62
    30
 10
335.80177721211737
 20
174.8813434285714
 30
0.0
 40
64.0
  1
4
 50
90.0
 41
0.9
 72
     1
 11
335.80177721211737
 21
195.45277200000001
 31
0.0
  0
LINE
  8
SIZE
  6
CONTINUOUS
 62
    30
 10
360.80177721211737
 20
120.0
 30
0.0
 11
360.80177721211737
 21
116.0
 31
0.0
  0
LINE
  8
SIZE
  6
CONTINUOUS
 62
    30
 10
360.80177721211737
 20
120.0
 30
0.0
 11
360.80177721211737
 21
116.0
 31
0.0
  0
CIRCLE
  8
SIZE
  6
CONTINUOUS
 62
    30
 10
360.80177721211737
 20
120.0
 30
0.0
 40
6.0
  0
LINE
  8
SIZE
  6
CONTINUOUS
 62
    30
 10
360.80177721211737
 20
120.0
 30
0.0
 11
360.80177721211737
 21
132.0
 31
0.0
  0
CIRCLE
  8
SIZE
  6
CONTINUOUS
 62
    30
 10
360.80177721211737
 20
116.0
 30
0.0
 40
6.0
  0
LINE
  8
SIZE
  6
CONTINUOUS
 62
    30
 10
360.80177721211737
 20
116.0
 30
0.0
 11
360.80177721211737
 21
104.0
 31
0.0
  0
LINE
  8
DETAIL
  6
CONTINUOUS
 62
     5
 10
75.0
 20
85.0
 30
0.0
 11
0.0
 21
85.0
 31
0.0
  0
LINE
  8
DETAIL
  6
CONTINUOUS
 62
     5
 10
75.0
 20
-85.0
 30
0.0
 11
0.0
 21
-85.0
 31
0.0
  0
CIRCLE
  8
FIX
  6
CONTINUOUS
 62
    11
 10
0.0
 20
0.0
 30
0.0
 40
2.5
  0
LINE
  8
BASIS
  6
DASHDOT
 62
     6
 10
0.0
 20
-20.0
 30
0.0
 11
0.0
 21
20.0
 31
0.0
  0
LINE
  8
BASIS
  6
DASHDOT
 62
     6
 10
20.0
 20
0.0
 30
0.0
 11
-20.0
 21
0.0
 31
0.0
  0
CIRCLE
  8
FIX
  6
CONTINUOUS
 62
    11
 10
0.0
 20
-98.0
 30
0.0
 40
2.5
  0
LINE
  8
BASIS
  6
DASHDOT
 62
     6
 10
0.0
 20
-118.0
 30
0.0
 11
0.0
 21
-78.0
 31
0.0
  0
LINE
  8
BASIS
  6
DASHDOT
 62
     6
 10
-20.0
 20
-98.0
 30
0.0
 11
20.0
 21
-98.0
 31
0.0
  0
CIRCLE
  8
FIX
  6
CONTINUOUS
 62
    11
 10
0.0
 20
98.0
 30
0.0
 40
2.5
  0
LINE
  8
BASIS
  6
DASHDOT
 62
     6
 10
0.0
 20
118.0
 30
0.0
 11
0.0
 21
78.0
 31
0.0
  0
LINE
  8
BASIS
  6
DASHDOT
 62
     6
 10
-20.0
 20
98.0
 30
0.0
 11
20.0
 21
98.0
 31
0.0
  0
LINE
  8
SIZE
  6
CONTINUOUS
 62
    30
 10
40.0
 20
98.0
 30
0.0
 11
523.11204421211733
 21
98.0
 31
0.0
  0
LINE
  8
SIZE
  6
CONTINUOUS
 62
    30
 10
40.0
 20
-98.0
 30
0.0
 11
523.11204421211733
 21
-98.0
 31
0.0
  0
LINE
  8
SIZE
  6
CONTINUOUS
 62
    30
 10
503.11204421211733
 20
86.0
 30
0.0
 11
503.11204421211733
 21
-86.0
 31
0.0
  0
LINE
  8
SIZE
  6
CONTINUOUS
 62
    30
 10
503.11204421211733
 20
-341.078776
 30
0.0
 11
503.11204421211733
 21
-98.0
 31
0.0
  0
TEXT
  8
SIZE
  6
CONTINUOUS
 62
    30
 10
478.11204421211733
 20
-316.078776
 30
0.0
 40
64.0
  1
196
 50
90.0
 41
0.9
 72
     1
 11
478.11204421211733
 21
-248.87877599999999
 31
0.0
  0
CIRCLE
  8
SIZE
  6
CONTINUOUS
 62
    30
 10
503.11204421211733
 20
98.0
 30
0.0
 40
6.0
  0
LINE
  8
SIZE
  6
CONTINUOUS
 62
    30
 10
503.11204421211733
 20
98.0
 30
0.0
 11
503.11204421211733
 21
86.0
 31
0.0
  0
CIRCLE
  8
SIZE
  6
CONTINUOUS
 62
    30
 10
503.11204421211733
 20
-98.0
 30
0.0
 40
6.0
  0
LINE
  8
SIZE
  6
CONTINUOUS
 62
    30
 10
503.11204421211733
 20
-98.0
 30
0.0
 11
503.11204421211733
 21
-86.0
 31
0.0
  0
LINE
  8
SIZE
  6
CONTINUOUS
 62
    30
 10
-49.0
 20
136.0
 30
0.0
 11
-49.0
 21
430.60394114693702
 31
0.0
  0
LINE
  8
SIZE
  6
CONTINUOUS
 62
    30
 10
-85.0
 20
129.2700679999999
 30
0.0
 11
-85.0
 21
430.60394114693702
 31
0.0
  0
LINE
  8
SIZE
  6
CONTINUOUS
 62
    30
 10
-37.0
 20
410.6039411469369
 30
0.0
 11
-25.0
 21
410.6039411469369
 31
0.0
  0
LINE
  8
SIZE
  6
CONTINUOUS
 62
    30
 10
-97.0
 20
410.6039411469369
 30
0.0
 11
-109.0
 21
410.6039411469369
 31
0.0
  0
LINE
  8
SIZE
  6
CONTINUOUS
 62
    30
 10
-252.37025399999999
 20
410.6039411469369
 30
0.0
 11
-85.0
 21
410.6039411469369
 31
0.0
  0
TEXT
  8
SIZE
  6
CONTINUOUS
 62
    30
 10
-227.3702548571429
 20
435.6039411469369
 30
0.0
 40
64.0
  1
36
 41
0.9
 72
     1
 11
-182.113112
 21
435.6039411469369
 31
0.0
  0
LINE
  8
SIZE
  6
CONTINUOUS
 62
    30
 10
-49.0
 20
410.6039411469369
 30
0.0
 11
-85.0
 21
410.6039411469369
 31
0.0
  0
LINE
  8
SIZE
  6
CONTINUOUS
 62
    30
 10
-49.0
 20
410.6039411469369
 30
0.0
 11
-85.0
 21
410.6039411469369
 31
0.0
  0
CIRCLE
  8
SIZE
  6
CONTINUOUS
 62
    30
 10
-49.0
 20
410.6039411469369
 30
0.0
 40
6.0
  0
LINE
  8
SIZE
  6
CONTINUOUS
 62
    30
 10
-49.0
 20
410.6039411469369
 30
0.0
 11
-37.0
 21
410.6039411469369
 31
0.0
  0
CIRCLE
  8
SIZE
  6
CONTINUOUS
 62
    30
 10
-85.0
 20
410.6039411469369
 30
0.0
 40
6.0
  0
LINE
  8
SIZE
  6
CONTINUOUS
 62
    30
 10
-85.0
 20
410.6039411469369
 30
0.0
 11
-97.0
 21
410.6039411469369
 31
0.0
  0
LINE
  8
NOTE
  6
CONTINUOUS
 62
     4
 10
0.0
 20
98.0
 30
0.0
 11
-321.28654199999988
 21
263.72357499999998
 31
0.0
  0
LINE
  8
NOTE
  6
CONTINUOUS
 62
     4
 10
-321.28654199999988
 20
263.72357499999998
 30
0.0
 11
-584.59318199999996
 21
263.72357499999998
 31
0.0
  0
TEXT
  8
NOTE
  6
CONTINUOUS
 62
     4
 10
-573.7756159999999
 20
286.91037399999999
 30
0.0
 40
64.0
  1
4-φ5
 41
0.9
  0
LINE
  8
NOTE
  6
CONTINUOUS
 62
     4
 10
-29.331458999999999
 20
125.1967929999998
 30
0.0
 11
0.0
 21
98.0
 31
0.0
  0
LINE
  8
NOTE
  6
CONTINUOUS
 62
     4
 10
0.0
 20
98.0
 30
0.0
 11
-39.000184999999988
 21
106.887383
 31
0.0
  0
LINE
  8
DETAIL
  6
CONTINUOUS
 62
     5
 10
75.0
 20
85.0
 30
0.0
 11
75.0
 21
-85.0
 31
0.0
  0
LINE
  8
DETAIL
  6
CONTINUOUS
 62
     5
 10
-85.0
 20
109.2700679999999
 30
0.0
 11
-85.0
 21
-112.664706
 31
0.0
  0
LINE
  8
DETAIL
  6
CONTINUOUS
 62
     5
 10
-49.0
 20
116.0
 30
0.0
 11
-49.0
 21
-102.4999999999999
 31
0.0
  0
LINE
  8
DETAIL
  6
CONTINUOUS
 62
     5
 10
-49.0
 20
116.0
 30
0.0
 11
-80.277349999999956
 21
114.26236899999979
 31
0.0
  0
ARC
  8
DETAIL
  6
CONTINUOUS
 62
     5
 10
-80.0
 20
109.2700679999999
 30
0.0
 40
5.0
 50
93.179829999999356
 51
180.0
  0
LINE
  8
DETAIL
  6
CONTINUOUS
 62
     5
 10
-91.5
 20
-116.01348899999989
 30
0.0
 11
-91.5
 21
-119.2307889999999
 31
0.0
  0
LINE
  8
DETAIL
  6
CONTINUOUS
 62
     5
 10
0.0
 20
-102.4999999999999
 30
0.0
 11
-49.0
 21
-102.4999999999999
 31
0.0
  0
LINE
  8
DETAIL
  6
CONTINUOUS
 62
     5
 10
-49.0
 20
-102.4999999999999
 30
0.0
 11
-90.043457999999987
 21
-114.0887409999999
 31
0.0
  0
LINE
  8
DETAIL
  6
CONTINUOUS
 62
     5
 10
-90.351593999999977
 20
-121.040426
 30
0.0
 11
-55.067808000000007
 21
-137.64456100000001
 31
0.0
  0
ARC
  8
DETAIL
  6
CONTINUOUS
 62
     5
 10
-89.5
 20
-116.01348899999989
 30
0.0
 40
2.0
 50
105.7671830000025
 51
180.0
  0
ARC
  8
DETAIL
  6
CONTINUOUS
 62
     5
 10
-89.5
 20
-119.2307889999999
 30
0.0
 40
2.0
 50
180.0
 51
244.79887599999759
  0
ARC
  8
DETAIL
  6
CONTINUOUS
 62
     5
 10
-42.293897000000023
 20
-110.4999999999999
 30
0.0
 40
30.0
 50
244.79887599999759
 51
270.0
  0
LINE
  8
DETAIL
  6
CONTINUOUS
 62
     5
 10
-49.0
 20
101.0
 30
0.0
 11
-85.0
 21
101.0
 31
0.0
  0
LINE
  8
SIZE
  6
CONTINUOUS
 62
    30
 10
0.0
 20
136.0
 30
0.0
 11
0.0
 21
551.79183614693704
 31
0.0
  0
LINE
  8
SIZE
  6
CONTINUOUS
 62
    30
 10
75.0
 20
105.0
 30
0.0
 11
75.0
 21
551.79183614693704
 31
0.0
  0
LINE
  8
SIZE
  6
CONTINUOUS
 62
    30
 10
12.0
 20
531.79183614693693
 30
0.0
 11
63.0
 21
531.79183614693693
 31
0.0
  0
LINE
  8
SIZE
  6
CONTINUOUS
 62
    30
 10
244.33680099999989
 20
531.79183614693693
 30
0.0
 11
75.0
 21
531.79183614693693
 31
0.0
  0
TEXT
  8
SIZE
  6
CONTINUOUS
 62
    30
 10
126.0796585714285
 20
556.79183614693693
 30
0.0
 40
64.0
  1
75
 41
0.9
 72
     1
 11
172.70822999999999
 21
556.79183614693693
 31
0.0
  0
CIRCLE
  8
SIZE
  6
CONTINUOUS
 62
    30
 10
0.0
 20
531.79183614693693
 30
0.0
 40
6.0
  0
LINE
  8
SIZE
  6
CONTINUOUS
 62
    30
 10
0.0
 20
531.79183614693693
 30
0.0
 11
12.0
 21
531.79183614693693
 31
0.0
  0
CIRCLE
  8
SIZE
  6
CONTINUOUS
 62
    30
 10
75.0
 20
531.79183614693693
 30
0.0
 40
6.0
  0
LINE
  8
SIZE
  6
CONTINUOUS
 62
    30
 10
75.0
 20
531.79183614693693
 30
0.0
 11
63.0
 21
531.79183614693693
 31
0.0
  0
LINE
  8
SIZE
  6
CONTINUOUS
 62
    30
 10
-60.610098999999991
 20
-140.5
 30
0.0
 11
-378.97988800000002
 21
-140.5
 31
0.0
  0
LINE
  8
SIZE
  6
CONTINUOUS
 62
    30
 10
-153.34905900000001
 20
0.0
 30
0.0
 11
-378.97988800000002
 21
0.0
 31
0.0
  0
LINE
  8
SIZE
  6
CONTINUOUS
 62
    30
 10
-358.97988800000002
 20
-152.5
 30
0.0
 11
-358.97988800000002
 21
-164.5
 31
0.0
  0
LINE
  8
SIZE
  6
CONTINUOUS
 62
    30
 10
-358.97988800000002
 20
12.0
 30
0.0
 11
-358.97988800000002
 21
24.0
 31
0.0
  0
LINE
  8
SIZE
  6
CONTINUOUS
 62
    30
 10
-358.97988800000002
 20
-140.5
 30
0.0
 11
-358.97988800000002
 21
0.0
 31
0.0
  0
CIRCLE
  8
SIZE
  6
CONTINUOUS
 62
    30
 10
-358.97988800000002
 20
-140.5
 30
0.0
 40
6.0
  0
LINE
  8
SIZE
  6
CONTINUOUS
 62
    30
 10
-358.97988800000002
 20
-140.5
 30
0.0
 11
-358.97988800000002
 21
-152.5
 31
0.0
  0
CIRCLE
  8
SIZE
  6
CONTINUOUS
 62
    30
 10
-358.97988800000002
 20
0.0
 30
0.0
 40
6.0
  0
LINE
  8
SIZE
  6
CONTINUOUS
 62
    30
 10
-358.97988800000002
 20
0.0
 30
0.0
 11
-358.97988800000002
 21
12.0
 31
0.0
  0
TEXT
  8
SIZE
  6
CONTINUOUS
 62
    30
 10
-383.97988800000002
 20
-179.96428571428569
 30
0.0
 40
64.0
  1
140.5
 50
90.0
 41
0.9
 72
     1
 11
-383.97988800000002
 21
-70.25
 31
0.0
  0
LINE
  8
SIZE
  6
CONTINUOUS
 62
    30
 10
95.0
 20
85.0
 30
0.0
 11
406.32879321211749
 21
85.0
 31
0.0
  0
LINE
  8
SIZE
  6
CONTINUOUS
 62
    30
 10
95.0
 20
-85.0
 30
0.0
 11
406.32879321211749
 21
-85.0
 31
0.0
  0
LINE
  8
SIZE
  6
CONTINUOUS
 62
    30
 10
386.32879321211749
 20
73.0
 30
0.0
 11
386.32879321211749
 21
-73.0
 31
0.0
  0
LINE
  8
SIZE
  6
CONTINUOUS
 62
    30
 10
386.32879321211749
 20
-403.98686399999991
 30
0.0
 11
386.32879321211749
 21
-85.0
 31
0.0
  0
TEXT
  8
SIZE
  6
CONTINUOUS
 62
    30
 10
361.32879321211749
 20
-382.82686457142859
 30
0.0
 40
64.0
  1
□170
 50
90.0
 41
0.9
 72
     1
 11
361.32879321211749
 21
-277.77543600000001
 31
0.0
  0
CIRCLE
  8
SIZE
  6
CONTINUOUS
 62
    30
 10
386.32879321211749
 20
85.0
 30
0.0
 40
6.0
  0
LINE
  8
SIZE
  6
CONTINUOUS
 62
    30
 10
386.32879321211749
 20
85.0
 30
0.0
 11
386.32879321211749
 21
73.0
 31
0.0
  0
CIRCLE
  8
SIZE
  6
CONTINUOUS
 62
    30
 10
386.32879321211749
 20
-85.0
 30
0.0
 40
6.0
  0
LINE
  8
SIZE
  6
CONTINUOUS
 62
    30
 10
386.32879321211749
 20
-85.0
 30
0.0
 11
386.32879321211749
 21
-73.0
 31
0.0
  0
LINE
  8
SIZE
  6
CONTINUOUS
 62
    30
 10
0.0
 20
-160.49999999999989
 30
0.0
 11
0.0
 21
-381.68412599999988
 31
0.0
  0
LINE
  8
SIZE
  6
CONTINUOUS
 62
    30
 10
-91.5
 20
-139.2307889999999
 30
0.0
 11
-91.5
 21
-381.68412599999988
 31
0.0
  0
LINE
  8
SIZE
  6
CONTINUOUS
 62
    30
 10
-12.0
 20
-361.68412599999999
 30
0.0
 11
-79.5
 21
-361.68412599999999
 31
0.0
  0
LINE
  8
SIZE
  6
CONTINUOUS
 62
    30
 10
-332.68778700000001
 20
-361.68412599999999
 30
0.0
 11
-91.5
 21
-361.68412599999999
 31
0.0
  0
TEXT
  8
SIZE
  6
CONTINUOUS
 62
    30
 10
-307.68778728571431
 20
-336.68412599999999
 30
0.0
 40
64.0
  1
91.5
 41
0.9
 72
     1
 11
-225.402073
 21
-336.68412599999999
 31
0.0
  0
CIRCLE
  8
SIZE
  6
CONTINUOUS
 62
    30
 10
0.0
 20
-361.68412599999999
 30
0.0
 40
6.0
  0
LINE
  8
SIZE
  6
CONTINUOUS
 62
    30
 10
0.0
 20
-361.68412599999999
 30
0.0
 11
-12.0
 21
-361.68412599999999
 31
0.0
  0
CIRCLE
  8
SIZE
  6
CONTINUOUS
 62
    30
 10
-91.5
 20
-361.68412599999999
 30
0.0
 40
6.0
  0
LINE
  8
SIZE
  6
CONTINUOUS
 62
    30
 10
-91.5
 20
-361.68412599999999
 30
0.0
 11
-79.5
 21
-361.68412599999999
 31
0.0
  0
LINE
  8
OUTLINE
  6
CONTINUOUS
 62
     3
 10
75.0
 20
-85.0
 30
0.0
 11
0.0
 21
-85.0
 31
0.0
  0
LINE
  8
OUTLINE
  6
CONTINUOUS
 62
     3
 10
75.0
 20
85.0
 30
0.0
 11
0.0
 21
85.0
 31
0.0
  0
LINE
  8
OUTLINE
  6
CONTINUOUS
 62
     3
 10
-85.0
 20
109.2700679999999
 30
0.0
 11
-85.0
 21
-112.664706
 31
0.0
  0
LINE
  8
OUTLINE
  6
CONTINUOUS
 62
     3
 10
0.0
 20
116.0
 30
0.0
 11
0.0
 21
85.0
 31
0.0
  0
LINE
  8
OUTLINE
  6
CONTINUOUS
 62
     3
 10
0.0
 20
-85.0
 30
0.0
 11
0.0
 21
-140.5
 31
0.0
  0
LINE
  8
OUTLINE
  6
CONTINUOUS
 62
     3
 10
-90.351593999999977
 20
-121.040426
 30
0.0
 11
-55.067808000000007
 21
-137.64456100000001
 31
0.0
  0
LINE
  8
OUTLINE
  6
CONTINUOUS
 62
     3
 10
-85.0
 20
-112.6647058101195
 30
0.0
 11
-90.043457999999987
 21
-114.0887409999999
 31
0.0
  0
ARC
  8
OUTLINE
  6
CONTINUOUS
 62
     3
 10
-89.5
 20
-119.2307889999999
 30
0.0
 40
2.0
 50
180.0
 51
244.79887599999759
  0
ARC
  8
OUTLINE
  6
CONTINUOUS
 62
     3
 10
-89.5
 20
-116.01348899999989
 30
0.0
 40
2.0
 50
105.7671830000025
 51
180.0
  0
LINE
  8
OUTLINE
  6
CONTINUOUS
 62
     3
 10
-91.5
 20
-116.01348899999989
 30
0.0
 11
-91.5
 21
-119.2307889999999
 31
0.0
  0
ARC
  8
OUTLINE
  6
CONTINUOUS
 62
     3
 10
-42.293897000000023
 20
-110.4999999999999
 30
0.0
 40
30.0
 50
244.79887599999759
 51
270.0
  0
LINE
  8
OUTLINE
  6
CONTINUOUS
 62
     3
 10
0.0
 20
-140.5
 30
0.0
 11
-42.293897000000023
 21
-140.5
 31
0.0
  0
LINE
  8
OUTLINE
  6
CONTINUOUS
 62
     3
 10
-49.0
 20
116.0
 30
0.0
 11
-80.277349999999956
 21
114.26236899999979
 31
0.0
  0
ARC
  8
OUTLINE
  6
CONTINUOUS
 62
     3
 10
-80.0
 20
109.2700679999999
 30
0.0
 40
5.0
 50
93.179829999999356
 51
180.0
  0
LINE
  8
OUTLINE
  6
CONTINUOUS
 62
     3
 10
0.0
 20
116.0
 30
0.0
 11
-49.0
 21
116.0
 31
0.0
  0
LINE
  8
OUTLINE
  6
CONTINUOUS
 62
     3
 10
75.0
 20
85.0
 30
0.0
 11
75.0
 21
-85.0
 31
0.0
  0
LINE
  8
DETAIL
  6
CONTINUOUS
 62
     5
 10
75.0
 20
73.945620042760197
 30
0.0
 11
210.42519154955431
 21
38.239108516458153
 31
0.0
  0
LINE
  8
DETAIL
  6
CONTINUOUS
 62
     5
 10
212.43061941528231
 20
38.303971141075642
 30
0.0
 11
213.499972446225
 21
37.686579880801901
 31
0.0
  0
ARC
  8
DETAIL
  6
CONTINUOUS
 62
     5
 10
213.99997133813119
 20
38.552605924343418
 30
0.0
 40
1.0000000000000591
 50
240.00007331083719
 51
59.999982697149242
  0
ARC
  8
DETAIL
  6
CONTINUOUS
 62
     5
 10
211.37197468571779
 20
40.000812717818121
 30
0.0
 40
2.0000000000000551
 50
241.74532324757951
 51
332.85490862708872
  0
LINE
  8
DETAIL
  6
CONTINUOUS
 62
     5
 10
213.10403870778461
 20
39.000805088423817
 30
0.0
 11
213.50287342644609
 21
39.691607084966449
 31
0.0
  0
LINE
  8
DETAIL
  6
CONTINUOUS
 62
     5
 10
75.0
 20
76.24069638603487
 30
0.0
 11
214.4999713381321
 21
39.418631328127731
 31
0.0
  0
LINE
  8
DETAIL
  6
CONTINUOUS
 62
     5
 10
22.0
 20
85.0
 30
0.0
 11
22.0
 21
91.999999999999773
 31
0.0
  0
LINE
  8
DETAIL
  6
CONTINUOUS
 62
     5
 10
16.0
 20
85.999999999999773
 30
0.0
 11
16.0
 21
85.0
 31
0.0
  0
LINE
  8
DETAIL
  6
CONTINUOUS
 62
     5
 10
28.0
 20
85.999999999999773
 30
0.0
 11
28.0
 21
85.0
 31
0.0
  0
LINE
  8
DETAIL
  6
CONTINUOUS
 62
     5
 10
16.0
 20
85.999999999999773
 30
0.0
 11
28.0
 21
85.999999999999773
 31
0.0
  0
LINE
  8
DETAIL
  6
CONTINUOUS
 62
     5
 10
18.500000000000909
 20
85.999999999999773
 30
0.0
 11
18.500000000000909
 21
91.0
 31
0.0
  0
LINE
  8
DETAIL
  6
CONTINUOUS
 62
     5
 10
25.5
 20
85.999999999999773
 30
0.0
 11
25.5
 21
91.0
 31
0.0
  0
LINE
  8
DETAIL
  6
CONTINUOUS
 62
     5
 10
19.5
 20
91.999999999999773
 30
0.0
 11
24.500000000000909
 21
91.999999999999773
 31
0.0
  0
LINE
  8
DETAIL
  6
CONTINUOUS
 62
     5
 10
18.49999918971298
 20
90.999998108722934
 30
0.0
 11
19.500064988862501
 21
92.00006390787064
 31
0.0
  0
LINE
  8
DETAIL
  6
CONTINUOUS
 62
     5
 10
24.50000325574365
 20
91.999923261904428
 30
0.0
 11
25.499997994993461
 21
90.999959036347605
 31
0.0
  0
LINE
  8
SIZE
  6
CONTINUOUS
 62
    30
 10
75.0
 20
105.0
 30
0.0
 11
75.000000000000014
 21
430.6039411469369
 31
0.0
  0
LINE
  8
SIZE
  6
CONTINUOUS
 62
    30
 10
214.99997133813119
 20
58.552605924343418
 30
0.0
 11
214.99997133813119
 21
430.6039411469369
 31
0.0
  0
LINE
  8
SIZE
  6
CONTINUOUS
 62
    30
 10
87.000000000000014
 20
410.6039411469369
 30
0.0
 11
202.99997133813119
 21
410.6039411469369
 31
0.0
  0
LINE
  8
SIZE
  6
CONTINUOUS
 62
    30
 10
214.99997133813119
 20
410.6039411469369
 30
0.0
 11
414.14282848098838
 21
410.6039411469369
 31
0.0
  0
CIRCLE
  8
SIZE
  6
CONTINUOUS
 62
    30
 10
75.000000000000014
 20
410.6039411469369
 30
0.0
 40
6.0
  0
LINE
  8
SIZE
  6
CONTINUOUS
 62
    30
 10
75.000000000000014
 20
410.6039411469369
 30
0.0
 11
87.000000000000014
 21
410.6039411469369
 31
0.0
  0
CIRCLE
  8
SIZE
  6
CONTINUOUS
 62
    30
 10
214.99997133813119
 20
410.6039411469369
 30
0.0
 40
6.0
  0
LINE
  8
SIZE
  6
CONTINUOUS
 62
    30
 10
214.99997133813119
 20
410.6039411469369
 30
0.0
 11
202.99997133813119
 21
410.6039411469369
 31
0.0
  0
TEXT
  8
SIZE
  6
CONTINUOUS
 62
    30
 10
244.82739990955989
 20
435.6039411469369
 30
0.0
 40
64.0
  1
140
 50
0.0
 41
0.9
 51
0.0
  7
STANDARD
 71
     0
 72
     1
 11
320.57139990955989
 21
435.6039411469369
 31
0.0
210
0.0
220
0.0
230
1.0
  0
POINT
  8
DEFPOINTS
  6
CONTINUOUS
 62
    30
 10
75.0
 20
85.0
 30
0.0
  0
POINT
  8
DEFPOINTS
  6
CONTINUOUS
 62
    30
 10
214.99997133813119
 20
38.552605924343418
 30
0.0
  0
POINT
  8
DEFPOINTS
  6
CONTINUOUS
 62
    30
 10
214.99997133813119
 20
410.6039411469369
 30
0.0
  0
LINE
  8
SIZE
  6
CONTINUOUS
 62
    30
 10
0.0000000000000012
 20
140.0
 30
0.0
 11
0.0000000000000106
 21
292.33130189342739
 31
0.0
  0
LINE
  8
SIZE
  6
CONTINUOUS
 62
    30
 10
22.0
 20
111.9999999999998
 30
0.0
 11
22.000000000000011
 21
292.33130189342739
 31
0.0
  0
LINE
  8
SIZE
  6
CONTINUOUS
 62
    30
 10
-11.999999999999989
 20
272.33130189342739
 30
0.0
 11
-23.999999999999989
 21
272.33130189342739
 31
0.0
  0
LINE
  8
SIZE
  6
CONTINUOUS
 62
    30
 10
34.000000000000007
 20
272.33130189342739
 30
0.0
 11
355.83349755912741
 21
272.33130189342739
 31
0.0
  0
LINE
  8
SIZE
  6
CONTINUOUS
 62
    30
 10
0.0000000000000093
 20
272.33130189342739
 30
0.0
 11
22.000000000000011
 21
272.33130189342739
 31
0.0
  0
CIRCLE
  8
SIZE
  6
CONTINUOUS
 62
    30
 10
0.0000000000000093
 20
272.33130189342739
 30
0.0
 40
6.0
  0
LINE
  8
SIZE
  6
CONTINUOUS
 62
    30
 10
0.0000000000000093
 20
272.33130189342739
 30
0.0
 11
-11.999999999999991
 21
272.33130189342739
 31
0.0
  0
CIRCLE
  8
SIZE
  6
CONTINUOUS
 62
    30
 10
22.000000000000011
 20
272.33130189342739
 30
0.0
 40
6.0
  0
LINE
  8
SIZE
  6
CONTINUOUS
 62
    30
 10
22.000000000000011
 20
272.33130189342739
 30
0.0
 11
34.000000000000014
 21
272.33130189342739
 31
0.0
  0
TEXT
  8
SIZE
  6
CONTINUOUS
 62
    30
 10
230.63692613055596
 20
297.33130189342739
 30
0.0
 40
64.0
  1
22
 50
0.0
 41
0.9
 51
0.0
  7
STANDARD
 71
     0
 72
     1
 11
284.20492613055598
 21
297.33130189342739
 31
0.0
210
0.0
220
0.0
230
1.0
  0
POINT
  8
DEFPOINTS
  6
CONTINUOUS
 62
    30
 10
0.0
 20
120.0
 30
0.0
  0
POINT
  8
DEFPOINTS
  6
CONTINUOUS
 62
    30
 10
22.0
 20
91.999999999999773
 30
0.0
  0
POINT
  8
DEFPOINTS
  6
CONTINUOUS
 62
    30
 10
22.000000000000011
 20
272.33130189342739
 30
0.0
  0
LINE
  8
NOTE
  6
CONTINUOUS
 62
     4
 10
131.36293704965249
 20
-251.93265773738739
 30
0.0
 11
247.35833885468301
 21
-251.93265773738739
 31
0.0
  0
TEXT
  8
NOTE
  6
CONTINUOUS
 62
     4
 10
151.68937085468309
 20
-224.5057067373875
 30
0.0
 40
64.0
  1
EL
 41
0.9
  0
TEXT
  8
ETC
  6
CONTINUOUS
 62
    61
 10
463.11163431278828
 20
592.08895384214384
 30
0.0
 40
64.0
  1
EX-15LFH8-M_4
 41
0.9
  0
TEXT
  8
ETC
  6
CONTINUOUS
 62
    61
 10
458.92564031278789
 20
474.13364382731271
 30
0.0
 40
64.0
  1
換気扇
 41
0.9
  0
TEXT
  8
ETC
  6
CONTINUOUS
 62
    61
 10
509.62703856134391
 20
365.98487094108742
 30
0.0
 40
40.0
  1
EX-15LFH8-M
 50
0.0
 41
0.9
 51
0.0
  7
STANDARD
 71
     0
 11
0.0
 21
0.0
 31
0.0
210
0.0
220
0.0
230
1.0
  0
ENDSEC
  0
EOF
