  0
SECTION
  2
HEADER
  9
$ACADVER
  1
AC1009
  9
$INSBASE
 10
0.0
 20
0.0
 30
0.0
  9
$EXTMIN
 10
-505.14160099999992
 20
-449.35042199999998
 30
0.0
  9
$EXTMAX
 10
823.67147456158102
 20
487.09396648329681
 30
0.0
  9
$LIMMIN
 10
-2970.0
 20
-2100.0
  9
$LIMMAX
 10
2970.0
 20
2100.0
  9
$ORTHOMODE
 70
     0
  9
$REGENMODE
 70
     0
  9
$FILLMODE
 70
     1
  9
$QTEXTMODE
 70
     0
  9
$MIRRTEXT
 70
     0
  9
$DRAGMODE
 70
     2
  9
$LTSCALE
 40
20.0
  9
$OSMODE
 70
   175
  9
$ATTMODE
 70
     1
  9
$TEXTSIZE
 40
64.0
  9
$TRACEWID
 40
0.05
  9
$TEXTSTYLE
  7
STANDARD
  9
$CLAYER
  8
SIZE
  9
$CELTYPE
  6
CONTINUOUS
  9
$CECOLOR
 62
     8
  9
$DIMSCALE
 40
1.0
  9
$DIMASZ
 40
12.0
  9
$DIMEXO
 40
20.0
  9
$DIMDLI
 40
200.0
  9
$DIMRND
 40
0.0
  9
$DIMDLE
 40
0.0
  9
$DIMEXE
 40
20.0
  9
$DIMTP
 40
0.0
  9
$DIMTM
 40
0.0
  9
$DIMTXT
 40
64.0
  9
$DIMCEN
 40
0.09
  9
$DIMTSZ
 40
0.0
  9
$DIMTOL
 70
     0
  9
$DIMLIM
 70
     0
  9
$DIMTIH
 70
     0
  9
$DIMTOH
 70
     0
  9
$DIMSE1
 70
     0
  9
$DIMSE2
 70
     0
  9
$DIMTAD
 70
     1
  9
$DIMZIN
 70
     8
  9
$DIMBLK
  1
DOT1
  9
$DIMASO
 70
     1
  9
$DIMSHO
 70
     0
  9
$DIMPOST
  1

  9
$DIMAPOST
  1

  9
$DIMALT
 70
     0
  9
$DIMALTD
 70
     2
  9
$DIMALTF
 40
25.399999999999999
  9
$DIMLFAC
 40
1.0
  9
$DIMTOFL
 70
     1
  9
$DIMTVP
 40
0.0
  9
$DIMTIX
 70
     1
  9
$DIMSOXD
 70
     0
  9
$DIMSAH
 70
     1
  9
$DIMBLK1
  1
ORIGIN
  9
$DIMBLK2
  1
ORIGIN
  9
$DIMSTYLE
  2
STANDARD
  9
$DIMCLRD
 70
     0
  9
$DIMCLRE
 70
     0
  9
$DIMCLRT
 70
     0
  9
$DIMTFAC
 40
1.0
  9
$DIMGAP
 40
0.09
  9
$LUNITS
 70
     2
  9
$LUPREC
 70
     4
  9
$SKETCHINC
 40
0.1
  9
$FILLETRAD
 40
30.0
  9
$AUNITS
 70
     1
  9
$AUPREC
 70
     3
  9
$MENU
  1
ACAD
  9
$ELEVATION
 40
0.0
  9
$PELEVATION
 40
0.0
  9
$THICKNESS
 40
50.0
  9
$LIMCHECK
 70
     0
  9
$BLIPMODE
 70
     0
  9
$CHAMFERA
 40
0.0
  9
$CHAMFERB
 40
0.0
  9
$SKPOLY
 70
     0
  9
$TDCREATE
 40
2452310.4493174758
  9
$TDUPDATE
 40
2453824.4090328352
  9
$TDINDWG
 40
0.0957849074
  9
$TDUSRTIMER
 40
0.0957849074
  9
$USRTIMER
 70
     1
  9
$ANGBASE
 50
0.0
  9
$ANGDIR
 70
     0
  9
$PDMODE
 70
     3
  9
$PDSIZE
 40
-2.0
  9
$PLINEWID
 40
0.0
  9
$COORDS
 70
     2
  9
$SPLFRAME
 70
     0
  9
$SPLINETYPE
 70
     6
  9
$SPLINESEGS
 70
     8
  9
$ATTDIA
 70
     0
  9
$ATTREQ
 70
     1
  9
$HANDLING
 70
 22529
  9
$HANDSEED
  5
2AB
  9
$SURFTAB1
 70
     6
  9
$SURFTAB2
 70
     6
  9
$SURFTYPE
 70
     6
  9
$SURFU
 70
     6
  9
$SURFV
 70
     6
  9
$UCSNAME
  2

  9
$UCSORG
 10
0.0
 20
0.0
 30
0.0
  9
$UCSXDIR
 10
1.0
 20
0.0
 30
0.0
  9
$UCSYDIR
 10
0.0
 20
1.0
 30
0.0
  9
$PUCSNAME
  2

  9
$PUCSORG
 10
0.0
 20
0.0
 30
0.0
  9
$PUCSXDIR
 10
1.0
 20
0.0
 30
0.0
  9
$PUCSYDIR
 10
0.0
 20
1.0
 30
0.0
  9
$USERI1
 70
     0
  9
$USERI2
 70
     0
  9
$USERI3
 70
     0
  9
$USERI4
 70
     0
  9
$USERI5
 70
     0
  9
$USERR1
 40
20.0
  9
$USERR2
 40
0.0
  9
$USERR3
 40
0.0
  9
$USERR4
 40
0.0
  9
$USERR5
 40
0.0
  9
$WORLDVIEW
 70
     1
  9
$SHADEDGE
 70
     3
  9
$SHADEDIF
 70
    70
  9
$TILEMODE
 70
     1
  9
$MAXACTVP
 70
    64
  9
$PLIMCHECK
 70
     0
  9
$PEXTMIN
 10
1.0000000000000000E+020
 20
1.0000000000000000E+020
 30
1.0000000000000000E+020
  9
$PEXTMAX
 10
-1.0000000000000000E+020
 20
-1.0000000000000000E+020
 30
-1.0000000000000000E+020
  9
$PLIMMIN
 10
0.0
 20
0.0
  9
$PLIMMAX
 10
12.0
 20
9.0
  9
$UNITMODE
 70
     0
  9
$VISRETAIN
 70
     1
  9
$PLINEGEN
 70
     0
  9
$PSLTSCALE
 70
     1
  0
ENDSEC
  0
SECTION
  2
TABLES
  0
TABLE
  2
VPORT
 70
     5
  0
VPORT
  2
*ACTIVE
 70
     0
 10
0.0
 20
0.0
 11
1.0
 21
1.0
 12
40.27500265625747
 22
31.490759051227201
 13
0.0
 23
0.0
 14
1.0
 24
1.0
 15
0.0
 25
0.0
 16
0.0
 26
0.0
 36
1.0
 17
0.0
 27
0.0
 37
0.0
 40
1378.3907855430391
 41
1.447268106734434
 42
50.0
 43
0.0
 44
0.0
 50
0.0
 51
0.0
 71
     0
 72
   100
 73
     1
 74
     0
 75
     0
 76
     0
 77
     0
 78
     1
  0
ENDTAB
  0
TABLE
  2
LTYPE
 70
     2
  0
LTYPE
  2
CONTINUOUS
 70
     0
  3
実線
 72
    65
 73
     0
 40
0.0
  0
LTYPE
  2
DASHDOT
 70
     0
  3
____ _ ____ _ ____ _ ____ _ ____ _ ____ _ ____
 72
    65
 73
     4
 40
5.5
 49
4.0
 49
-0.6
 49
0.3
 49
-0.6
  0
ENDTAB
  0
TABLE
  2
LAYER
 70
    12
  0
LAYER
  2
0
 70
     0
 62
     7
  6
CONTINUOUS
  0
LAYER
  2
SIZE
 70
     0
 62
    30
  6
CONTINUOUS
  0
LAYER
  2
BASIS
 70
     0
 62
     6
  6
DASHDOT
  0
LAYER
  2
OUTLINE
 70
     0
 62
     3
  6
CONTINUOUS
  0
LAYER
  2
DETAIL
 70
     0
 62
     5
  6
CONTINUOUS
  0
LAYER
  2
ARRANGE
 70
     0
 62
     1
  6
CONTINUOUS
  0
LAYER
  2
DEFPOINTS
 70
     0
 62
     7
  6
CONTINUOUS
  0
LAYER
  2
ETC
 70
     0
 62
    61
  6
CONTINUOUS
  0
LAYER
  2
FIX
 70
     0
 62
    11
  6
CONTINUOUS
  0
LAYER
  2
NOTE
 70
     0
 62
     4
  6
CONTINUOUS
  0
LAYER
  2
SERVICESPACE
 70
     0
 62
     2
  6
DASHDOT
  0
LAYER
  2
SYMBOLLINE
 70
     0
 62
    15
  6
CONTINUOUS
  0
ENDTAB
  0
TABLE
  2
STYLE
 70
     1
  0
STYLE
  2
STANDARD
 70
     0
 40
64.0
 41
0.9
 50
0.0
 71
     0
 42
64.0
  3
SIMPLEX.shx
  4
BIGFONT.shx
  0
ENDTAB
  0
TABLE
  2
VIEW
 70
     1
  0
VIEW
  2
ALL
 70
     0
 40
4282.6198079999976
 10
0.0
 20
41.309903999999989
 41
5940.0
 11
0.0
 21
0.0
 31
1.0
 12
0.0
 22
0.0
 32
0.0
 42
50.0
 43
0.0
 44
0.0
 50
0.0
 71
     0
  0
ENDTAB
  0
TABLE
  2
UCS
 70
     0
  0
ENDTAB
  0
TABLE
  2
APPID
 70
     1
  0
APPID
  2
ACAD
 70
     0
  0
ENDTAB
  0
TABLE
  2
DIMSTYLE
 70
     1
  0
DIMSTYLE
  2
STANDARD
 70
     0
  3

  4

  5

  6

  7

 40
1.0
 41
0.18
 42
0.0625
 43
0.38
 44
0.18
 45
0.0
 46
0.0
 47
0.0
 48
0.0
140
0.18
141
0.09
142
0.0
143
25.399999999999999
144
1.0
145
0.0
146
1.0
147
0.09
 71
     0
 72
     0
 73
     1
 74
     1
 75
     0
 76
     0
 77
     0
 78
     0
170
     0
171
     2
172
     0
173
     0
174
     0
175
     0
176
     0
177
     0
178
     0
  0
ENDTAB
  0
ENDSEC
  0
SECTION
  2
BLOCKS
  0
BLOCK
  8
0
  2
$MODEL_SPACE
 70
     0
 10
0.0
 20
0.0
 30
0.0
  3
$MODEL_SPACE
  1

  0
ENDBLK
  5
157
  8
0
  0
BLOCK
 67
     1
  8
0
  2
$PAPER_SPACE
 70
     0
 10
0.0
 20
0.0
 30
0.0
  3
$PAPER_SPACE
  1

  0
ENDBLK
  5
153
 67
     1
  8
0
  0
BLOCK
  8
0
  2
DOT1
 70
     0
 10
0.0
 20
0.0
 30
0.0
  3
DOT1
  1

  0
CIRCLE
  5
172
  8
SIZE
  6
CONTINUOUS
 62
     7
 10
0.0
 20
0.0
 30
0.0
 40
3.0
  0
ENDBLK
  5
173
  8
0
  0
BLOCK
  8
0
  2
_ORIGIN
 70
     0
 10
0.0
 20
0.0
 30
0.0
  3
_ORIGIN
  1

  0
CIRCLE
  5
176
  8
0
  6
CONTINUOUS
 62
     7
 10
0.0
 20
0.0
 30
0.0
 40
0.5
  0
LINE
  5
177
  8
0
  6
CONTINUOUS
 62
     7
 10
0.0
 20
0.0
 30
0.0
 11
-1.0
 21
0.0
 31
0.0
  0
ENDBLK
  5
178
  8
0
  0
ENDSEC
  0
SECTION
  2
ENTITIES
  0
LINE
  5
179
  8
DETAIL
  6
CONTINUOUS
 62
     5
 10
0.0
 20
-160.0
 30
0.0
 11
0.0
 21
160.0
 31
0.0
  0
LINE
  5
17A
  8
BASIS
  6
DASHDOT
 62
     6
 10
-44.261400999999999
 20
0.0
 30
0.0
 11
223.333866
 21
0.0
 31
0.0
  0
LINE
  5
17B
  8
DETAIL
  6
CONTINUOUS
 62
     5
 10
10.0
 20
-160.0
 30
0.0
 11
10.0
 21
-140.5
 31
0.0
  0
LINE
  5
17C
  8
DETAIL
  6
CONTINUOUS
 62
     5
 10
160.0
 20
-72.0
 30
0.0
 11
160.0
 21
-40.0
 31
0.0
  0
TEXT
  5
17D
  8
NOTE
  6
CONTINUOUS
 62
     4
 10
-486.97493800000001
 20
261.31088699999998
 30
0.0
 40
64.0
  1
4-φ10
 41
0.9
  0
LINE
  5
17E
  8
NOTE
  6
CONTINUOUS
 62
     4
 10
-195.00377
 20
238.907543
 30
0.0
 11
-505.14160099999992
 21
238.907543
 31
0.0
  0
LINE
  5
17F
  8
NOTE
  6
CONTINUOUS
 62
     4
 10
10.0
 20
140.0
 30
0.0
 11
-195.00377
 21
238.907543
 31
0.0
  0
LINE
  5
180
  8
NOTE
  6
CONTINUOUS
 62
     4
 10
-29.290946000000002
 20
147.4981019999999
 30
0.0
 11
10.0
 21
140.0
 31
0.0
  0
LINE
  5
181
  8
NOTE
  6
CONTINUOUS
 62
     4
 10
10.0
 20
140.0
 30
0.0
 11
-20.277906000000002
 21
166.1390209999999
 31
0.0
  0
LINE
  5
182
  8
DETAIL
  6
CONTINUOUS
 62
     5
 10
10.0
 20
-160.0
 30
0.0
 11
0.0
 21
-160.0
 31
0.0
  0
LINE
  5
183
  8
DETAIL
  6
CONTINUOUS
 62
     5
 10
10.0
 20
160.0
 30
0.0
 11
0.0
 21
160.0
 31
0.0
  0
LINE
  5
184
  8
DETAIL
  6
CONTINUOUS
 62
     5
 10
20.0
 20
-140.0
 30
0.0
 11
10.0
 21
-140.0
 31
0.0
  0
LINE
  5
185
  8
DETAIL
  6
CONTINUOUS
 62
     5
 10
20.0
 20
140.0
 30
0.0
 11
10.0
 21
140.0
 31
0.0
  0
LINE
  5
186
  8
SIZE
  6
CONTINUOUS
 62
    30
 10
0.0
 20
180.0
 30
0.0
 11
0.0
 21
298.564278
 31
0.0
  0
LINE
  5
187
  8
SIZE
  6
CONTINUOUS
 62
    30
 10
10.0
 20
180.0
 30
0.0
 11
10.0
 21
298.564278
 31
0.0
  0
LINE
  5
188
  8
SIZE
  6
CONTINUOUS
 62
    30
 10
-12.0
 20
278.56427799999977
 30
0.0
 11
-24.0
 21
278.56427799999977
 31
0.0
  0
LINE
  5
189
  8
SIZE
  6
CONTINUOUS
 62
    30
 10
22.0
 20
278.56427799999977
 30
0.0
 11
34.0
 21
278.56427799999977
 31
0.0
  0
LINE
  5
18A
  8
SIZE
  6
CONTINUOUS
 62
    30
 10
-157.02845899999991
 20
278.56427799999977
 30
0.0
 11
0.0
 21
278.56427799999977
 31
0.0
  0
TEXT
  5
18B
  8
SIZE
  6
CONTINUOUS
 62
    30
 10
-132.02845914285709
 20
303.56427799999977
 30
0.0
 40
64.0
  1
10
 41
0.9
 72
     1
 11
-90.885602000000006
 21
303.56427799999977
 31
0.0
  0
LINE
  5
18C
  8
SIZE
  6
CONTINUOUS
 62
    30
 10
0.0
 20
278.56427799999977
 30
0.0
 11
10.0
 21
278.56427799999977
 31
0.0
  0
LINE
  5
18D
  8
SIZE
  6
CONTINUOUS
 62
    30
 10
0.0
 20
278.56427799999977
 30
0.0
 11
10.0
 21
278.56427799999977
 31
0.0
  0
CIRCLE
  5
18E
  8
SIZE
  6
CONTINUOUS
 62
    30
 10
0.0
 20
278.56427799999977
 30
0.0
 40
6.0
  0
LINE
  5
18F
  8
SIZE
  6
CONTINUOUS
 62
    30
 10
0.0
 20
278.56427799999977
 30
0.0
 11
-12.0
 21
278.56427799999977
 31
0.0
  0
CIRCLE
  5
190
  8
SIZE
  6
CONTINUOUS
 62
    30
 10
10.0
 20
278.56427799999977
 30
0.0
 40
6.0
  0
LINE
  5
191
  8
SIZE
  6
CONTINUOUS
 62
    30
 10
10.0
 20
278.56427799999977
 30
0.0
 11
22.0
 21
278.56427799999977
 31
0.0
  0
LINE
  5
195
  8
SIZE
  6
CONTINUOUS
 62
    30
 10
10.0
 20
180.0
 30
0.0
 11
10.0
 21
298.564278
 31
0.0
  0
LINE
  5
196
  8
SIZE
  6
CONTINUOUS
 62
    30
 10
20.0
 20
160.0
 30
0.0
 11
20.0
 21
298.564278
 31
0.0
  0
LINE
  5
197
  8
SIZE
  6
CONTINUOUS
 62
    30
 10
-2.0
 20
278.56427799999977
 30
0.0
 11
-14.0
 21
278.56427799999977
 31
0.0
  0
LINE
  5
198
  8
SIZE
  6
CONTINUOUS
 62
    30
 10
32.0
 20
278.56427799999977
 30
0.0
 11
44.0
 21
278.56427799999977
 31
0.0
  0
LINE
  5
199
  8
SIZE
  6
CONTINUOUS
 62
    30
 10
182.74230800000001
 20
278.56427799999977
 30
0.0
 11
20.0
 21
278.56427799999977
 31
0.0
  0
TEXT
  5
19A
  8
SIZE
  6
CONTINUOUS
 62
    30
 10
75.456593857142764
 20
303.56427799999977
 30
0.0
 40
64.0
  1
10
 41
0.9
 72
     1
 11
116.5994509999999
 21
303.56427799999977
 31
0.0
  0
LINE
  5
19B
  8
SIZE
  6
CONTINUOUS
 62
    30
 10
10.0
 20
278.56427799999977
 30
0.0
 11
20.0
 21
278.56427799999977
 31
0.0
  0
LINE
  5
19C
  8
SIZE
  6
CONTINUOUS
 62
    30
 10
10.0
 20
278.56427799999977
 30
0.0
 11
20.0
 21
278.56427799999977
 31
0.0
  0
CIRCLE
  5
19D
  8
SIZE
  6
CONTINUOUS
 62
    30
 10
10.0
 20
278.56427799999977
 30
0.0
 40
6.0
  0
LINE
  5
19E
  8
SIZE
  6
CONTINUOUS
 62
    30
 10
10.0
 20
278.56427799999977
 30
0.0
 11
-2.0
 21
278.56427799999977
 31
0.0
  0
CIRCLE
  5
19F
  8
SIZE
  6
CONTINUOUS
 62
    30
 10
20.0
 20
278.56427799999977
 30
0.0
 40
6.0
  0
LINE
  5
1A0
  8
SIZE
  6
CONTINUOUS
 62
    30
 10
20.0
 20
278.56427799999977
 30
0.0
 11
32.0
 21
278.56427799999977
 31
0.0
  0
LINE
  5
1A4
  8
SIZE
  6
CONTINUOUS
 62
    30
 10
-2.0
 20
-340.9864839999999
 30
0.0
 11
-110.43513299999989
 21
-340.9864839999999
 31
0.0
  0
LINE
  5
1A5
  8
DETAIL
  6
CONTINUOUS
 62
     5
 10
10.0
 20
-140.5
 30
0.0
 11
10.0
 21
140.5
 31
0.0
  0
LINE
  5
1A6
  8
DETAIL
  6
CONTINUOUS
 62
     5
 10
10.0
 20
140.5
 30
0.0
 11
10.0
 21
160.0
 31
0.0
  0
LINE
  5
1A7
  8
DETAIL
  6
CONTINUOUS
 62
     5
 10
20.0
 20
-140.0
 30
0.0
 11
20.0
 21
140.0
 31
0.0
  0
LINE
  5
1A8
  8
DETAIL
  6
CONTINUOUS
 62
     5
 10
160.0
 20
40.0
 30
0.0
 11
160.0
 21
72.0
 31
0.0
  0
LINE
  5
1A9
  8
DETAIL
  6
CONTINUOUS
 62
     5
 10
160.0
 20
-40.0
 30
0.0
 11
135.0
 21
-40.0
 31
0.0
  0
LINE
  5
1AA
  8
DETAIL
  6
CONTINUOUS
 62
     5
 10
160.0
 20
40.0
 30
0.0
 11
135.0
 21
40.0
 31
0.0
  0
LINE
  5
1AB
  8
DETAIL
  6
CONTINUOUS
 62
     5
 10
135.0
 20
40.0
 30
0.0
 11
135.0
 21
57.0
 31
0.0
  0
LINE
  5
1AC
  8
DETAIL
  6
CONTINUOUS
 62
     5
 10
135.0
 20
-77.0
 30
0.0
 11
135.0
 21
-40.0
 31
0.0
  0
LINE
  5
1AD
  8
DETAIL
  6
CONTINUOUS
 62
     5
 10
50.0
 20
-107.0
 30
0.0
 11
50.0
 21
107.0
 31
0.0
  0
LINE
  5
1AE
  8
SIZE
  6
CONTINUOUS
 62
    30
 10
-20.0
 20
-160.0
 30
0.0
 11
-273.41774399999991
 21
-160.0
 31
0.0
  0
LINE
  5
1AF
  8
SIZE
  6
CONTINUOUS
 62
    30
 10
-20.0
 20
160.0
 30
0.0
 11
-273.41774399999991
 21
160.0
 31
0.0
  0
LINE
  5
1B0
  8
SIZE
  6
CONTINUOUS
 62
    30
 10
-253.417744
 20
-148.0
 30
0.0
 11
-253.417744
 21
148.0
 31
0.0
  0
CIRCLE
  5
1B1
  8
SIZE
  6
CONTINUOUS
 62
    30
 10
-253.417744
 20
-160.0
 30
0.0
 40
6.0
  0
LINE
  5
1B2
  8
SIZE
  6
CONTINUOUS
 62
    30
 10
-253.417744
 20
-160.0
 30
0.0
 11
-253.417744
 21
-148.0
 31
0.0
  0
CIRCLE
  5
1B3
  8
SIZE
  6
CONTINUOUS
 62
    30
 10
-253.417744
 20
160.0
 30
0.0
 40
6.0
  0
LINE
  5
1B4
  8
SIZE
  6
CONTINUOUS
 62
    30
 10
-253.417744
 20
160.0
 30
0.0
 11
-253.417744
 21
148.0
 31
0.0
  0
TEXT
  5
1B5
  8
SIZE
  6
CONTINUOUS
 62
    30
 10
-278.41774399999991
 20
-74.05714285714285
 30
0.0
 40
64.0
  1
320
 50
90.0
 41
0.9
 72
     1
 11
-278.41774399999991
 21
0.0
 31
0.0
  0
LINE
  5
1B9
  8
SIZE
  6
CONTINUOUS
 62
    30
 10
0.0
 20
-180.0
 30
0.0
 11
0.0
 21
-449.35042199999998
 31
0.0
  0
LINE
  5
1BA
  8
SIZE
  6
CONTINUOUS
 62
    30
 10
167.0
 20
-90.650965000000014
 30
0.0
 11
167.0
 21
-449.35042199999998
 31
0.0
  0
LINE
  5
1BB
  8
SIZE
  6
CONTINUOUS
 62
    30
 10
12.0
 20
-429.35042199999992
 30
0.0
 11
155.0
 21
-429.35042199999992
 31
0.0
  0
LINE
  5
1BC
  8
SIZE
  6
CONTINUOUS
 62
    30
 10
367.64194500000002
 20
-429.35042199999992
 30
0.0
 11
167.0
 21
-429.35042199999992
 31
0.0
  0
TEXT
  5
1BD
  8
SIZE
  6
CONTINUOUS
 62
    30
 10
205.49908742857141
 20
-404.35042199999992
 30
0.0
 40
64.0
  1
167
 41
0.9
 72
     1
 11
274.070516
 21
-404.35042199999992
 31
0.0
  0
CIRCLE
  5
1BE
  8
SIZE
  6
CONTINUOUS
 62
    30
 10
0.0
 20
-429.35042199999992
 30
0.0
 40
6.0
  0
LINE
  5
1BF
  8
SIZE
  6
CONTINUOUS
 62
    30
 10
0.0
 20
-429.35042199999992
 30
0.0
 11
12.0
 21
-429.35042199999992
 31
0.0
  0
CIRCLE
  5
1C0
  8
SIZE
  6
CONTINUOUS
 62
    30
 10
167.0
 20
-429.35042199999992
 30
0.0
 40
6.0
  0
LINE
  5
1C1
  8
SIZE
  6
CONTINUOUS
 62
    30
 10
167.0
 20
-429.35042199999992
 30
0.0
 11
155.0
 21
-429.35042199999992
 31
0.0
  0
LINE
  5
1C5
  8
DETAIL
  6
CONTINUOUS
 62
     5
 10
135.0
 20
77.0
 30
0.0
 11
135.0
 21
-40.0
 31
0.0
  0
LINE
  5
1C6
  8
DETAIL
  6
CONTINUOUS
 62
     5
 10
20.0
 20
127.0
 30
0.0
 11
102.0
 21
127.0
 31
0.0
  0
LINE
  5
1C7
  8
DETAIL
  6
CONTINUOUS
 62
     5
 10
20.0
 20
107.0
 30
0.0
 11
105.0
 21
107.0
 31
0.0
  0
ARC
  5
1C8
  8
DETAIL
  6
CONTINUOUS
 62
     5
 10
102.4294949999999
 20
69.371104000000003
 30
0.0
 40
57.630495999999987
 50
2.6145350000000001
 51
90.427004999999994
  0
LINE
  5
1C9
  8
DETAIL
  6
CONTINUOUS
 62
     5
 10
47.0
 20
-107.0
 30
0.0
 11
47.0
 21
107.0
 31
0.0
  0
LINE
  5
1CA
  8
DETAIL
  6
CONTINUOUS
 62
     5
 10
20.0
 20
-107.0
 30
0.0
 11
105.0
 21
-107.0
 31
0.0
  0
LINE
  5
1CB
  8
DETAIL
  6
CONTINUOUS
 62
     5
 10
105.0
 20
-127.0
 30
0.0
 11
20.0
 21
-127.0
 31
0.0
  0
ARC
  5
1CC
  8
DETAIL
  6
CONTINUOUS
 62
     5
 10
105.0
 20
-72.0
 30
0.0
 40
55.0
 50
270.0
 51
0.0
  0
LINE
  5
1CD
  8
SIZE
  6
CONTINUOUS
 62
    30
 10
0.0
 20
-180.0
 30
0.0
 11
0.0
 21
-360.98648399999979
 31
0.0
  0
LINE
  5
1CE
  8
SIZE
  6
CONTINUOUS
 62
    30
 10
50.0
 20
-127.0
 30
0.0
 11
50.0
 21
-360.98648399999979
 31
0.0
  0
LINE
  5
1CF
  8
SIZE
  6
CONTINUOUS
 62
    30
 10
-12.0
 20
-340.9864839999999
 30
0.0
 11
-24.0
 21
-340.9864839999999
 31
0.0
  0
LINE
  5
1D1
  8
SIZE
  6
CONTINUOUS
 62
    30
 10
-167.53635700000001
 20
-340.9864839999999
 30
0.0
 11
0.0
 21
-340.9864839999999
 31
0.0
  0
TEXT
  5
1D2
  8
SIZE
  6
CONTINUOUS
 62
    30
 10
-142.53635742857139
 20
-315.9864839999999
 30
0.0
 40
64.0
  1
50
 41
0.9
 72
     1
 11
-95.907786000000002
 21
-315.9864839999999
 31
0.0
  0
LINE
  5
1D3
  8
SIZE
  6
CONTINUOUS
 62
    30
 10
0.0
 20
-340.9864839999999
 30
0.0
 11
50.0
 21
-340.9864839999999
 31
0.0
  0
LINE
  5
1D4
  8
SIZE
  6
CONTINUOUS
 62
    30
 10
0.0
 20
-340.9864839999999
 30
0.0
 11
50.0
 21
-340.9864839999999
 31
0.0
  0
CIRCLE
  5
1D5
  8
SIZE
  6
CONTINUOUS
 62
    30
 10
0.0
 20
-340.9864839999999
 30
0.0
 40
6.0
  0
LINE
  5
1D6
  8
SIZE
  6
CONTINUOUS
 62
    30
 10
0.0
 20
-340.9864839999999
 30
0.0
 11
-12.0
 21
-340.9864839999999
 31
0.0
  0
CIRCLE
  5
1D7
  8
SIZE
  6
CONTINUOUS
 62
    30
 10
50.0
 20
-340.9864839999999
 30
0.0
 40
6.0
  0
LINE
  5
1DC
  8
SIZE
  6
CONTINUOUS
 62
    30
 10
-30.0
 20
-140.0
 30
0.0
 11
-156.7495159999998
 21
-140.0
 31
0.0
  0
LINE
  5
1DD
  8
SIZE
  6
CONTINUOUS
 62
    30
 10
-30.0
 20
140.0
 30
0.0
 11
-156.7495159999998
 21
140.0
 31
0.0
  0
LINE
  5
1DE
  8
SIZE
  6
CONTINUOUS
 62
    30
 10
-136.749516
 20
-128.0
 30
0.0
 11
-136.749516
 21
128.0
 31
0.0
  0
CIRCLE
  5
1DF
  8
SIZE
  6
CONTINUOUS
 62
    30
 10
-136.749516
 20
-140.0
 30
0.0
 40
6.0
  0
LINE
  5
1E0
  8
SIZE
  6
CONTINUOUS
 62
    30
 10
-136.749516
 20
-140.0
 30
0.0
 11
-136.749516
 21
-128.0
 31
0.0
  0
CIRCLE
  5
1E1
  8
SIZE
  6
CONTINUOUS
 62
    30
 10
-136.749516
 20
140.0
 30
0.0
 40
6.0
  0
LINE
  5
1E2
  8
SIZE
  6
CONTINUOUS
 62
    30
 10
-136.749516
 20
140.0
 30
0.0
 11
-136.749516
 21
128.0
 31
0.0
  0
TEXT
  5
1E3
  8
SIZE
  6
CONTINUOUS
 62
    30
 10
-161.7495159999998
 20
-74.057142857142836
 30
0.0
 40
64.0
  1
280
 50
90.0
 41
0.9
 72
     1
 11
-161.7495159999998
 21
0.0
 31
0.0
  0
CIRCLE
  5
1E7
  8
FIX
  6
CONTINUOUS
 62
    11
 10
10.0
 20
140.0
 30
0.0
 40
5.0
  0
CIRCLE
  5
1E8
  8
FIX
  6
CONTINUOUS
 62
    11
 10
10.0
 20
-140.0
 30
0.0
 40
5.0
  0
LINE
  5
1E9
  8
NOTE
  6
CONTINUOUS
 62
     4
 10
30.0
 20
140.0
 30
0.0
 11
-10.0
 21
140.0
 31
0.0
  0
LINE
  5
1EA
  8
NOTE
  6
CONTINUOUS
 62
     4
 10
10.0
 20
160.0
 30
0.0
 11
10.0
 21
120.0
 31
0.0
  0
LINE
  5
1EB
  8
NOTE
  6
CONTINUOUS
 62
     4
 10
30.0
 20
-140.0
 30
0.0
 11
-10.0
 21
-140.0
 31
0.0
  0
LINE
  5
1EC
  8
NOTE
  6
CONTINUOUS
 62
     4
 10
10.0
 20
-120.0
 30
0.0
 11
10.0
 21
-160.0
 31
0.0
  0
POINT
  5
1ED
  8
ARRANGE
  6
CONTINUOUS
 62
     1
 10
0.0
 20
0.0
 30
0.0
  0
CIRCLE
  5
1EE
  8
ARRANGE
  6
CONTINUOUS
 62
     1
 10
0.0
 20
0.0
 30
0.0
 40
40.0
  0
LINE
  5
1EF
  8
DETAIL
  6
CONTINUOUS
 62
     5
 10
167.0
 20
-70.650964999999999
 30
0.0
 11
167.0
 21
46.349035000000001
 31
0.0
  0
LINE
  5
1F0
  8
DETAIL
  6
CONTINUOUS
 62
     5
 10
157.26675299999991
 20
40.0
 30
0.0
 11
157.26675299999991
 21
-40.0
 31
0.0
  0
LINE
  5
1F1
  8
DETAIL
  6
CONTINUOUS
 62
     5
 10
160.0
 20
-70.650964999999999
 30
0.0
 11
167.0
 21
-70.650964999999999
 31
0.0
  0
LINE
  5
1F2
  8
DETAIL
  6
CONTINUOUS
 62
     5
 10
160.0
 20
46.349035000000001
 30
0.0
 11
167.0
 21
46.349035000000001
 31
0.0
  0
ARC
  5
1F3
  8
DETAIL
  6
CONTINUOUS
 62
     5
 10
105.0
 20
77.0
 30
0.0
 40
30.0
 50
0.0
 51
90.0
  0
ARC
  5
1F4
  8
DETAIL
  6
CONTINUOUS
 62
     5
 10
105.0
 20
-77.0
 30
0.0
 40
30.0
 50
270.0
 51
0.0
  0
LINE
  5
1F5
  8
OUTLINE
  6
CONTINUOUS
 62
     3
 10
50.0
 20
-107.0
 30
0.0
 11
50.0
 21
107.0
 31
0.0
  0
LINE
  5
1F6
  8
OUTLINE
  6
CONTINUOUS
 62
     3
 10
47.0
 20
-107.0
 30
0.0
 11
47.0
 21
107.0
 31
0.0
  0
LINE
  5
1F7
  8
OUTLINE
  6
CONTINUOUS
 62
     3
 10
167.0
 20
-70.650964999999999
 30
0.0
 11
167.0
 21
46.349035000000001
 31
0.0
  0
LINE
  5
1F8
  8
OUTLINE
  6
CONTINUOUS
 62
     3
 10
157.26675299999991
 20
40.0
 30
0.0
 11
157.26675299999991
 21
-40.0
 31
0.0
  0
LINE
  5
1F9
  8
OUTLINE
  6
CONTINUOUS
 62
     3
 10
135.0
 20
77.0
 30
0.0
 11
135.0
 21
-40.0
 31
0.0
  0
LINE
  5
1FA
  8
OUTLINE
  6
CONTINUOUS
 62
     3
 10
20.0
 20
-140.0
 30
0.0
 11
20.0
 21
140.0
 31
0.0
  0
LINE
  5
1FB
  8
OUTLINE
  6
CONTINUOUS
 62
     3
 10
10.0
 20
-140.5
 30
0.0
 11
10.0
 21
140.5
 31
0.0
  0
LINE
  5
1FC
  8
OUTLINE
  6
CONTINUOUS
 62
     3
 10
0.0
 20
-160.0
 30
0.0
 11
0.0
 21
160.0
 31
0.0
  0
ARC
  5
1FD
  8
OUTLINE
  6
CONTINUOUS
 62
     3
 10
105.0
 20
-72.0
 30
0.0
 40
55.0
 50
270.0
 51
0.0
  0
ARC
  5
1FE
  8
OUTLINE
  6
CONTINUOUS
 62
     3
 10
105.0
 20
-77.0
 30
0.0
 40
30.0
 50
270.0
 51
0.0
  0
LINE
  5
1FF
  8
OUTLINE
  6
CONTINUOUS
 62
     3
 10
160.0
 20
-70.650964999999999
 30
0.0
 11
167.0
 21
-70.650964999999999
 31
0.0
  0
LINE
  5
200
  8
OUTLINE
  6
CONTINUOUS
 62
     3
 10
160.0
 20
-72.0
 30
0.0
 11
160.0
 21
-40.0
 31
0.0
  0
LINE
  5
201
  8
OUTLINE
  6
CONTINUOUS
 62
     3
 10
160.0
 20
-40.0
 30
0.0
 11
135.0
 21
-40.0
 31
0.0
  0
LINE
  5
202
  8
OUTLINE
  6
CONTINUOUS
 62
     3
 10
135.0
 20
-77.0
 30
0.0
 11
135.0
 21
-40.0
 31
0.0
  0
LINE
  5
203
  8
OUTLINE
  6
CONTINUOUS
 62
     3
 10
20.0
 20
-107.0
 30
0.0
 11
105.0
 21
-107.0
 31
0.0
  0
LINE
  5
204
  8
OUTLINE
  6
CONTINUOUS
 62
     3
 10
105.0
 20
-127.0
 30
0.0
 11
20.0
 21
-127.0
 31
0.0
  0
LINE
  5
205
  8
OUTLINE
  6
CONTINUOUS
 62
     3
 10
20.0
 20
-140.0
 30
0.0
 11
10.0
 21
-140.0
 31
0.0
  0
LINE
  5
206
  8
OUTLINE
  6
CONTINUOUS
 62
     3
 10
10.0
 20
-160.0
 30
0.0
 11
10.0
 21
-140.5
 31
0.0
  0
LINE
  5
207
  8
OUTLINE
  6
CONTINUOUS
 62
     3
 10
10.0
 20
-160.0
 30
0.0
 11
0.0
 21
-160.0
 31
0.0
  0
ARC
  5
208
  8
OUTLINE
  6
CONTINUOUS
 62
     3
 10
102.4294949999999
 20
69.371104000000003
 30
0.0
 40
57.630495999999987
 50
2.6145350000000001
 51
90.427004999999994
  0
ARC
  5
209
  8
OUTLINE
  6
CONTINUOUS
 62
     3
 10
105.0
 20
77.0
 30
0.0
 40
30.0
 50
0.0
 51
90.0
  0
LINE
  5
20A
  8
OUTLINE
  6
CONTINUOUS
 62
     3
 10
160.0
 20
46.349035000000001
 30
0.0
 11
167.0
 21
46.349035000000001
 31
0.0
  0
LINE
  5
20B
  8
OUTLINE
  6
CONTINUOUS
 62
     3
 10
135.0
 20
40.0
 30
0.0
 11
135.0
 21
57.0
 31
0.0
  0
LINE
  5
20C
  8
OUTLINE
  6
CONTINUOUS
 62
     3
 10
160.0
 20
40.0
 30
0.0
 11
160.0
 21
72.0
 31
0.0
  0
LINE
  5
20D
  8
OUTLINE
  6
CONTINUOUS
 62
     3
 10
160.0
 20
40.0
 30
0.0
 11
135.0
 21
40.0
 31
0.0
  0
LINE
  5
20E
  8
OUTLINE
  6
CONTINUOUS
 62
     3
 10
20.0
 20
107.0
 30
0.0
 11
105.0
 21
107.0
 31
0.0
  0
LINE
  5
20F
  8
OUTLINE
  6
CONTINUOUS
 62
     3
 10
20.0
 20
127.0
 30
0.0
 11
102.0
 21
127.0
 31
0.0
  0
LINE
  5
210
  8
OUTLINE
  6
CONTINUOUS
 62
     3
 10
20.0
 20
140.0
 30
0.0
 11
10.0
 21
140.0
 31
0.0
  0
LINE
  5
211
  8
OUTLINE
  6
CONTINUOUS
 62
     3
 10
10.0
 20
160.0
 30
0.0
 11
0.0
 21
160.0
 31
0.0
  0
LINE
  5
212
  8
OUTLINE
  6
CONTINUOUS
 62
     3
 10
10.0
 20
140.5
 30
0.0
 11
10.0
 21
160.0
 31
0.0
  0
ARC
  5
213
  8
DETAIL
  6
CONTINUOUS
 62
     5
 10
24.741591
 20
54.194310999999999
 30
0.0
 40
61.613131999999993
 50
12.650354
 51
58.831699999999991
  0
ARC
  5
214
  8
DETAIL
  6
CONTINUOUS
 62
     5
 10
95.317356000000004
 20
3.9305119999999989
 30
0.0
 40
64.609456000000009
 50
99.314173999999994
 51
134.5397869999999
  0
ARC
  5
215
  8
DETAIL
  6
CONTINUOUS
 62
     5
 10
23.352359
 20
56.243664000000003
 30
0.0
 40
71.363368000000023
 50
291.23502999999988
 51
300.88551699999988
  0
LINE
  5
216
  8
DETAIL
  6
CONTINUOUS
 62
     5
 10
70.0
 20
10.0
 30
0.0
 11
70.0
 21
-10.0
 31
0.0
  0
LINE
  5
217
  8
DETAIL
  6
CONTINUOUS
 62
     5
 10
85.0
 20
28.0
 30
0.0
 11
85.0
 21
-28.0
 31
0.0
  0
LINE
  5
218
  8
DETAIL
  6
CONTINUOUS
 62
     5
 10
108.04493100000001
 20
35.0
 30
0.0
 11
108.04493100000001
 21
-35.0
 31
0.0
  0
LINE
  5
219
  8
DETAIL
  6
CONTINUOUS
 62
     5
 10
108.04493100000001
 20
-33.0
 30
0.0
 11
90.0
 21
-33.0
 31
0.0
  0
LINE
  5
21A
  8
DETAIL
  6
CONTINUOUS
 62
     5
 10
50.0
 20
-5.0
 30
0.0
 11
70.0
 21
-5.0
 31
0.0
  0
LINE
  5
21B
  8
DETAIL
  6
CONTINUOUS
 62
     5
 10
70.0
 20
-10.0
 30
0.0
 11
85.0
 21
-10.0
 31
0.0
  0
ARC
  5
21C
  8
DETAIL
  6
CONTINUOUS
 62
     5
 10
90.0
 20
-28.0
 30
0.0
 40
5.0
 50
180.0
 51
270.0
  0
LINE
  5
21D
  8
DETAIL
  6
CONTINUOUS
 62
     5
 10
108.04493100000001
 20
33.0
 30
0.0
 11
90.0
 21
33.0
 31
0.0
  0
LINE
  5
21E
  8
DETAIL
  6
CONTINUOUS
 62
     5
 10
50.0
 20
5.0
 30
0.0
 11
70.0
 21
5.0
 31
0.0
  0
LINE
  5
21F
  8
DETAIL
  6
CONTINUOUS
 62
     5
 10
70.0
 20
10.0
 30
0.0
 11
85.0
 21
10.0
 31
0.0
  0
ARC
  5
220
  8
DETAIL
  6
CONTINUOUS
 62
     5
 10
90.0
 20
28.0
 30
0.0
 40
5.0
 50
90.0
 51
180.0
  0
LINE
  5
221
  8
DETAIL
  6
CONTINUOUS
 62
     5
 10
135.0
 20
-35.0
 30
0.0
 11
108.04493100000001
 21
-35.0
 31
0.0
  0
LINE
  5
222
  8
DETAIL
  6
CONTINUOUS
 62
     5
 10
135.0
 20
35.0
 30
0.0
 11
108.04493100000001
 21
35.0
 31
0.0
  0
ARC
  5
223
  8
DETAIL
  6
CONTINUOUS
 62
     5
 10
9.1800169999999994
 20
22.120010000000001
 30
0.0
 40
80.466968999999978
 50
309.84036700000001
 51
336.47369099999992
  0
ARC
  5
224
  8
DETAIL
  6
CONTINUOUS
 62
     5
 10
-53.013596
 20
-147.35060300000001
 30
0.0
 40
143.65596399999981
 50
16.312947000000001
 51
44.185631999999998
  0
ARC
  5
225
  8
DETAIL
  6
CONTINUOUS
 62
     5
 10
-55.194966000000001
 20
-119.19467999999991
 30
0.0
 40
140.583911
 50
4.976265999999999
 51
41.559108999999999
  0
ARC
  5
226
  8
DETAIL
  6
CONTINUOUS
 62
     5
 10
23.352359
 20
56.243664000000003
 30
0.0
 40
71.363368000000023
 50
319.6088079999999
 51
329.75227899999982
  0
TEXT
  5
227
  8
ETC
  6
CONTINUOUS
 62
    61
 10
367.81676799015253
 20
324.59370248329679
 30
0.0
 40
64.0
  1
産業扇
 41
0.9
  0
TEXT
  5
228
  8
ETC
  6
CONTINUOUS
 62
    61
 10
371.10004599015258
 20
423.09396648329681
 30
0.0
 40
64.0
  1
EX-20A_5
 41
0.9
  0
TEXT
  5
229
  8
ETC
  6
CONTINUOUS
 62
    61
 10
510.915028787822
 20
235.7712484985536
 30
0.0
 40
50.0
  1
EX-20A
 41
0.9
  0
ENDSEC
  0
EOF
