  0
SECTION
  2
HEADER
  9
$ACADVER
  1
AC1009
  9
$DWGCODEPAGE
  3
dos932
  9
$INSBASE
 10
0.0
 20
0.0
 30
0.0
  9
$EXTMIN
 10
-606.79132802070819
 20
-402.87200604781992
 30
0.0
  9
$EXTMAX
 10
1255.8293181408701
 20
501.66166682979042
 30
0.0
  9
$LIMMIN
 10
-2970.0
 20
-2100.0
  9
$LIMMAX
 10
2970.0
 20
2100.0
  9
$ORTHOMODE
 70
     1
  9
$REGENMODE
 70
     1
  9
$FILLMODE
 70
     1
  9
$QTEXTMODE
 70
     0
  9
$MIRRTEXT
 70
     0
  9
$LTSCALE
 40
20.0
  9
$ATTMODE
 70
     1
  9
$TEXTSIZE
 40
64.0
  9
$TRACEWID
 40
0.05
  9
$TEXTSTYLE
  7
STANDARD
  9
$CLAYER
  8
NOTE
  9
$CELTYPE
  6
CONTINUOUS
  9
$CECOLOR
 62
     7
  9
$DIMSCALE
 40
1.0
  9
$DIMASZ
 40
12.0
  9
$DIMEXO
 40
20.0
  9
$DIMDLI
 40
200.0
  9
$DIMRND
 40
0.0
  9
$DIMDLE
 40
0.0
  9
$DIMEXE
 40
20.0
  9
$DIMTP
 40
0.0
  9
$DIMTM
 40
0.0
  9
$DIMTXT
 40
64.0
  9
$DIMCEN
 40
0.09
  9
$DIMTSZ
 40
0.0
  9
$DIMTOL
 70
     0
  9
$DIMLIM
 70
     0
  9
$DIMTIH
 70
     0
  9
$DIMTOH
 70
     0
  9
$DIMSE1
 70
     0
  9
$DIMSE2
 70
     0
  9
$DIMTAD
 70
     1
  9
$DIMZIN
 70
     8
  9
$DIMBLK
  1

  9
$DIMASO
 70
     1
  9
$DIMSHO
 70
     0
  9
$DIMPOST
  1

  9
$DIMAPOST
  1

  9
$DIMALT
 70
     0
  9
$DIMALTD
 70
     2
  9
$DIMALTF
 40
25.399999999999999
  9
$DIMLFAC
 40
1.0
  9
$DIMTOFL
 70
     1
  9
$DIMTVP
 40
0.0
  9
$DIMTIX
 70
     1
  9
$DIMSOXD
 70
     0
  9
$DIMSAH
 70
     0
  9
$DIMBLK1
  1

  9
$DIMBLK2
  1

  9
$DIMSTYLE
  2
STANDARD
  9
$DIMCLRD
 70
     7
  9
$DIMCLRE
 70
     7
  9
$DIMCLRT
 70
     7
  9
$DIMTFAC
 40
1.0
  9
$DIMGAP
 40
25.0
  9
$LUNITS
 70
     2
  9
$LUPREC
 70
     4
  9
$SKETCHINC
 40
0.1
  9
$FILLETRAD
 40
3.0
  9
$AUNITS
 70
     1
  9
$AUPREC
 70
     3
  9
$MENU
  1
ACAD
  9
$ELEVATION
 40
0.0
  9
$PELEVATION
 40
0.0
  9
$THICKNESS
 40
50.0
  9
$LIMCHECK
 70
     0
  9
$CHAMFERA
 40
0.0
  9
$CHAMFERB
 40
0.0
  9
$SKPOLY
 70
     0
  9
$TDCREATE
 40
2453019.62301037
  9
$TDUPDATE
 40
2459017.505424259
  9
$TDINDWG
 40
1.7146327199
  9
$TDUSRTIMER
 40
1.7146327199
  9
$USRTIMER
 70
     1
  9
$ANGBASE
 50
0.0
  9
$ANGDIR
 70
     0
  9
$PDMODE
 70
     3
  9
$PDSIZE
 40
-2.0
  9
$PLINEWID
 40
0.0
  9
$SPLFRAME
 70
     0
  9
$SPLINETYPE
 70
     6
  9
$SPLINESEGS
 70
     8
  9
$SURFTAB1
 70
     6
  9
$SURFTAB2
 70
     6
  9
$SURFTYPE
 70
     6
  9
$SURFU
 70
     6
  9
$SURFV
 70
     6
  9
$UCSNAME
  2

  9
$UCSORG
 10
0.0
 20
0.0
 30
0.0
  9
$UCSXDIR
 10
1.0
 20
0.0
 30
0.0
  9
$UCSYDIR
 10
0.0
 20
1.0
 30
0.0
  9
$PUCSNAME
  2

  9
$PUCSORG
 10
0.0
 20
0.0
 30
0.0
  9
$PUCSXDIR
 10
1.0
 20
0.0
 30
0.0
  9
$PUCSYDIR
 10
0.0
 20
1.0
 30
0.0
  9
$USERI1
 70
     0
  9
$USERI2
 70
     0
  9
$USERI3
 70
     0
  9
$USERI4
 70
     0
  9
$USERI5
 70
     0
  9
$USERR1
 40
20.0
  9
$USERR2
 40
0.0
  9
$USERR3
 40
0.0
  9
$USERR4
 40
0.0
  9
$USERR5
 40
0.0
  9
$WORLDVIEW
 70
     1
  9
$SHADEDGE
 70
     3
  9
$SHADEDIF
 70
    70
  9
$TILEMODE
 70
     1
  9
$MAXACTVP
 70
    48
  9
$PINSBASE
 10
0.0
 20
0.0
 30
0.0
  9
$PLIMCHECK
 70
     0
  9
$PEXTMIN
 10
-100000000000000000000.0
 20
-100000000000000000000.0
 30
-100000000000000000000.0
  9
$PEXTMAX
 10
100000000000000000000.0
 20
100000000000000000000.0
 30
100000000000000000000.0
  9
$PLIMMIN
 10
0.0
 20
0.0
  9
$PLIMMAX
 10
12.0
 20
9.0
  9
$UNITMODE
 70
     0
  9
$VISRETAIN
 70
     0
  9
$PLINEGEN
 70
     0
  9
$PSLTSCALE
 70
     0
  9
$TREEDEPTH
 70
  3020
  9
$ATTDIA
 70
     0
  9
$ATTREQ
 70
     1
  9
$BLIPMODE
 70
     1
  9
$COORDS
 70
     1
  9
$DRAGMODE
 70
     2
  9
$OSMODE
 70
     0
  9
$HANDLING
 70
     0
  9
$HANDSEED
  5
EBD4
  0
ENDSEC
  0
SECTION
  2
TABLES
  0
TABLE
  2
LTYPE
 70
     2
  0
LTYPE
  2
CONTINUOUS
 70
     0
  3
実線
 72
    65
 73
     0
 40
0.0
  0
LTYPE
  2
DASHDOT
 70
     0
  3
____ _ ____ _ ____ _ ____ _ ____ _ ____ _ ____
 72
    65
 73
     4
 40
5.5
 49
4.0
 49
-0.6
 49
0.3
 49
-0.6
  0
ENDTAB
  0
TABLE
  2
LAYER
 70
    12
  0
LAYER
  2
0
 70
     0
 62
     7
  6
CONTINUOUS
  0
LAYER
  2
BASIS
 70
     0
 62
     6
  6
DASHDOT
  0
LAYER
  2
OUTLINE
 70
     0
 62
     3
  6
CONTINUOUS
  0
LAYER
  2
DETAIL
 70
     0
 62
     5
  6
CONTINUOUS
  0
LAYER
  2
SIZE
 70
     0
 62
    30
  6
CONTINUOUS
  0
LAYER
  2
ARRANGE
 70
     0
 62
     1
  6
CONTINUOUS
  0
LAYER
  2
ETC
 70
     0
 62
    61
  6
CONTINUOUS
  0
LAYER
  2
FIX
 70
     0
 62
    11
  6
CONTINUOUS
  0
LAYER
  2
NOTE
 70
     0
 62
     4
  6
CONTINUOUS
  0
LAYER
  2
DEFPOINTS
 70
    64
 62
     7
  6
CONTINUOUS
  0
LAYER
  2
SERVICESPACE
 70
    64
 62
     2
  6
DASHDOT
  0
LAYER
  2
SYMBOLLINE
 70
    64
 62
    15
  6
CONTINUOUS
  0
ENDTAB
  0
TABLE
  2
STYLE
 70
     1
  0
STYLE
  2
STANDARD
 70
     0
 40
64.0
 41
0.9
 50
0.0
 71
     0
 42
64.0
  3
SIMPLEX.shx
  4
BIGFONT.shx
  0
ENDTAB
  0
TABLE
  2
APPID
 70
    17
  0
APPID
  2
ACAD
 70
     0
  0
APPID
  2
AUTOCAD_POSTSCRIPT_FIGURE
 70
     0
  0
APPID
  2
ACAD_EXEMPT_FROM_CAD_STANDARDS
 70
     0
  0
APPID
  2
ACAD_PSEXT
 70
     0
  0
APPID
  2
ACAUTHENVIRON
 70
     0
  0
APPID
  2
GENIUS_GENOENT_13
 70
     0
  0
APPID
  2
GENIUS_GENCFG_13
 70
     0
  0
APPID
  2
GENIUS_GENCFG0_13
 70
     0
  0
APPID
  2
GENIUS_GENCFG1_13
 70
     0
  0
APPID
  2
GENIUS_GENCFG2_13
 70
     0
  0
APPID
  2
GENIUS_GENCFG3_13
 70
     0
  0
APPID
  2
GENIUS_GENCFG4_13
 70
     0
  0
APPID
  2
GENIUS_GEVCFG0_13
 70
     0
  0
APPID
  2
CONTENTBLOCKICON
 70
     0
  0
APPID
  2
CONTENTBLOCKDESCRIPTION
 70
     0
  0
APPID
  2
ACAD_NAV_VCDISPLAY
 70
     0
  0
APPID
  2
ACAD_MLEADERVER
 70
     0
  0
ENDTAB
  0
TABLE
  2
DIMSTYLE
 70
     1
  0
DIMSTYLE
  2
STANDARD
 70
     0
  3

  4

  5
_ORIGIN
  6

  7

 40
1.0
 41
12.0
 42
20.0
 43
200.0
 44
20.0
 45
0.0
 46
0.0
 47
0.0
 48
0.0
140
64.0
141
0.09
142
0.0
143
25.399999999999999
144
1.0
145
0.0
146
1.0
147
25.0
 71
     0
 72
     0
 73
     0
 74
     0
 75
     0
 76
     0
 77
     1
 78
     8
170
     0
171
     2
172
     1
173
     0
174
     1
175
     0
176
     7
177
     7
178
     7
  0
ENDTAB
  0
TABLE
  2
VIEW
 70
     1
  0
VIEW
  2
ALL
 70
     0
 40
4282.6198079999986
 10
0.0
 20
41.309904000000003
 41
5940.0
 11
0.0
 21
0.0
 31
1.0
 12
0.0
 22
0.0
 32
0.0
 42
50.0
 43
0.0
 44
0.0
 50
0.0
 71
     0
  0
ENDTAB
  0
TABLE
  2
UCS
 70
     0
  0
ENDTAB
  0
TABLE
  2
VPORT
 70
     1
  0
VPORT
  2
*ACTIVE
 70
     0
 10
0.0
 20
0.0
 11
1.0
 21
1.0
 12
324.51899506008078
 22
49.394830390985248
 13
0.0
 23
0.0
 14
1.0
 24
1.0
 15
0.0
 25
0.0
 16
0.0
 26
0.0
 36
1.0
 17
0.0
 27
0.0
 37
0.0
 40
959.81489810132916
 41
1.86189889025894
 42
50.0
 43
0.0
 44
0.0
 50
0.0
 51
0.0
 71
     0
 72
  1000
 73
     1
 74
     3
 75
     0
 76
     0
 77
     0
 78
     0
  0
ENDTAB
  0
ENDSEC
  0
SECTION
  2
BLOCKS
  0
BLOCK
  8
0
  2
_ORIGIN
 70
     0
 10
0.0
 20
0.0
 30
0.0
  3
_ORIGIN
  1
_ORIGIN
  0
CIRCLE
  8
0
  6
CONTINUOUS
 62
     7
 10
0.0
 20
0.0
 30
0.0
 40
0.5
  0
LINE
  8
0
  6
CONTINUOUS
 62
     7
 10
0.0
 20
0.0
 30
0.0
 11
-1.0
 21
0.0
 31
0.0
  0
ENDBLK
  8
0
  0
ENDSEC
  0
SECTION
  2
ENTITIES
  0
LINE
  8
NOTE
  6
CONTINUOUS
 62
     4
 10
121.9163793374012
 20
-99.987770244235435
 30
0.0
 11
163.38918656147669
 21
-99.987770244235435
 31
0.0
  0
TEXT
  8
NOTE
  6
CONTINUOUS
 62
     4
 10
267.82165166802451
 20
-220.60474377366771
 30
0.0
 40
64.0
  1
EL
 41
0.9
  0
LINE
  8
NOTE
  6
CONTINUOUS
 62
     4
 10
152.7114259239454
 20
-104.0668348759439
 30
0.0
 11
148.00895818591209
 21
-100.0083257330744
 31
0.0
  0
LINE
  8
NOTE
  6
CONTINUOUS
 62
     4
 10
148.00895818591209
 20
-100.0083257330744
 30
0.0
 11
150.0521512963478
 21
-105.8743347002912
 31
0.0
  0
LINE
  8
NOTE
  6
CONTINUOUS
 62
     4
 10
148.00895818591209
 20
-100.0083257330744
 30
0.0
 11
154.75461903438119
 21
-109.9328438431608
 31
0.0
  0
LINE
  8
NOTE
  6
CONTINUOUS
 62
     4
 10
154.75461903438119
 20
-109.9328438431607
 30
0.0
 11
242.63458055187081
 21
-238.5367767048308
 31
0.0
  0
LINE
  8
NOTE
  6
CONTINUOUS
 62
     4
 10
242.63458055187081
 20
-238.5367767048308
 30
0.0
 11
364.66315198044231
 21
-238.5367767048308
 31
0.0
  0
LINE
  8
DETAIL
  6
CONTINUOUS
 62
     5
 10
178.4739443681103
 20
-170.45335890094341
 30
0.0
 11
179.8366204676139
 21
-170.10955296055499
 31
0.0
  0
LINE
  8
DETAIL
  6
CONTINUOUS
 62
     5
 10
179.8366204676139
 20
-170.10955296055499
 30
0.0
 11
181.08385807618319
 21
-170.05183371509159
 31
0.0
  0
LINE
  8
DETAIL
  6
CONTINUOUS
 62
     5
 10
181.08385807618319
 20
-170.05183371509159
 30
0.0
 11
181.08385807618319
 21
-170.05183371509159
 31
0.0
  0
LINE
  8
DETAIL
  6
CONTINUOUS
 62
     5
 10
181.08385807618319
 20
-170.05183371509159
 30
0.0
 11
182.14037122146911
 21
-170.4182254471921
 31
0.0
  0
LINE
  8
DETAIL
  6
CONTINUOUS
 62
     5
 10
182.14037122146911
 20
-170.4182254471921
 30
0.0
 11
183.09148400546599
 21
-170.75450279035019
 31
0.0
  0
LINE
  8
DETAIL
  6
CONTINUOUS
 62
     5
 10
183.09148400546599
 20
-170.75450279035019
 30
0.0
 11
183.09148400546599
 21
-170.75450279035019
 31
0.0
  0
LINE
  8
DETAIL
  6
CONTINUOUS
 62
     5
 10
183.09148400546599
 20
-170.75450279035019
 30
0.0
 11
184.04008725705009
 21
-170.61145944288319
 31
0.0
  0
LINE
  8
DETAIL
  6
CONTINUOUS
 62
     5
 10
184.04008725705009
 20
-170.61145944288319
 30
0.0
 11
184.9987286382802
 21
-170.1522150115488
 31
0.0
  0
LINE
  8
DETAIL
  6
CONTINUOUS
 62
     5
 10
178.4739443681103
 20
-172.85407707418241
 30
0.0
 11
179.8366204676139
 21
-172.51027113379359
 31
0.0
  0
LINE
  8
DETAIL
  6
CONTINUOUS
 62
     5
 10
179.8366204676139
 20
-172.51027113379359
 30
0.0
 11
181.08385807618319
 21
-172.45255188833059
 31
0.0
  0
LINE
  8
DETAIL
  6
CONTINUOUS
 62
     5
 10
181.08385807618319
 20
-172.45255188833059
 30
0.0
 11
181.08385807618319
 21
-172.45255188833059
 31
0.0
  0
LINE
  8
DETAIL
  6
CONTINUOUS
 62
     5
 10
181.08385807618319
 20
-172.45255188833059
 30
0.0
 11
182.14037122146911
 21
-172.8189436204307
 31
0.0
  0
LINE
  8
DETAIL
  6
CONTINUOUS
 62
     5
 10
182.14037122146911
 20
-172.8189436204307
 30
0.0
 11
183.09148400546599
 21
-173.15522096358879
 31
0.0
  0
LINE
  8
DETAIL
  6
CONTINUOUS
 62
     5
 10
183.09148400546599
 20
-173.15522096358879
 30
0.0
 11
183.09148400546599
 21
-173.15522096358879
 31
0.0
  0
LINE
  8
DETAIL
  6
CONTINUOUS
 62
     5
 10
183.09148400546599
 20
-173.15522096358879
 30
0.0
 11
184.04008725705009
 21
-173.01217761612179
 31
0.0
  0
LINE
  8
DETAIL
  6
CONTINUOUS
 62
     5
 10
184.04008725705009
 20
-173.01217761612179
 30
0.0
 11
184.9987286382802
 21
-172.55293318478741
 31
0.0
  0
LINE
  8
DETAIL
  6
CONTINUOUS
 62
     5
 10
174.64755310250749
 20
-214.9998215362061
 30
0.0
 11
174.64755310250749
 21
-202.99623067001221
 31
0.0
  0
LINE
  8
DETAIL
  6
CONTINUOUS
 62
     5
 10
187.45138335978129
 20
-212.69601039845429
 30
0.0
 11
187.45138335978129
 21
-205.30004180776399
 31
0.0
  0
LINE
  8
DETAIL
  6
CONTINUOUS
 62
     5
 10
185.95073970108061
 20
-203.7026798324232
 30
0.0
 11
174.64755310250749
 21
-202.99623067001221
 31
0.0
  0
LINE
  8
DETAIL
  6
CONTINUOUS
 62
     5
 10
161.75840663561451
 20
-206.47727202120859
 30
0.0
 11
174.64755310250749
 21
-206.47727202120859
 31
0.0
  0
ARC
  8
DETAIL
  6
CONTINUOUS
 62
     5
 10
185.85090457762189
 20
-205.30004180776399
 30
0.0
 40
1.600478782159207
 50
0.0
 51
86.423665624995337
  0
LINE
  8
DETAIL
  6
CONTINUOUS
 62
     5
 10
185.85090457762189
 20
-203.03662300774431
 30
0.0
 11
185.85090457762189
 21
-200.59551249677361
 31
0.0
  0
LINE
  8
DETAIL
  6
CONTINUOUS
 62
     5
 10
177.848510666826
 20
-202.34447472056081
 30
0.0
 11
177.848510666826
 21
-200.59551249677321
 31
0.0
  0
LINE
  8
DETAIL
  6
CONTINUOUS
 62
     5
 10
179.80479571804301
 20
-186.99144284841989
 30
0.0
 11
183.89461952640491
 21
-186.99144284841989
 31
0.0
  0
LINE
  8
DETAIL
  6
CONTINUOUS
 62
     5
 10
185.85090457762189
 20
-200.59551249677361
 30
0.0
 11
184.29199864383159
 21
-187.34481205955669
 31
0.0
  0
LINE
  8
DETAIL
  6
CONTINUOUS
 62
     5
 10
177.848510666826
 20
-200.59551249677321
 30
0.0
 11
179.40741660061551
 21
-187.34481205955669
 31
0.0
  0
ARC
  8
DETAIL
  6
CONTINUOUS
 62
     5
 10
186.6511439687014
 20
-203.03662300774431
 30
0.0
 40
0.8002393910795758
 50
180.0
 51
250.52877936552031
  0
ARC
  8
DETAIL
  6
CONTINUOUS
 62
     5
 10
177.04827127574629
 20
-202.34447472056081
 30
0.0
 40
0.8002393910795439
 50
266.42366562499529
 51
0.0
  0
ARC
  8
DETAIL
  6
CONTINUOUS
 62
     5
 10
183.89461952640491
 20
-187.39156254395951
 30
0.0
 40
0.4001196955397739
 50
6.709836807759169
 51
90.0
  0
ARC
  8
DETAIL
  6
CONTINUOUS
 62
     5
 10
179.80479571804301
 20
-187.39156254395951
 30
0.0
 40
0.4001196955399539
 50
90.0
 51
173.29016319225391
  0
LINE
  8
DETAIL
  6
CONTINUOUS
 62
     5
 10
179.2606978275542
 20
-188.59192163057881
 30
0.0
 11
181.8497076222238
 21
-188.59192163057881
 31
0.0
  0
LINE
  8
DETAIL
  6
CONTINUOUS
 62
     5
 10
179.11947911148161
 20
-189.79228071719811
 30
0.0
 11
181.8497076222238
 21
-189.79228071719811
 31
0.0
  0
LINE
  8
DETAIL
  6
CONTINUOUS
 62
     5
 10
181.8497076222238
 20
-190.99263980381781
 30
0.0
 11
184.7211548490391
 21
-190.99263980381781
 31
0.0
  0
LINE
  8
DETAIL
  6
CONTINUOUS
 62
     5
 10
181.8497076222238
 20
-192.19299889043711
 30
0.0
 11
184.86237356511151
 21
-192.19299889043711
 31
0.0
  0
LINE
  8
DETAIL
  6
CONTINUOUS
 62
     5
 10
178.69582296326291
 20
-193.39335797705641
 30
0.0
 11
181.8497076222238
 21
-193.39335797705641
 31
0.0
  0
LINE
  8
DETAIL
  6
CONTINUOUS
 62
     5
 10
178.55460424719001
 20
-194.59371706367611
 30
0.0
 11
181.8497076222238
 21
-194.59371706367611
 31
0.0
  0
LINE
  8
DETAIL
  6
CONTINUOUS
 62
     5
 10
181.8497076222238
 20
-195.79407615029601
 30
0.0
 11
185.28602971333041
 21
-195.79407615029601
 31
0.0
  0
LINE
  8
DETAIL
  6
CONTINUOUS
 62
     5
 10
181.8497076222238
 20
-196.9944352369148
 30
0.0
 11
185.42724842940331
 21
-196.9944352369148
 31
0.0
  0
LINE
  8
DETAIL
  6
CONTINUOUS
 62
     5
 10
178.1309480989714
 20
-198.1947943235341
 30
0.0
 11
181.8497076222238
 21
-198.1947943235341
 31
0.0
  0
LINE
  8
DETAIL
  6
CONTINUOUS
 62
     5
 10
177.9897293828985
 20
-199.39515341015391
 30
0.0
 11
181.8497076222238
 21
-199.39515341015391
 31
0.0
  0
LINE
  8
DETAIL
  6
CONTINUOUS
 62
     5
 10
182.6499470133034
 20
-196.9944352369148
 30
0.0
 11
182.6499470133034
 21
-195.79407615029601
 31
0.0
  0
LINE
  8
DETAIL
  6
CONTINUOUS
 62
     5
 10
181.04946823114429
 20
-199.39515341015391
 30
0.0
 11
181.04946823114429
 21
-198.1947943235341
 31
0.0
  0
LINE
  8
DETAIL
  6
CONTINUOUS
 62
     5
 10
182.6499470133034
 20
-192.19299889043711
 30
0.0
 11
182.6499470133034
 21
-190.99263980381781
 31
0.0
  0
LINE
  8
DETAIL
  6
CONTINUOUS
 62
     5
 10
181.04946823114429
 20
-189.79228071719811
 30
0.0
 11
181.04946823114429
 21
-188.59192163057881
 31
0.0
  0
LINE
  8
DETAIL
  6
CONTINUOUS
 62
     5
 10
181.04946823114429
 20
-194.59371706367611
 30
0.0
 11
181.04946823114429
 21
-193.39335797705641
 31
0.0
  0
LINE
  8
DETAIL
  6
CONTINUOUS
 62
     5
 10
174.64755310250749
 20
-205.39694884325081
 30
0.0
 11
183.45018640438309
 21
-205.39694884325081
 31
0.0
  0
LINE
  8
DETAIL
  6
CONTINUOUS
 62
     5
 10
183.45018640438309
 20
-212.5991033629675
 30
0.0
 11
183.45018640438309
 21
-205.39694884325081
 31
0.0
  0
LINE
  8
DETAIL
  6
CONTINUOUS
 62
     5
 10
183.0500667088435
 20
-186.99144284841989
 30
0.0
 11
183.0500667088435
 21
-186.90090373701921
 31
0.0
  0
LINE
  8
DETAIL
  6
CONTINUOUS
 62
     5
 10
180.64934853560439
 20
-186.99144284841989
 30
0.0
 11
180.64934853560439
 21
-186.90090373701921
 31
0.0
  0
LINE
  8
DETAIL
  6
CONTINUOUS
 62
     5
 10
174.64755310250749
 20
-214.9998215362061
 30
0.0
 11
185.95073970108061
 21
-214.29337237379559
 31
0.0
  0
LINE
  8
DETAIL
  6
CONTINUOUS
 62
     5
 10
161.75840663561451
 20
-211.5187801850102
 30
0.0
 11
174.64755310250749
 21
-211.5187801850102
 31
0.0
  0
CIRCLE
  8
DETAIL
  6
CONTINUOUS
 62
     5
 10
165.2847522268755
 20
-208.9980261031092
 30
0.0
 40
1.2403710561733969
  0
CIRCLE
  8
DETAIL
  6
CONTINUOUS
 62
     5
 10
165.2847522268755
 20
-208.9980261031092
 30
0.0
 40
1.5604668126052359
  0
ARC
  8
DETAIL
  6
CONTINUOUS
 62
     5
 10
185.85090457762189
 20
-212.69601039845429
 30
0.0
 40
1.6004787821593149
 50
273.57633437500471
 51
0.0
  0
LINE
  8
DETAIL
  6
CONTINUOUS
 62
     5
 10
174.64755310250749
 20
-212.5991033629675
 30
0.0
 11
183.45018640438309
 21
-212.5991033629675
 31
0.0
  0
LINE
  8
DETAIL
  6
CONTINUOUS
 62
     5
 10
180.64934853560439
 20
-186.99144284841989
 30
0.0
 11
180.64934853560439
 21
-172.42239621181901
 31
0.0
  0
LINE
  8
DETAIL
  6
CONTINUOUS
 62
     5
 10
183.0500667088435
 20
-186.99144284841989
 30
0.0
 11
183.0500667088435
 21
-173.14930707953911
 31
0.0
  0
ARC
  8
DETAIL
  6
CONTINUOUS
 62
     5
 10
165.8449198006314
 20
-208.9980261031092
 30
0.0
 40
4.8014363464776784
 50
148.33175674645989
 51
211.66824325354011
  0
LINE
  8
DETAIL
  6
CONTINUOUS
 62
     5
 10
161.75840663561451
 20
-211.5187801850102
 30
0.0
 11
161.75840663561451
 21
-206.47727202120859
 31
0.0
  0
LINE
  8
DETAIL
  6
CONTINUOUS
 62
     5
 10
165.57795101579981
 20
-97.684144148236101
 30
0.0
 11
165.57795101579981
 21
-102.6366984442011
 31
0.0
  0
LINE
  8
DETAIL
  6
CONTINUOUS
 62
     5
 10
165.57795101579981
 20
-97.684144148236101
 30
0.0
 11
147.96906982651271
 21
-97.684144148236101
 31
0.0
  0
LINE
  8
DETAIL
  6
CONTINUOUS
 62
     5
 10
165.57795101579981
 20
-102.6366984442011
 30
0.0
 11
147.96359282022431
 21
-102.6366984442011
 31
0.0
  0
ARC
  8
DETAIL
  6
CONTINUOUS
 62
     5
 10
172.887026442132
 20
-108.9504514243272
 30
0.0
 40
9.9229684493872394
 50
0.0
 51
90.0
  0
ARC
  8
DETAIL
  6
CONTINUOUS
 62
     5
 10
172.88702674739929
 20
-108.9504514243272
 30
0.0
 40
8.0023939107961688
 50
0.0
 51
90.0
  0
LINE
  8
DETAIL
  6
CONTINUOUS
 62
     5
 10
182.8099948915193
 20
-170.69269105813871
 30
0.0
 11
182.8099948915193
 21
-108.9504514243272
 31
0.0
  0
LINE
  8
DETAIL
  6
CONTINUOUS
 62
     5
 10
180.88942065819549
 20
-170.02948456972811
 30
0.0
 11
180.88942065819549
 21
-108.9504514243272
 31
0.0
  0
LINE
  8
DETAIL
  6
CONTINUOUS
 62
     5
 10
172.88702674739929
 20
-100.9480575135312
 30
0.0
 11
165.57795101579981
 21
-100.9480575135312
 31
0.0
  0
LINE
  8
DETAIL
  6
CONTINUOUS
 62
     5
 10
172.887026442132
 20
-99.027482974940085
 30
0.0
 11
165.57795101579981
 21
-99.027482974940085
 31
0.0
  0
LINE
  8
NOTE
  6
CONTINUOUS
 62
     4
 10
138.70274320424289
 20
-99.987770244235435
 30
0.0
 11
188.63017146871641
 21
-99.987770244235435
 31
0.0
  0
LINE
  8
BASIS
  6
DASHDOT
 62
     6
 10
0.0
 20
200.40224599999991
 30
0.0
 11
0.0
 21
-232.9293569999999
 31
0.0
  0
LINE
  8
BASIS
  6
DASHDOT
 62
     6
 10
229.235399
 20
0.0
 30
0.0
 11
-229.235399
 21
0.0
 31
0.0
  0
CIRCLE
  8
ARRANGE
  6
CONTINUOUS
 62
     1
 10
0.0
 20
0.0
 30
0.0
 40
40.0
  0
POINT
  8
ARRANGE
  6
CONTINUOUS
 62
     1
 10
0.0
 20
0.0
 30
0.0
  0
ARC
  8
DETAIL
  6
CONTINUOUS
 62
     5
 10
0.0
 20
1528.0
 30
0.0
 40
1700.0
 50
265.53574199999741
 51
270.0
  0
LINE
  8
DETAIL
  6
CONTINUOUS
 62
     5
 10
-148.0
 20
-148.0
 30
0.0
 11
119.5
 21
-148.0
 31
0.0
  0
LINE
  8
DETAIL
  6
CONTINUOUS
 62
     5
 10
-142.0
 20
148.0
 30
0.0
 11
142.0
 21
148.0
 31
0.0
  0
LINE
  8
DETAIL
  6
CONTINUOUS
 62
     5
 10
-5.0
 20
-148.0
 30
0.0
 11
-25.0
 21
-148.0
 31
0.0
  0
LINE
  8
DETAIL
  6
CONTINUOUS
 62
     5
 10
148.0
 20
110.0
 30
0.0
 11
148.0
 21
-110.0
 31
0.0
  0
LINE
  8
DETAIL
  6
CONTINUOUS
 62
     5
 10
148.0
 20
142.0
 30
0.0
 11
148.0
 21
-146.5
 31
0.0
  0
LINE
  8
DETAIL
  6
CONTINUOUS
 62
     5
 10
148.0
 20
142.0
 30
0.0
 11
148.0
 21
-148.0
 31
0.0
  0
LINE
  8
DETAIL
  6
CONTINUOUS
 62
     5
 10
148.0
 20
110.0
 30
0.0
 11
148.0
 21
-110.0
 31
0.0
  0
ARC
  8
DETAIL
  6
CONTINUOUS
 62
     5
 10
0.0
 20
1528.0
 30
0.0
 40
1700.0
 50
270.0
 51
274.46425800000259
  0
LINE
  8
DETAIL
  6
CONTINUOUS
 62
     5
 10
32.0
 20
-148.0
 30
0.0
 11
148.0
 21
-148.0
 31
0.0
  0
LINE
  8
DETAIL
  6
CONTINUOUS
 62
     5
 10
119.5
 20
-148.0
 30
0.0
 11
145.5
 21
-148.0
 31
0.0
  0
LINE
  8
DETAIL
  6
CONTINUOUS
 62
     5
 10
143.26093399999999
 20
-148.0
 30
0.0
 11
140.0
 21
-148.0
 31
0.0
  0
LINE
  8
DETAIL
  6
CONTINUOUS
 62
     5
 10
3.5
 20
-148.0
 30
0.0
 11
-3.5316199999999749
 21
-148.0
 31
0.0
  0
LINE
  8
DETAIL
  6
CONTINUOUS
 62
     5
 10
5.0
 20
-148.0
 30
0.0
 11
25.0
 21
-148.0
 31
0.0
  0
LINE
  8
DETAIL
  6
CONTINUOUS
 62
     5
 10
26.5
 20
-148.0
 30
0.0
 11
30.5
 21
-148.0
 31
0.0
  0
ARC
  8
DETAIL
  6
CONTINUOUS
 62
     5
 10
142.0
 20
142.0
 30
0.0
 40
6.0
 50
0.0
 51
90.0
  0
LINE
  8
DETAIL
  6
CONTINUOUS
 62
     5
 10
-148.0
 20
142.0
 30
0.0
 11
-148.0
 21
-148.0
 31
0.0
  0
LINE
  8
DETAIL
  6
CONTINUOUS
 62
     5
 10
-26.5
 20
-148.0
 30
0.0
 11
-30.5
 21
-148.0
 31
0.0
  0
LINE
  8
DETAIL
  6
CONTINUOUS
 62
     5
 10
-148.0
 20
-148.0
 30
0.0
 11
-148.0
 21
-149.8939179999999
 31
0.0
  0
ARC
  8
DETAIL
  6
CONTINUOUS
 62
     5
 10
-131.0
 20
-149.8939179999999
 30
0.0
 40
17.0
 50
180.0
 51
265.53574199999741
  0
LINE
  8
DETAIL
  6
CONTINUOUS
 62
     5
 10
148.0
 20
-148.0
 30
0.0
 11
148.0
 21
-149.8939179999999
 31
0.0
  0
ARC
  8
DETAIL
  6
CONTINUOUS
 62
     5
 10
131.0
 20
-149.8939179999999
 30
0.0
 40
17.0
 50
274.46425800000259
 51
0.0
  0
ARC
  8
DETAIL
  6
CONTINUOUS
 62
     5
 10
-142.0
 20
142.0
 30
0.0
 40
6.0
 50
90.0
 51
180.0
  0
LINE
  8
SIZE
  6
CONTINUOUS
 62
    30
 10
148.0
 20
162.0
 30
0.0
 11
148.0
 21
400.03999599999997
 31
0.0
  0
LINE
  8
SIZE
  6
CONTINUOUS
 62
    30
 10
-148.0
 20
162.0
 30
0.0
 11
-148.0
 21
400.03999599999997
 31
0.0
  0
LINE
  8
SIZE
  6
CONTINUOUS
 62
    30
 10
136.0
 20
380.03999599999997
 30
0.0
 11
-136.0
 21
380.03999599999997
 31
0.0
  0
CIRCLE
  8
SIZE
  6
CONTINUOUS
 62
    30
 10
148.0
 20
380.03999599999997
 30
0.0
 40
6.0
  0
LINE
  8
SIZE
  6
CONTINUOUS
 62
    30
 10
148.0
 20
380.03999599999997
 30
0.0
 11
136.0
 21
380.03999599999997
 31
0.0
  0
CIRCLE
  8
SIZE
  6
CONTINUOUS
 62
    30
 10
-148.0
 20
380.03999599999997
 30
0.0
 40
6.0
  0
LINE
  8
SIZE
  6
CONTINUOUS
 62
    30
 10
-148.0
 20
380.03999599999997
 30
0.0
 11
-136.0
 21
380.03999599999997
 31
0.0
  0
TEXT
  8
SIZE
  6
CONTINUOUS
 62
    30
 10
-72.685714285714297
 20
405.03999599999997
 30
0.0
 40
64.0
  1
296
 41
0.9
 72
     1
 11
0.0
 21
405.03999599999997
 31
0.0
  0
LINE
  8
SIZE
  6
CONTINUOUS
 62
    30
 10
-162.0
 20
148.0
 30
0.0
 11
-537.79132802070808
 21
148.0
 31
0.0
  0
LINE
  8
SIZE
  6
CONTINUOUS
 62
    30
 10
-20.0
 20
-172.0
 30
0.0
 11
-537.79132802070808
 21
-172.0
 31
0.0
  0
LINE
  8
SIZE
  6
CONTINUOUS
 62
    30
 10
-517.79132802070808
 20
136.0
 30
0.0
 11
-517.79132802070808
 21
-160.0
 31
0.0
  0
CIRCLE
  8
SIZE
  6
CONTINUOUS
 62
    30
 10
-517.79132802070808
 20
148.0
 30
0.0
 40
6.0
  0
LINE
  8
SIZE
  6
CONTINUOUS
 62
    30
 10
-517.79132802070808
 20
148.0
 30
0.0
 11
-517.79132802070808
 21
136.0
 31
0.0
  0
CIRCLE
  8
SIZE
  6
CONTINUOUS
 62
    30
 10
-517.79132802070808
 20
-172.0
 30
0.0
 40
6.0
  0
LINE
  8
SIZE
  6
CONTINUOUS
 62
    30
 10
-517.79132802070808
 20
-172.0
 30
0.0
 11
-517.79132802070808
 21
-160.0
 31
0.0
  0
TEXT
  8
SIZE
  6
CONTINUOUS
 62
    30
 10
-542.79132802070808
 20
-86.05714285714285
 30
0.0
 40
64.0
  1
320
 50
90.0
 41
0.9
 72
     1
 11
-542.79132802070808
 21
-12.0
 31
0.0
  0
LINE
  8
NOTE
  6
CONTINUOUS
 62
     4
 10
148.0
 20
-120.0
 30
0.0
 11
148.0
 21
-80.0
 31
0.0
  0
LINE
  8
NOTE
  6
CONTINUOUS
 62
     4
 10
128.0
 20
-100.0
 30
0.0
 11
168.0
 21
-100.0
 31
0.0
  0
LINE
  8
OUTLINE
  6
CONTINUOUS
 62
     3
 10
-142.0
 20
148.0
 30
0.0
 11
142.0
 21
148.0
 31
0.0
  0
ARC
  8
OUTLINE
  6
CONTINUOUS
 62
     3
 10
0.0
 20
1528.0
 30
0.0
 40
1700.0
 50
265.53574199999741
 51
270.0
  0
LINE
  8
OUTLINE
  6
CONTINUOUS
 62
     3
 10
148.0
 20
110.0
 30
0.0
 11
148.0
 21
-110.0
 31
0.0
  0
LINE
  8
OUTLINE
  6
CONTINUOUS
 62
     3
 10
148.0
 20
142.0
 30
0.0
 11
148.0
 21
-148.0
 31
0.0
  0
LINE
  8
OUTLINE
  6
CONTINUOUS
 62
     3
 10
148.0
 20
142.0
 30
0.0
 11
148.0
 21
-146.5
 31
0.0
  0
LINE
  8
OUTLINE
  6
CONTINUOUS
 62
     3
 10
148.0
 20
110.0
 30
0.0
 11
148.0
 21
-110.0
 31
0.0
  0
ARC
  8
OUTLINE
  6
CONTINUOUS
 62
     3
 10
131.0
 20
-149.8939179999999
 30
0.0
 40
17.0
 50
274.46425800000259
 51
0.0
  0
ARC
  8
OUTLINE
  6
CONTINUOUS
 62
     3
 10
0.0
 20
1528.0
 30
0.0
 40
1700.0
 50
270.0
 51
274.46425800000259
  0
LINE
  8
OUTLINE
  6
CONTINUOUS
 62
     3
 10
32.0
 20
-148.0
 30
0.0
 11
148.0
 21
-148.0
 31
0.0
  0
LINE
  8
OUTLINE
  6
CONTINUOUS
 62
     3
 10
148.0
 20
-148.0
 30
0.0
 11
148.0
 21
-149.8939179999999
 31
0.0
  0
LINE
  8
OUTLINE
  6
CONTINUOUS
 62
     3
 10
143.26093399999999
 20
-148.0
 30
0.0
 11
140.0
 21
-148.0
 31
0.0
  0
LINE
  8
OUTLINE
  6
CONTINUOUS
 62
     3
 10
119.5
 20
-148.0
 30
0.0
 11
145.5
 21
-148.0
 31
0.0
  0
ARC
  8
OUTLINE
  6
CONTINUOUS
 62
     3
 10
142.0
 20
142.0
 30
0.0
 40
6.0
 50
0.0
 51
90.0
  0
LINE
  8
OUTLINE
  6
CONTINUOUS
 62
     3
 10
-148.0
 20
142.0
 30
0.0
 11
-148.0
 21
-148.0
 31
0.0
  0
ARC
  8
OUTLINE
  6
CONTINUOUS
 62
     3
 10
-131.0
 20
-149.8939179999999
 30
0.0
 40
17.0
 50
180.0
 51
265.53574199999741
  0
LINE
  8
OUTLINE
  6
CONTINUOUS
 62
     3
 10
-148.0
 20
-148.0
 30
0.0
 11
-148.0
 21
-149.8939179999999
 31
0.0
  0
ARC
  8
OUTLINE
  6
CONTINUOUS
 62
     3
 10
-142.0
 20
142.0
 30
0.0
 40
6.0
 50
90.0
 51
180.0
  0
LINE
  8
DETAIL
  6
CONTINUOUS
 62
     5
 10
120.0
 20
120.0
 30
0.0
 11
-120.0
 21
120.0
 31
0.0
  0
LINE
  8
DETAIL
  6
CONTINUOUS
 62
     5
 10
120.0
 20
-120.0
 30
0.0
 11
-120.0
 21
-120.0
 31
0.0
  0
LINE
  8
DETAIL
  6
CONTINUOUS
 62
     5
 10
-120.0
 20
120.0
 30
0.0
 11
-120.0
 21
-120.0
 31
0.0
  0
LINE
  8
DETAIL
  6
CONTINUOUS
 62
     5
 10
120.0
 20
120.0
 30
0.0
 11
120.0
 21
-120.0
 31
0.0
  0
LINE
  8
DETAIL
  6
CONTINUOUS
 62
     5
 10
120.0
 20
100.0
 30
0.0
 11
-120.0
 21
100.0
 31
0.0
  0
LINE
  8
DETAIL
  6
CONTINUOUS
 62
     5
 10
120.0
 20
26.700000000000049
 30
0.0
 11
-120.0
 21
26.700000000000049
 31
0.0
  0
LINE
  8
DETAIL
  6
CONTINUOUS
 62
     5
 10
120.0
 20
-46.600000000000023
 30
0.0
 11
-120.0
 21
-46.600000000000023
 31
0.0
  0
CIRCLE
  8
FIX
  6
CONTINUOUS
 62
    11
 10
-60.0
 20
132.49999999999989
 30
0.0
 40
2.5
  0
CIRCLE
  8
DETAIL
  6
CONTINUOUS
 62
     5
 10
-60.0
 20
132.49999999999989
 30
0.0
 40
2.5
  0
LINE
  8
BASIS
  6
DASHDOT
 62
     6
 10
-60.0
 20
152.5
 30
0.0
 11
-60.0
 21
112.5
 31
0.0
  0
LINE
  8
BASIS
  6
DASHDOT
 62
     6
 10
-80.0
 20
132.49999999999989
 30
0.0
 11
-40.0
 21
132.49999999999989
 31
0.0
  0
CIRCLE
  8
FIX
  6
CONTINUOUS
 62
    11
 10
60.0
 20
132.49999999999989
 30
0.0
 40
2.5
  0
LINE
  8
BASIS
  6
DASHDOT
 62
     6
 10
60.0
 20
152.5
 30
0.0
 11
60.0
 21
112.5
 31
0.0
  0
LINE
  8
BASIS
  6
DASHDOT
 62
     6
 10
80.0
 20
132.49999999999989
 30
0.0
 11
40.0
 21
132.49999999999989
 31
0.0
  0
CIRCLE
  8
DETAIL
  6
CONTINUOUS
 62
     5
 10
60.0
 20
132.49999999999989
 30
0.0
 40
2.5
  0
CIRCLE
  8
FIX
  6
CONTINUOUS
 62
    11
 10
-60.0
 20
-132.49999999999989
 30
0.0
 40
2.5
  0
LINE
  8
BASIS
  6
DASHDOT
 62
     6
 10
-60.0
 20
-152.5
 30
0.0
 11
-60.0
 21
-112.5
 31
0.0
  0
LINE
  8
BASIS
  6
DASHDOT
 62
     6
 10
-80.0
 20
-132.49999999999989
 30
0.0
 11
-40.0
 21
-132.49999999999989
 31
0.0
  0
CIRCLE
  8
DETAIL
  6
CONTINUOUS
 62
     5
 10
-60.0
 20
-132.49999999999989
 30
0.0
 40
2.5
  0
CIRCLE
  8
FIX
  6
CONTINUOUS
 62
    11
 10
60.0
 20
-132.49999999999989
 30
0.0
 40
2.5
  0
CIRCLE
  8
DETAIL
  6
CONTINUOUS
 62
     5
 10
60.0
 20
-132.49999999999989
 30
0.0
 40
2.5
  0
LINE
  8
BASIS
  6
DASHDOT
 62
     6
 10
60.0
 20
-152.5
 30
0.0
 11
60.0
 21
-112.5
 31
0.0
  0
LINE
  8
BASIS
  6
DASHDOT
 62
     6
 10
80.0
 20
-132.49999999999989
 30
0.0
 11
40.0
 21
-132.49999999999989
 31
0.0
  0
LINE
  8
SIZE
  6
CONTINUOUS
 62
    30
 10
247.78437999999991
 20
0.0
 30
0.0
 11
601.06930070716226
 21
0.0
 31
0.0
  0
LINE
  8
SIZE
  6
CONTINUOUS
 62
    30
 10
581.06930070716226
 20
-12.0
 30
0.0
 11
581.06930070716226
 21
-88.0
 31
0.0
  0
LINE
  8
SIZE
  6
CONTINUOUS
 62
    30
 10
581.06930070716226
 20
-318.39196900000002
 30
0.0
 11
581.06930070716226
 21
-100.0
 31
0.0
  0
TEXT
  8
SIZE
  6
CONTINUOUS
 62
    30
 10
556.06930070716226
 20
-293.39196957142849
 30
0.0
 40
64.0
  1
100
 50
90.0
 41
0.9
 72
     1
 11
556.06930070716226
 21
-224.82054099999999
 31
0.0
  0
CIRCLE
  8
SIZE
  6
CONTINUOUS
 62
    30
 10
581.06930070716226
 20
0.0
 30
0.0
 40
6.0
  0
LINE
  8
SIZE
  6
CONTINUOUS
 62
    30
 10
581.06930070716226
 20
0.0
 30
0.0
 11
581.06930070716226
 21
-12.0
 31
0.0
  0
CIRCLE
  8
SIZE
  6
CONTINUOUS
 62
    30
 10
581.06930070716226
 20
-100.0
 30
0.0
 40
6.0
  0
LINE
  8
SIZE
  6
CONTINUOUS
 62
    30
 10
581.06930070716226
 20
-100.0
 30
0.0
 11
581.06930070716226
 21
-88.0
 31
0.0
  0
LINE
  8
SIZE
  6
CONTINUOUS
 62
    30
 10
-100.0
 20
132.49999999999989
 30
0.0
 11
-425.45509226923792
 21
132.49999999999989
 31
0.0
  0
LINE
  8
SIZE
  6
CONTINUOUS
 62
    30
 10
-100.0
 20
-132.49999999999989
 30
0.0
 11
-425.45509226923792
 21
-132.49999999999989
 31
0.0
  0
LINE
  8
SIZE
  6
CONTINUOUS
 62
    30
 10
-405.45509226923792
 20
120.5
 30
0.0
 11
-405.45509226923792
 21
-120.5
 31
0.0
  0
CIRCLE
  8
SIZE
  6
CONTINUOUS
 62
    30
 10
-405.45509226923792
 20
132.49999999999989
 30
0.0
 40
6.0
  0
LINE
  8
SIZE
  6
CONTINUOUS
 62
    30
 10
-405.45509226923792
 20
132.49999999999989
 30
0.0
 11
-405.45509226923792
 21
120.5
 31
0.0
  0
CIRCLE
  8
SIZE
  6
CONTINUOUS
 62
    30
 10
-405.45509226923792
 20
-132.49999999999989
 30
0.0
 40
6.0
  0
LINE
  8
SIZE
  6
CONTINUOUS
 62
    30
 10
-405.45509226923792
 20
-132.49999999999989
 30
0.0
 11
-405.45509226923792
 21
-120.5
 31
0.0
  0
TEXT
  8
SIZE
  6
CONTINUOUS
 62
    30
 10
-430.45509226923792
 20
-74.05714285714285
 30
0.0
 40
64.0
  1
265
 50
90.0
 41
0.9
 72
     1
 11
-430.45509226923792
 21
0.0
 31
0.0
  0
LINE
  8
SIZE
  6
CONTINUOUS
 62
    30
 10
60.0
 20
168.0
 30
0.0
 11
60.0
 21
282.45992100000001
 31
0.0
  0
LINE
  8
SIZE
  6
CONTINUOUS
 62
    30
 10
-60.0
 20
168.0
 30
0.0
 11
-60.0
 21
282.45992100000001
 31
0.0
  0
LINE
  8
SIZE
  6
CONTINUOUS
 62
    30
 10
72.0
 20
262.45992099999989
 30
0.0
 11
84.0
 21
262.45992099999989
 31
0.0
  0
LINE
  8
SIZE
  6
CONTINUOUS
 62
    30
 10
-72.0
 20
262.45992099999989
 30
0.0
 11
-84.0
 21
262.45992099999989
 31
0.0
  0
LINE
  8
SIZE
  6
CONTINUOUS
 62
    30
 10
60.0
 20
262.45992099999989
 30
0.0
 11
-60.0
 21
262.45992099999989
 31
0.0
  0
CIRCLE
  8
SIZE
  6
CONTINUOUS
 62
    30
 10
60.0
 20
262.45992099999989
 30
0.0
 40
6.0
  0
LINE
  8
SIZE
  6
CONTINUOUS
 62
    30
 10
60.0
 20
262.45992099999989
 30
0.0
 11
72.0
 21
262.45992099999989
 31
0.0
  0
CIRCLE
  8
SIZE
  6
CONTINUOUS
 62
    30
 10
-60.0
 20
262.45992099999989
 30
0.0
 40
6.0
  0
LINE
  8
SIZE
  6
CONTINUOUS
 62
    30
 10
-60.0
 20
262.45992099999989
 30
0.0
 11
-72.0
 21
262.45992099999989
 31
0.0
  0
TEXT
  8
SIZE
  6
CONTINUOUS
 62
    30
 10
-68.571428571428569
 20
287.45992099999989
 30
0.0
 40
64.0
  1
120
 41
0.9
 72
     1
 11
0.0
 21
287.45992099999989
 31
0.0
  0
LINE
  8
DETAIL
  6
CONTINUOUS
 62
     5
 10
120.0
 20
120.0
 30
0.0
 11
-120.0
 21
120.0
 31
0.0
  0
LINE
  8
NOTE
  6
CONTINUOUS
 62
     4
 10
-596.91018573930978
 20
216.180443
 30
0.0
 11
-203.33979099999999
 21
216.180443
 31
0.0
  0
TEXT
  8
NOTE
  6
CONTINUOUS
 62
     4
 10
-581.14387757142856
 20
240.1241599999997
 30
0.0
 40
64.0
  1
4-φ5×8
 41
0.9
  0
LINE
  8
NOTE
  6
CONTINUOUS
 62
     4
 10
-203.33979099999999
 20
216.180443
 30
0.0
 11
-70.330620665075799
 21
138.60558669993199
 31
0.0
  0
LINE
  8
NOTE
  6
CONTINUOUS
 62
     4
 10
-80.0
 20
120.0
 30
0.0
 11
-80.0
 21
123.29489709404019
 31
0.0
  0
LINE
  8
DETAIL
  6
CONTINUOUS
 62
     5
 10
-81.996907329720898
 20
124.2933507589005
 30
0.0
 11
-80.0
 21
124.2933507589005
 31
0.0
  0
LINE
  8
DETAIL
  6
CONTINUOUS
 62
     5
 10
-82.995360994581006
 20
123.29489709404019
 30
0.0
 11
-80.0
 21
123.29489709404019
 31
0.0
  0
LINE
  8
DETAIL
  6
CONTINUOUS
 62
     5
 10
-82.995360994581006
 20
120.0
 30
0.0
 11
-82.995360994581006
 21
123.29489709404019
 31
0.0
  0
LINE
  8
DETAIL
  6
CONTINUOUS
 62
     5
 10
-81.996907329720898
 20
120.0
 30
0.0
 11
-81.996907329720898
 21
124.2933507589005
 31
0.0
  0
LINE
  8
DETAIL
  6
CONTINUOUS
 62
     5
 10
-81.996941141601155
 20
124.29331486034199
 30
0.0
 11
-82.995288137322405
 21
123.294967864621
 31
0.0
  0
LINE
  8
DETAIL
  6
CONTINUOUS
 62
     5
 10
-78.003092670279102
 20
124.2933507589005
 30
0.0
 11
-80.0
 21
124.2933507589005
 31
0.0
  0
LINE
  8
DETAIL
  6
CONTINUOUS
 62
     5
 10
-77.004639005418767
 20
123.29489709404019
 30
0.0
 11
-80.0
 21
123.29489709404019
 31
0.0
  0
LINE
  8
DETAIL
  6
CONTINUOUS
 62
     5
 10
-77.004639005418767
 20
120.0
 30
0.0
 11
-77.004639005418767
 21
123.29489709404019
 31
0.0
  0
LINE
  8
DETAIL
  6
CONTINUOUS
 62
     5
 10
-78.003092670279102
 20
120.0
 30
0.0
 11
-78.003092670279102
 21
124.2933507589005
 31
0.0
  0
LINE
  8
DETAIL
  6
CONTINUOUS
 62
     5
 10
-78.003057604915739
 20
124.29316403962051
 30
0.0
 11
-77.00471060919449
 21
123.294817043899
 31
0.0
  0
LINE
  8
NOTE
  6
CONTINUOUS
 62
     4
 10
-64.34731240307076
 20
136.93683820725181
 30
0.0
 11
-59.999996381903429
 21
132.4999989378955
 31
0.0
  0
LINE
  8
NOTE
  6
CONTINUOUS
 62
     4
 10
-59.999996381903429
 20
132.4999989378955
 30
0.0
 11
-65.983304643908468
 21
134.16874743057559
 31
0.0
  0
LINE
  8
NOTE
  6
CONTINUOUS
 62
     4
 10
-59.999996381903429
 20
132.4999989378955
 30
0.0
 11
-70.330620665075799
 21
138.60558669993191
 31
0.0
  0
LINE
  8
NOTE
  6
CONTINUOUS
 62
     4
 10
80.0
 20
120.0
 30
0.0
 11
80.0
 21
123.29489709404019
 31
0.0
  0
LINE
  8
DETAIL
  6
CONTINUOUS
 62
     5
 10
81.996907329720898
 20
124.2933507589005
 30
0.0
 11
80.0
 21
124.2933507589005
 31
0.0
  0
LINE
  8
DETAIL
  6
CONTINUOUS
 62
     5
 10
82.995360994581006
 20
123.29489709404019
 30
0.0
 11
80.0
 21
123.29489709404019
 31
0.0
  0
LINE
  8
DETAIL
  6
CONTINUOUS
 62
     5
 10
82.995360994581006
 20
120.0
 30
0.0
 11
82.995360994581006
 21
123.29489709404019
 31
0.0
  0
LINE
  8
DETAIL
  6
CONTINUOUS
 62
     5
 10
81.996907329720898
 20
120.0
 30
0.0
 11
81.996907329720898
 21
124.2933507589005
 31
0.0
  0
LINE
  8
DETAIL
  6
CONTINUOUS
 62
     5
 10
81.996941141601155
 20
124.29331486034199
 30
0.0
 11
82.995288137322405
 21
123.294967864621
 31
0.0
  0
LINE
  8
DETAIL
  6
CONTINUOUS
 62
     5
 10
78.003092670279102
 20
124.2933507589005
 30
0.0
 11
80.0
 21
124.2933507589005
 31
0.0
  0
LINE
  8
DETAIL
  6
CONTINUOUS
 62
     5
 10
77.004639005418767
 20
123.29489709404019
 30
0.0
 11
80.0
 21
123.29489709404019
 31
0.0
  0
LINE
  8
DETAIL
  6
CONTINUOUS
 62
     5
 10
77.004639005418767
 20
120.0
 30
0.0
 11
77.004639005418767
 21
123.29489709404019
 31
0.0
  0
LINE
  8
DETAIL
  6
CONTINUOUS
 62
     5
 10
78.003092670279102
 20
120.0
 30
0.0
 11
78.003092670279102
 21
124.2933507589005
 31
0.0
  0
LINE
  8
DETAIL
  6
CONTINUOUS
 62
     5
 10
78.003057604915739
 20
124.29316403962051
 30
0.0
 11
77.00471060919449
 21
123.294817043899
 31
0.0
  0
LINE
  8
SIZE
  6
CONTINUOUS
 62
    30
 10
201.24332751954529
 20
-99.987770244235435
 30
0.0
 11
600.49068665489358
 21
-100.0
 31
0.0
  0
LINE
  8
SIZE
  6
CONTINUOUS
 62
    30
 10
162.0
 20
148.0
 30
0.0
 11
601.06930070716226
 21
147.99999999999989
 31
0.0
  0
LINE
  8
SIZE
  6
CONTINUOUS
 62
    30
 10
247.78438000000011
 20
0.0
 30
0.0
 11
601.06930070716226
 21
-0.0000000000001137
 31
0.0
  0
LINE
  8
SIZE
  6
CONTINUOUS
 62
    30
 10
581.06930070716226
 20
11.99999999999989
 30
0.0
 11
581.06930070716226
 21
135.99999999999989
 31
0.0
  0
LINE
  8
SIZE
  6
CONTINUOUS
 62
    30
 10
581.06930070716226
 20
147.99999999999989
 30
0.0
 11
581.06930070716226
 21
347.14285714285711
 31
0.0
  0
CIRCLE
  8
SIZE
  6
CONTINUOUS
 62
    30
 10
581.06930070716226
 20
-0.0000000000001137
 30
0.0
 40
6.0
  0
LINE
  8
SIZE
  6
CONTINUOUS
 62
    30
 10
581.06930070716226
 20
-0.0000000000001137
 30
0.0
 11
581.06930070716226
 21
11.99999999999989
 31
0.0
  0
CIRCLE
  8
SIZE
  6
CONTINUOUS
 62
    30
 10
581.06930070716226
 20
147.99999999999989
 30
0.0
 40
6.0
  0
LINE
  8
SIZE
  6
CONTINUOUS
 62
    30
 10
581.06930070716226
 20
147.99999999999989
 30
0.0
 11
581.06930070716226
 21
135.99999999999989
 31
0.0
  0
TEXT
  8
SIZE
  6
CONTINUOUS
 62
    30
 10
556.06930070716226
 20
185.00000000000011
 30
0.0
 40
64.0
  1
148
 50
90.0
 41
0.9
 72
     1
 11
556.06930070716226
 21
253.5714285714287
 31
0.0
  0
LINE
  8
BASIS
  6
DASHDOT
 62
     6
 10
229.23539899999989
 20
5.0
 30
0.0
 11
-229.23539899999989
 21
5.0
 31
0.0
  0
LINE
  8
NOTE
  6
CONTINUOUS
 62
     4
 10
112.87999999046311
 20
-177.6187494246137
 30
0.0
 11
112.87999999046311
 21
-163.91774104540241
 31
0.0
  0
ARC
  8
DETAIL
  6
CONTINUOUS
 62
     5
 10
110.40133295363169
 20
-231.9962811921375
 30
0.0
 40
2.3999999999999999
 50
90.0
 51
178.0908475669994
  0
LINE
  8
DETAIL
  6
CONTINUOUS
 62
     5
 10
115.3586670272946
 20
-229.59628119213741
 30
0.0
 11
110.40133295363169
 21
-229.59628119213741
 31
0.0
  0
ARC
  8
DETAIL
  6
CONTINUOUS
 62
     5
 10
115.3586670272946
 20
-231.9962811921375
 30
0.0
 40
2.3999999999999999
 50
1.90915243300058
 51
90.0
  0
LINE
  8
DETAIL
  6
CONTINUOUS
 62
     5
 10
118.4799999904633
 20
-253.5962811921377
 30
0.0
 11
117.7573348040448
 21
-231.9163255995793
 31
0.0
  0
LINE
  8
DETAIL
  6
CONTINUOUS
 62
     5
 10
107.2799999904632
 20
-253.5962811921377
 30
0.0
 11
118.4799999904633
 21
-253.5962811921377
 31
0.0
  0
LINE
  8
DETAIL
  6
CONTINUOUS
 62
     5
 10
108.00266517688191
 20
-231.9163255995793
 30
0.0
 11
107.2799999904632
 21
-253.5962811921377
 31
0.0
  0
LINE
  8
DETAIL
  6
CONTINUOUS
 62
     5
 10
113.6799999904631
 20
-205.24625429550471
 30
0.0
 11
113.6799999904631
 21
-168.3012921064869
 31
0.0
  0
LINE
  8
DETAIL
  6
CONTINUOUS
 62
     5
 10
112.07999999046319
 20
-205.24625429550471
 30
0.0
 11
112.07999999046319
 21
-168.3012921064869
 31
0.0
  0
LINE
  8
DETAIL
  6
CONTINUOUS
 62
     5
 10
113.6799999904631
 20
-229.59628119213741
 30
0.0
 11
113.6799999904631
 21
-206.8854569581581
 31
0.0
  0
LINE
  8
DETAIL
  6
CONTINUOUS
 62
     5
 10
112.07999999046319
 20
-229.59628119213741
 30
0.0
 11
112.07999999046319
 21
-206.8854569581581
 31
0.0
  0
LINE
  8
SIZE
  6
CONTINUOUS
 62
    30
 10
112.87999999046311
 20
-197.6187494246137
 30
0.0
 11
112.87999999046311
 21
-402.87200604781992
 31
0.0
  0
LINE
  8
SIZE
  6
CONTINUOUS
 62
    30
 10
0.0
 20
-252.92935700000001
 30
0.0
 11
0.0
 21
-402.87200604781992
 31
0.0
  0
LINE
  8
SIZE
  6
CONTINUOUS
 62
    30
 10
12.0
 20
-382.87200604781992
 30
0.0
 11
100.87999999046311
 21
-382.87200604781992
 31
0.0
  0
LINE
  8
SIZE
  6
CONTINUOUS
 62
    30
 10
112.87999999046311
 20
-382.87200604781992
 30
0.0
 11
333.62164373128542
 21
-382.87200604781992
 31
0.0
  0
CIRCLE
  8
SIZE
  6
CONTINUOUS
 62
    30
 10
0.0
 20
-382.87200604781992
 30
0.0
 40
6.0
  0
LINE
  8
SIZE
  6
CONTINUOUS
 62
    30
 10
0.0
 20
-382.87200604781992
 30
0.0
 11
12.0
 21
-382.87200604781992
 31
0.0
  0
CIRCLE
  8
SIZE
  6
CONTINUOUS
 62
    30
 10
112.87999999046311
 20
-382.87200604781992
 30
0.0
 40
6.0
  0
LINE
  8
SIZE
  6
CONTINUOUS
 62
    30
 10
112.87999999046311
 20
-382.87200604781992
 30
0.0
 11
100.87999999046311
 21
-382.87200604781992
 31
0.0
  0
TEXT
  8
SIZE
  6
CONTINUOUS
 62
    30
 10
185.193072302714
 20
-357.87200604781992
 30
0.0
 40
64.0
  1
116
 41
0.9
 72
     1
 11
246.90735801699981
 21
-357.87200604781992
 31
0.0
  0
LINE
  8
NOTE
  6
CONTINUOUS
 62
     4
 10
192.30373100566479
 20
11.175641641142141
 30
0.0
 11
192.97167532234931
 21
5.0
 31
0.0
  0
LINE
  8
NOTE
  6
CONTINUOUS
 62
     4
 10
192.97167532234931
 20
5.0
 30
0.0
 11
195.48104795916331
 21
10.682230922763379
 31
0.0
  0
LINE
  8
NOTE
  6
CONTINUOUS
 62
     4
 10
192.97167532234931
 20
5.0
 30
0.0
 11
194.81310364247881
 21
16.85787256390552
 31
0.0
  0
LINE
  8
NOTE
  6
CONTINUOUS
 62
     4
 10
194.81310364247909
 20
16.85787256390552
 30
0.0
 11
249.61580548203571
 21
369.75971917249939
 31
0.0
  0
LINE
  8
NOTE
  6
CONTINUOUS
 62
     4
 10
249.61580548203571
 20
369.75971917249939
 30
0.0
 11
638.01580548203583
 21
369.75971917249939
 31
0.0
  0
TEXT
  8
NOTE
  6
CONTINUOUS
 62
     4
 10
262.37721061239313
 20
391.94913496787058
 30
0.0
 40
64.0
  1
羽根中心線
 41
0.9
 72
     2
 11
592.61721061239314
 21
391.94913496787058
 31
0.0
  0
LINE
  8
SIZE
  6
CONTINUOUS
 62
    30
 10
249.23539899999989
 20
5.0
 30
0.0
 11
430.89639363669897
 21
4.9999999999999432
 31
0.0
  0
LINE
  8
SIZE
  6
CONTINUOUS
 62
    30
 10
249.235399
 20
0.0
 30
0.0
 11
430.89639363669897
 21
-0.0000000000000568
 31
0.0
  0
LINE
  8
SIZE
  6
CONTINUOUS
 62
    30
 10
410.89639363669892
 20
-12.00000000000006
 30
0.0
 11
410.89639363669892
 21
-24.00000000000006
 31
0.0
  0
LINE
  8
SIZE
  6
CONTINUOUS
 62
    30
 10
410.89639363669892
 20
16.99999999999994
 30
0.0
 11
410.89639363669892
 21
117.40000000000001
 31
0.0
  0
LINE
  8
SIZE
  6
CONTINUOUS
 62
    30
 10
410.89639363669892
 20
-0.0000000000000568
 30
0.0
 11
410.89639363669892
 21
4.9999999999999432
 31
0.0
  0
CIRCLE
  8
SIZE
  6
CONTINUOUS
 62
    30
 10
410.89639363669892
 20
-0.0000000000000568
 30
0.0
 40
6.0
  0
LINE
  8
SIZE
  6
CONTINUOUS
 62
    30
 10
410.89639363669892
 20
-0.0000000000000568
 30
0.0
 11
410.89639363669892
 21
-12.00000000000006
 31
0.0
  0
CIRCLE
  8
SIZE
  6
CONTINUOUS
 62
    30
 10
410.89639363669892
 20
4.9999999999999432
 30
0.0
 40
6.0
  0
LINE
  8
SIZE
  6
CONTINUOUS
 62
    30
 10
410.89639363669892
 20
4.9999999999999432
 30
0.0
 11
410.89639363669892
 21
16.99999999999994
 31
0.0
  0
TEXT
  8
SIZE
  6
CONTINUOUS
 62
    30
 10
385.89639363669892
 20
54.000000000000057
 30
0.0
 40
64.0
  1
5
 50
90.0
 41
0.9
 72
     1
 11
385.89639363669892
 21
73.200000000000045
 31
0.0
  0
LINE
  8
SIZE
  6
CONTINUOUS
 62
    30
 10
-140.0
 20
120.0
 30
0.0
 11
-299.57600628167069
 21
120.0000000000001
 31
0.0
  0
LINE
  8
SIZE
  6
CONTINUOUS
 62
    30
 10
-140.0
 20
-120.0
 30
0.0
 11
-299.57600628167069
 21
-119.9999999999999
 31
0.0
  0
LINE
  8
SIZE
  6
CONTINUOUS
 62
    30
 10
-279.57600628167069
 20
132.00000000000011
 30
0.0
 11
-279.57600628167069
 21
144.00000000000011
 31
0.0
  0
LINE
  8
SIZE
  6
CONTINUOUS
 62
    30
 10
-279.5760062816708
 20
-131.99999999999989
 30
0.0
 11
-279.5760062816708
 21
-143.99999999999989
 31
0.0
  0
LINE
  8
SIZE
  6
CONTINUOUS
 62
    30
 10
-279.57600628167069
 20
120.0
 30
0.0
 11
-279.57600628167069
 21
-120.0
 31
0.0
  0
CIRCLE
  8
SIZE
  6
CONTINUOUS
 62
    30
 10
-279.57600628167069
 20
120.0
 30
0.0
 40
6.0
  0
LINE
  8
SIZE
  6
CONTINUOUS
 62
    30
 10
-279.57600628167069
 20
120.0
 30
0.0
 11
-279.57600628167069
 21
132.0
 31
0.0
  0
CIRCLE
  8
SIZE
  6
CONTINUOUS
 62
    30
 10
-279.57600628167069
 20
-120.0
 30
0.0
 40
6.0
  0
LINE
  8
SIZE
  6
CONTINUOUS
 62
    30
 10
-279.57600628167069
 20
-120.0
 30
0.0
 11
-279.57600628167069
 21
-132.0
 31
0.0
  0
TEXT
  8
SIZE
  6
CONTINUOUS
 62
    30
 10
-304.57600628167069
 20
-110.5371428571429
 30
0.0
 40
64.0
  1
□240
 50
90.0
 41
0.9
 72
     1
 11
-304.57600628167069
 21
0.0
 31
0.0
  0
TEXT
  8
ETC
  6
CONTINUOUS
 62
    61
 10
707.25788956944143
 20
437.66166682979042
 30
0.0
 40
64.0
  1
EX-20EF9_3
 41
0.9
  0
TEXT
  8
ETC
  6
CONTINUOUS
 62
    61
 10
703.07189556944104
 20
319.70635681495918
 30
0.0
 40
64.0
  1
換気扇
 41
0.9
  0
TEXT
  8
ETC
  6
CONTINUOUS
 62
    61
 10
753.773293817997
 20
211.55758392873389
 30
0.0
 40
40.0
  1
EX-20EF9
 50
0.0
 41
0.9
 51
0.0
  7
STANDARD
 71
     0
 11
0.0
 21
0.0
 31
0.0
210
0.0
220
0.0
230
1.0
  0
TEXT
  8
ETC
  6
CONTINUOUS
 62
    61
 10
753.773293817997
 20
145.55758392873389
 30
0.0
 40
40.0
  1
EX-20LF9
 50
0.0
 41
0.9
 51
0.0
  7
STANDARD
 71
     0
 11
0.0
 21
0.0
 31
0.0
210
0.0
220
0.0
230
1.0
  0
ENDSEC
  0
EOF
