  0
SECTION
  2
HEADER
  9
$ACADVER
  1
AC1009
  9
$INSBASE
 10
0.0
 20
0.0
 30
0.0
  9
$EXTMIN
 10
-606.63990500000011
 20
-401.11516199999988
 30
0.0
  9
$EXTMAX
 10
1046.835263139443
 20
668.89918692527772
 30
50.0
  9
$LIMMIN
 10
-2970.0
 20
-2100.0
  9
$LIMMAX
 10
2970.0
 20
2100.0
  9
$ORTHOMODE
 70
     0
  9
$REGENMODE
 70
     0
  9
$FILLMODE
 70
     1
  9
$QTEXTMODE
 70
     0
  9
$MIRRTEXT
 70
     0
  9
$DRAGMODE
 70
     2
  9
$LTSCALE
 40
20.0
  9
$OSMODE
 70
   171
  9
$ATTMODE
 70
     1
  9
$TEXTSIZE
 40
64.0
  9
$TRACEWID
 40
0.05
  9
$TEXTSTYLE
  7
STANDARD
  9
$CLAYER
  8
SIZE
  9
$CELTYPE
  6
CONTINUOUS
  9
$CECOLOR
 62
     8
  9
$DIMSCALE
 40
1.0
  9
$DIMASZ
 40
12.0
  9
$DIMEXO
 40
20.0
  9
$DIMDLI
 40
200.0
  9
$DIMRND
 40
0.0
  9
$DIMDLE
 40
0.0
  9
$DIMEXE
 40
20.0
  9
$DIMTP
 40
0.0
  9
$DIMTM
 40
0.0
  9
$DIMTXT
 40
64.0
  9
$DIMCEN
 40
0.09
  9
$DIMTSZ
 40
0.0
  9
$DIMTOL
 70
     0
  9
$DIMLIM
 70
     0
  9
$DIMTIH
 70
     0
  9
$DIMTOH
 70
     0
  9
$DIMSE1
 70
     0
  9
$DIMSE2
 70
     0
  9
$DIMTAD
 70
     1
  9
$DIMZIN
 70
     8
  9
$DIMBLK
  1
DOT1
  9
$DIMASO
 70
     1
  9
$DIMSHO
 70
     0
  9
$DIMPOST
  1

  9
$DIMAPOST
  1

  9
$DIMALT
 70
     0
  9
$DIMALTD
 70
     2
  9
$DIMALTF
 40
25.399999999999999
  9
$DIMLFAC
 40
1.0
  9
$DIMTOFL
 70
     1
  9
$DIMTVP
 40
0.0
  9
$DIMTIX
 70
     1
  9
$DIMSOXD
 70
     0
  9
$DIMSAH
 70
     1
  9
$DIMBLK1
  1
ORIGIN
  9
$DIMBLK2
  1
ORIGIN
  9
$DIMSTYLE
  2
STANDARD
  9
$DIMCLRD
 70
     0
  9
$DIMCLRE
 70
     0
  9
$DIMCLRT
 70
     0
  9
$DIMTFAC
 40
1.0
  9
$DIMGAP
 40
0.09
  9
$LUNITS
 70
     2
  9
$LUPREC
 70
     4
  9
$SKETCHINC
 40
0.1
  9
$FILLETRAD
 40
17.0
  9
$AUNITS
 70
     1
  9
$AUPREC
 70
     3
  9
$MENU
  1
ACAD
  9
$ELEVATION
 40
0.0
  9
$PELEVATION
 40
0.0
  9
$THICKNESS
 40
50.0
  9
$LIMCHECK
 70
     0
  9
$BLIPMODE
 70
     0
  9
$CHAMFERA
 40
0.0
  9
$CHAMFERB
 40
0.0
  9
$SKPOLY
 70
     0
  9
$TDCREATE
 40
2451453.4938508091
  9
$TDUPDATE
 40
2453761.4277168289
  9
$TDINDWG
 40
0.7534014815
  9
$TDUSRTIMER
 40
0.7534012963
  9
$USRTIMER
 70
     1
  9
$ANGBASE
 50
0.0
  9
$ANGDIR
 70
     0
  9
$PDMODE
 70
     3
  9
$PDSIZE
 40
-2.0
  9
$PLINEWID
 40
0.0
  9
$COORDS
 70
     2
  9
$SPLFRAME
 70
     0
  9
$SPLINETYPE
 70
     6
  9
$SPLINESEGS
 70
     8
  9
$ATTDIA
 70
     0
  9
$ATTREQ
 70
     1
  9
$HANDLING
 70
 22529
  9
$HANDSEED
  5
168
  9
$SURFTAB1
 70
     6
  9
$SURFTAB2
 70
     6
  9
$SURFTYPE
 70
     6
  9
$SURFU
 70
     6
  9
$SURFV
 70
     6
  9
$UCSNAME
  2

  9
$UCSORG
 10
0.0
 20
0.0
 30
0.0
  9
$UCSXDIR
 10
1.0
 20
0.0
 30
0.0
  9
$UCSYDIR
 10
0.0
 20
1.0
 30
0.0
  9
$PUCSNAME
  2

  9
$PUCSORG
 10
0.0
 20
0.0
 30
0.0
  9
$PUCSXDIR
 10
1.0
 20
0.0
 30
0.0
  9
$PUCSYDIR
 10
0.0
 20
1.0
 30
0.0
  9
$USERI1
 70
     0
  9
$USERI2
 70
     0
  9
$USERI3
 70
     0
  9
$USERI4
 70
     0
  9
$USERI5
 70
     0
  9
$USERR1
 40
20.0
  9
$USERR2
 40
0.0
  9
$USERR3
 40
0.0
  9
$USERR4
 40
0.0
  9
$USERR5
 40
0.0
  9
$WORLDVIEW
 70
     1
  9
$SHADEDGE
 70
     3
  9
$SHADEDIF
 70
    70
  9
$TILEMODE
 70
     1
  9
$MAXACTVP
 70
    64
  9
$PLIMCHECK
 70
     0
  9
$PEXTMIN
 10
1.0000000000000000E+020
 20
1.0000000000000000E+020
 30
1.0000000000000000E+020
  9
$PEXTMAX
 10
-1.0000000000000000E+020
 20
-1.0000000000000000E+020
 30
-1.0000000000000000E+020
  9
$PLIMMIN
 10
0.0
 20
0.0
  9
$PLIMMAX
 10
12.0
 20
9.0
  9
$UNITMODE
 70
     0
  9
$VISRETAIN
 70
     1
  9
$PLINEGEN
 70
     0
  9
$PSLTSCALE
 70
     1
  0
ENDSEC
  0
SECTION
  2
TABLES
  0
TABLE
  2
VPORT
 70
     5
  0
VPORT
  2
*ACTIVE
 70
     0
 10
0.0
 20
0.0
 11
1.0
 21
1.0
 12
32.976441665387021
 22
144.3593024812846
 13
0.0
 23
0.0
 14
1.0
 24
1.0
 15
0.0
 25
0.0
 16
0.0
 26
0.0
 36
1.0
 17
0.0
 27
0.0
 37
0.0
 40
1762.2665989237421
 41
1.4423558897243101
 42
50.0
 43
0.0
 44
0.0
 50
0.0
 51
0.0
 71
     0
 72
   100
 73
     1
 74
     0
 75
     0
 76
     0
 77
     0
 78
     0
  0
ENDTAB
  0
TABLE
  2
LTYPE
 70
     2
  0
LTYPE
  2
CONTINUOUS
 70
     0
  3
実線
 72
    65
 73
     0
 40
0.0
  0
LTYPE
  2
DASHDOT
 70
     0
  3
____ _ ____ _ ____ _ ____ _ ____ _ ____ _ ____
 72
    65
 73
     4
 40
5.5
 49
4.0
 49
-0.6
 49
0.3
 49
-0.6
  0
ENDTAB
  0
TABLE
  2
LAYER
 70
    12
  0
LAYER
  2
0
 70
     0
 62
     7
  6
CONTINUOUS
  0
LAYER
  2
SIZE
 70
     0
 62
    30
  6
CONTINUOUS
  0
LAYER
  2
BASIS
 70
     0
 62
     6
  6
DASHDOT
  0
LAYER
  2
OUTLINE
 70
     0
 62
     3
  6
CONTINUOUS
  0
LAYER
  2
DETAIL
 70
     0
 62
     5
  6
CONTINUOUS
  0
LAYER
  2
ARRANGE
 70
     0
 62
     1
  6
CONTINUOUS
  0
LAYER
  2
DEFPOINTS
 70
     0
 62
     7
  6
CONTINUOUS
  0
LAYER
  2
ETC
 70
     0
 62
    61
  6
CONTINUOUS
  0
LAYER
  2
FIX
 70
     0
 62
    11
  6
CONTINUOUS
  0
LAYER
  2
NOTE
 70
     0
 62
     4
  6
CONTINUOUS
  0
LAYER
  2
SERVICESPACE
 70
     0
 62
     2
  6
DASHDOT
  0
LAYER
  2
SYMBOLLINE
 70
     0
 62
    15
  6
CONTINUOUS
  0
ENDTAB
  0
TABLE
  2
STYLE
 70
     1
  0
STYLE
  2
STANDARD
 70
     0
 40
64.0
 41
0.9
 50
0.0
 71
     0
 42
64.0
  3
SIMPLEX.shx
  4
BIGFONT.shx
  0
ENDTAB
  0
TABLE
  2
VIEW
 70
     1
  0
VIEW
  2
ALL
 70
     0
 40
4282.6198079999986
 10
0.0
 20
41.309903999999989
 41
5940.0
 11
0.0
 21
0.0
 31
1.0
 12
0.0
 22
0.0
 32
0.0
 42
50.0
 43
0.0
 44
0.0
 50
0.0
 71
     0
  0
ENDTAB
  0
TABLE
  2
UCS
 70
     0
  0
ENDTAB
  0
TABLE
  2
APPID
 70
     1
  0
APPID
  2
ACAD
 70
     0
  0
ENDTAB
  0
TABLE
  2
DIMSTYLE
 70
     1
  0
DIMSTYLE
  2
STANDARD
 70
     0
  3

  4

  5

  6

  7

 40
1.0
 41
0.18
 42
0.0625
 43
0.38
 44
0.18
 45
0.0
 46
0.0
 47
0.0
 48
0.0
140
0.18
141
0.09
142
0.0
143
25.399999999999999
144
1.0
145
0.0
146
1.0
147
0.09
 71
     0
 72
     0
 73
     1
 74
     1
 75
     0
 76
     0
 77
     0
 78
     0
170
     0
171
     2
172
     0
173
     0
174
     0
175
     0
176
     0
177
     0
178
     0
  0
ENDTAB
  0
ENDSEC
  0
SECTION
  2
BLOCKS
  0
BLOCK
  8
0
  2
$MODEL_SPACE
 70
     0
 10
0.0
 20
0.0
 30
0.0
  3
$MODEL_SPACE
  1

  0
ENDBLK
  5
20
  8
0
  0
BLOCK
 67
     1
  8
0
  2
$PAPER_SPACE
 70
     0
 10
0.0
 20
0.0
 30
0.0
  3
$PAPER_SPACE
  1

  0
ENDBLK
  5
1C
 67
     1
  8
0
  0
BLOCK
  8
0
  2
DOT1
 70
     0
 10
0.0
 20
0.0
 30
0.0
  3
DOT1
  1

  0
CIRCLE
  5
34
  8
SIZE
  6
CONTINUOUS
 62
     7
 10
0.0
 20
0.0
 30
0.0
 40
3.0
  0
ENDBLK
  5
35
  8
0
  0
BLOCK
  8
0
  2
_ORIGIN
 70
     0
 10
0.0
 20
0.0
 30
0.0
  3
_ORIGIN
  1

  0
CIRCLE
  5
38
  8
0
  6
CONTINUOUS
 62
     7
 10
0.0
 20
0.0
 30
0.0
 40
0.5
  0
LINE
  5
39
  8
0
  6
CONTINUOUS
 62
     7
 10
0.0
 20
0.0
 30
0.0
 11
-1.0
 21
0.0
 31
0.0
  0
ENDBLK
  5
3A
  8
0
  0
ENDSEC
  0
SECTION
  2
ENTITIES
  0
LINE
  5
3D
  8
BASIS
  6
DASHDOT
 62
     6
 10
0.0
 20
176.132937
 30
0.0
 11
0.0
 21
-220.50679799999989
 31
0.0
  0
LINE
  5
3E
  8
BASIS
  6
DASHDOT
 62
     6
 10
196.60562300000001
 20
0.0
 30
0.0
 11
-200.338626
 21
0.0
 31
0.0
  0
CIRCLE
  5
3F
  8
ARRANGE
  6
CONTINUOUS
 62
     1
 39
50.0
 10
0.0
 20
0.0
 30
0.0
 40
40.0
  0
POINT
  5
40
  8
ARRANGE
  6
CONTINUOUS
 62
     1
 10
0.0
 20
0.0
 30
0.0
 39
50.0
  0
LINE
  5
41
  8
SIZE
  6
CONTINUOUS
 62
    30
 10
148.0
 20
165.999999
 30
0.0
 11
148.0
 21
407.21308399999992
 31
0.0
  0
LINE
  5
42
  8
SIZE
  6
CONTINUOUS
 62
    30
 10
-148.0
 20
165.999999
 30
0.0
 11
-148.0
 21
407.21308399999992
 31
0.0
  0
LINE
  5
43
  8
SIZE
  6
CONTINUOUS
 62
    30
 10
136.0
 20
387.21308399999998
 30
0.0
 11
-136.0
 21
387.21308399999998
 31
0.0
  0
CIRCLE
  5
44
  8
SIZE
  6
CONTINUOUS
 62
    30
 10
148.0
 20
387.21308399999998
 30
0.0
 40
6.0
  0
LINE
  5
45
  8
SIZE
  6
CONTINUOUS
 62
    30
 10
148.0
 20
387.21308399999998
 30
0.0
 11
136.0
 21
387.21308399999998
 31
0.0
  0
CIRCLE
  5
46
  8
SIZE
  6
CONTINUOUS
 62
    30
 10
-148.0
 20
387.21308399999998
 30
0.0
 40
6.0
  0
LINE
  5
47
  8
SIZE
  6
CONTINUOUS
 62
    30
 10
-148.0
 20
387.21308399999998
 30
0.0
 11
-136.0
 21
387.21308399999998
 31
0.0
  0
TEXT
  5
48
  8
SIZE
  6
CONTINUOUS
 62
    30
 10
-72.685714285714297
 20
412.21308399999992
 30
0.0
 40
64.0
  1
296
 41
0.9
 72
     1
 11
0.0
 21
412.21308399999992
 31
0.0
  0
POINT
  5
49
  8
DEFPOINTS
  6
CONTINUOUS
 62
    30
 10
148.0
 20
145.999999
 30
0.0
  0
POINT
  5
4A
  8
DEFPOINTS
  6
CONTINUOUS
 62
    30
 10
-148.0
 20
145.999999
 30
0.0
  0
POINT
  5
4B
  8
DEFPOINTS
  6
CONTINUOUS
 62
    30
 10
-148.0
 20
387.21308399999998
 30
0.0
  0
LINE
  5
4C
  8
SIZE
  6
CONTINUOUS
 62
    30
 10
-166.0
 20
148.0
 30
0.0
 11
-537.63990499999989
 21
148.0
 31
0.0
  0
LINE
  5
4D
  8
SIZE
  6
CONTINUOUS
 62
    30
 10
-166.0
 20
-172.0
 30
0.0
 11
-537.63990499999989
 21
-172.0
 31
0.0
  0
LINE
  5
4E
  8
SIZE
  6
CONTINUOUS
 62
    30
 10
-517.63990499999989
 20
136.0
 30
0.0
 11
-517.63990499999989
 21
-160.0
 31
0.0
  0
CIRCLE
  5
4F
  8
SIZE
  6
CONTINUOUS
 62
    30
 10
-517.63990499999989
 20
148.0
 30
0.0
 40
6.0
  0
LINE
  5
50
  8
SIZE
  6
CONTINUOUS
 62
    30
 10
-517.63990499999989
 20
148.0
 30
0.0
 11
-517.63990499999989
 21
136.0
 31
0.0
  0
CIRCLE
  5
51
  8
SIZE
  6
CONTINUOUS
 62
    30
 10
-517.63990499999989
 20
-172.0
 30
0.0
 40
6.0
  0
LINE
  5
52
  8
SIZE
  6
CONTINUOUS
 62
    30
 10
-517.63990499999989
 20
-172.0
 30
0.0
 11
-517.63990499999989
 21
-160.0
 31
0.0
  0
TEXT
  5
53
  8
SIZE
  6
CONTINUOUS
 62
    30
 10
-542.63990499999989
 20
-86.057142857142836
 30
0.0
 40
64.0
  1
320
 50
90.0
 41
0.9
 72
     1
 11
-542.63990499999989
 21
-12.0
 31
0.0
  0
POINT
  5
54
  8
DEFPOINTS
  6
CONTINUOUS
 62
    30
 10
-146.0
 20
148.0
 30
0.0
  0
POINT
  5
55
  8
DEFPOINTS
  6
CONTINUOUS
 62
    30
 10
-146.0
 20
-172.0
 30
0.0
  0
POINT
  5
56
  8
DEFPOINTS
  6
CONTINUOUS
 62
    30
 10
-517.63990499999989
 20
-172.0
 30
0.0
  0
LINE
  5
57
  8
SIZE
  6
CONTINUOUS
 62
    30
 10
-220.33862599999989
 20
0.0
 30
0.0
 11
-307.44238799999988
 21
0.0
 31
0.0
  0
LINE
  5
58
  8
SIZE
  6
CONTINUOUS
 62
    30
 10
-166.0
 20
-172.0
 30
0.0
 11
-307.44238799999988
 21
-172.0
 31
0.0
  0
LINE
  5
59
  8
SIZE
  6
CONTINUOUS
 62
    30
 10
-287.44238799999999
 20
-12.0
 30
0.0
 11
-287.44238799999999
 21
-160.0
 31
0.0
  0
LINE
  5
5A
  8
SIZE
  6
CONTINUOUS
 62
    30
 10
-287.44238799999999
 20
-401.11516199999988
 30
0.0
 11
-287.44238799999999
 21
-172.0
 31
0.0
  0
TEXT
  5
5B
  8
SIZE
  6
CONTINUOUS
 62
    30
 10
-312.44238799999999
 20
-376.11516257142853
 30
0.0
 40
64.0
  1
172
 50
90.0
 41
0.9
 72
     1
 11
-312.44238799999999
 21
-307.54373399999992
 31
0.0
  0
CIRCLE
  5
5C
  8
SIZE
  6
CONTINUOUS
 62
    30
 10
-287.44238799999999
 20
0.0
 30
0.0
 40
6.0
  0
LINE
  5
5D
  8
SIZE
  6
CONTINUOUS
 62
    30
 10
-287.44238799999999
 20
0.0
 30
0.0
 11
-287.44238799999999
 21
-12.0
 31
0.0
  0
CIRCLE
  5
5E
  8
SIZE
  6
CONTINUOUS
 62
    30
 10
-287.44238799999999
 20
-172.0
 30
0.0
 40
6.0
  0
LINE
  5
5F
  8
SIZE
  6
CONTINUOUS
 62
    30
 10
-287.44238799999999
 20
-172.0
 30
0.0
 11
-287.44238799999999
 21
-160.0
 31
0.0
  0
POINT
  5
60
  8
DEFPOINTS
  6
CONTINUOUS
 62
    30
 10
-200.338626
 20
0.0
 30
0.0
  0
POINT
  5
61
  8
DEFPOINTS
  6
CONTINUOUS
 62
    30
 10
-146.0
 20
-172.0
 30
0.0
  0
POINT
  5
62
  8
DEFPOINTS
  6
CONTINUOUS
 62
    30
 10
-287.44238799999999
 20
-172.0
 30
0.0
  0
LINE
  5
63
  8
NOTE
  6
CONTINUOUS
 62
     4
 10
184.70137099999991
 20
-234.180556
 30
0.0
 11
148.0
 21
-100.0
 31
0.0
  0
LINE
  5
64
  8
NOTE
  6
CONTINUOUS
 62
     4
 10
300.70027399999998
 20
-234.180556
 30
0.0
 11
184.70137099999991
 21
-234.180556
 31
0.0
  0
TEXT
  5
65
  8
NOTE
  6
CONTINUOUS
 62
     4
 10
199.94893799999991
 20
-206.75360499999999
 30
0.0
 40
64.0
  1
EL
 41
0.9
  0
LINE
  5
66
  8
NOTE
  6
CONTINUOUS
 62
     4
 10
148.84472999999991
 20
-139.99107900000001
 30
0.0
 11
148.0
 21
-100.0
 31
0.0
  0
LINE
  5
67
  8
NOTE
  6
CONTINUOUS
 62
     4
 10
148.0
 20
-100.0
 30
0.0
 11
168.72709800000001
 21
-134.210925
 31
0.0
  0
LINE
  5
68
  8
NOTE
  6
CONTINUOUS
 62
     4
 10
148.0
 20
-120.0
 30
0.0
 11
148.0
 21
-80.0
 31
0.0
  0
LINE
  5
69
  8
NOTE
  6
CONTINUOUS
 62
     4
 10
128.0
 20
-100.0
 30
0.0
 11
168.0
 21
-100.0
 31
0.0
  0
LINE
  5
6A
  8
SIZE
  6
CONTINUOUS
 62
    30
 10
216.60562300000001
 20
0.0
 30
0.0
 11
432.43827800000003
 21
0.0
 31
0.0
  0
LINE
  5
6B
  8
SIZE
  6
CONTINUOUS
 62
    30
 10
188.0
 20
-100.0
 30
0.0
 11
432.43827800000003
 21
-100.0
 31
0.0
  0
LINE
  5
6C
  8
SIZE
  6
CONTINUOUS
 62
    30
 10
412.43827799999991
 20
-12.0
 30
0.0
 11
412.43827799999991
 21
-88.0
 31
0.0
  0
LINE
  5
6D
  8
SIZE
  6
CONTINUOUS
 62
    30
 10
412.43827799999991
 20
-317.34512799999999
 30
0.0
 11
412.43827799999991
 21
-100.0
 31
0.0
  0
TEXT
  5
6E
  8
SIZE
  6
CONTINUOUS
 62
    30
 10
387.43827799999991
 20
-292.34512857142852
 30
0.0
 40
64.0
  1
100
 50
90.0
 41
0.9
 72
     1
 11
387.43827799999991
 21
-223.77369999999999
 31
0.0
  0
CIRCLE
  5
6F
  8
SIZE
  6
CONTINUOUS
 62
    30
 10
412.43827799999991
 20
0.0
 30
0.0
 40
6.0
  0
LINE
  5
70
  8
SIZE
  6
CONTINUOUS
 62
    30
 10
412.43827799999991
 20
0.0
 30
0.0
 11
412.43827799999991
 21
-12.0
 31
0.0
  0
CIRCLE
  5
71
  8
SIZE
  6
CONTINUOUS
 62
    30
 10
412.43827799999991
 20
-100.0
 30
0.0
 40
6.0
  0
LINE
  5
72
  8
SIZE
  6
CONTINUOUS
 62
    30
 10
412.43827799999991
 20
-100.0
 30
0.0
 11
412.43827799999991
 21
-88.0
 31
0.0
  0
POINT
  5
73
  8
DEFPOINTS
  6
CONTINUOUS
 62
    30
 10
196.60562300000001
 20
0.0
 30
0.0
  0
POINT
  5
74
  8
DEFPOINTS
  6
CONTINUOUS
 62
    30
 10
168.0
 20
-100.0
 30
0.0
  0
POINT
  5
75
  8
DEFPOINTS
  6
CONTINUOUS
 62
    30
 10
412.43827799999991
 20
-100.0
 30
0.0
  0
LINE
  5
76
  8
DETAIL
  6
CONTINUOUS
 62
     5
 10
-148.0
 20
145.999999
 30
0.0
 11
-148.0
 21
-170.0
 31
0.0
  0
LINE
  5
77
  8
DETAIL
  6
CONTINUOUS
 62
     5
 10
148.0
 20
146.0
 30
0.0
 11
148.0
 21
-170.0
 31
0.0
  0
LINE
  5
78
  8
DETAIL
  6
CONTINUOUS
 62
     5
 10
146.0
 20
-172.0
 30
0.0
 11
-146.0
 21
-172.0
 31
0.0
  0
ARC
  5
79
  8
DETAIL
  6
CONTINUOUS
 62
     5
 10
146.0
 20
-170.0
 30
0.0
 40
2.0
 50
270.0
 51
359.99998099999988
  0
ARC
  5
7A
  8
DETAIL
  6
CONTINUOUS
 62
     5
 10
-146.0
 20
-170.0
 30
0.0
 40
2.0
 50
180.00007199999999
 51
270.0
  0
LINE
  5
7B
  8
DETAIL
  6
CONTINUOUS
 62
     5
 10
-146.0
 20
148.0
 30
0.0
 11
146.0
 21
148.0
 31
0.0
  0
ARC
  5
7C
  8
DETAIL
  6
CONTINUOUS
 62
     5
 10
146.0
 20
146.0
 30
0.0
 40
2.0
 50
359.99998099999988
 51
90.0
  0
ARC
  5
7D
  8
DETAIL
  6
CONTINUOUS
 62
     5
 10
146.0
 20
146.0
 30
0.0
 40
2.0
 50
359.99998099999988
 51
90.0
  0
ARC
  5
7E
  8
DETAIL
  6
CONTINUOUS
 62
     5
 10
-146.0
 20
146.0
 30
0.0
 40
2.0
 50
90.0
 51
180.0000189999999
  0
ARC
  5
7F
  8
DETAIL
  6
CONTINUOUS
 62
     5
 10
-146.0
 20
146.0
 30
0.0
 40
2.0
 50
90.0
 51
180.0000189999999
  0
LINE
  5
80
  8
OUTLINE
  6
CONTINUOUS
 62
     3
 10
146.0
 20
-172.0
 30
0.0
 11
-146.0
 21
-172.0
 31
0.0
  0
LINE
  5
81
  8
OUTLINE
  6
CONTINUOUS
 62
     3
 10
-146.0
 20
148.0
 30
0.0
 11
146.0
 21
148.0
 31
0.0
  0
LINE
  5
82
  8
OUTLINE
  6
CONTINUOUS
 62
     3
 10
148.0
 20
146.0
 30
0.0
 11
148.0
 21
-170.0
 31
0.0
  0
ARC
  5
83
  8
OUTLINE
  6
CONTINUOUS
 62
     3
 10
146.0
 20
-170.0
 30
0.0
 40
2.0
 50
270.0
 51
359.99998099999988
  0
ARC
  5
84
  8
OUTLINE
  6
CONTINUOUS
 62
     3
 10
146.0
 20
146.0
 30
0.0
 40
2.0
 50
359.99998099999988
 51
90.0
  0
ARC
  5
85
  8
OUTLINE
  6
CONTINUOUS
 62
     3
 10
146.0
 20
146.0
 30
0.0
 40
2.0
 50
359.99998099999988
 51
90.0
  0
LINE
  5
86
  8
OUTLINE
  6
CONTINUOUS
 62
     3
 10
-148.0
 20
145.999999
 30
0.0
 11
-148.0
 21
-170.0
 31
0.0
  0
ARC
  5
87
  8
OUTLINE
  6
CONTINUOUS
 62
     3
 10
-146.0
 20
-170.0
 30
0.0
 40
2.0
 50
180.00007199999999
 51
270.0
  0
ARC
  5
88
  8
OUTLINE
  6
CONTINUOUS
 62
     3
 10
-146.0
 20
146.0
 30
0.0
 40
2.0
 50
90.0
 51
180.0000189999999
  0
ARC
  5
89
  8
OUTLINE
  6
CONTINUOUS
 62
     3
 10
-146.0
 20
146.0
 30
0.0
 40
2.0
 50
90.0
 51
180.0000189999999
  0
CIRCLE
  5
8A
  8
FIX
  6
CONTINUOUS
 62
    11
 39
50.0
 10
60.0
 20
132.49999999999989
 30
0.0
 40
2.5
  0
CIRCLE
  5
8B
  8
FIX
  6
CONTINUOUS
 62
    11
 39
50.0
 10
-60.0
 20
132.49999999999989
 30
0.0
 40
2.5
  0
LINE
  5
8C
  8
DETAIL
  6
CONTINUOUS
 62
     5
 10
120.0
 20
100.0
 30
0.0
 11
-120.0
 21
100.0
 31
0.0
  0
LINE
  5
8D
  8
DETAIL
  6
CONTINUOUS
 62
     5
 10
120.0
 20
120.0
 30
0.0
 11
-120.0
 21
120.0
 31
0.0
  0
LINE
  5
8E
  8
NOTE
  6
CONTINUOUS
 62
     4
 10
-60.0
 20
152.5
 30
0.0
 11
-60.0
 21
112.5
 31
0.0
  0
LINE
  5
8F
  8
NOTE
  6
CONTINUOUS
 62
     4
 10
-80.0
 20
132.49999999999989
 30
0.0
 11
-40.0
 21
132.49999999999989
 31
0.0
  0
CIRCLE
  5
90
  8
DETAIL
  6
CONTINUOUS
 62
     5
 10
-60.0
 20
132.49999999999989
 30
0.0
 40
2.5
  0
CIRCLE
  5
91
  8
DETAIL
  6
CONTINUOUS
 62
     5
 10
60.0
 20
132.49999999999989
 30
0.0
 40
2.5
  0
LINE
  5
92
  8
NOTE
  6
CONTINUOUS
 62
     4
 10
60.0
 20
152.5
 30
0.0
 11
60.0
 21
112.5
 31
0.0
  0
LINE
  5
93
  8
NOTE
  6
CONTINUOUS
 62
     4
 10
80.0
 20
132.49999999999989
 30
0.0
 11
40.0
 21
132.49999999999989
 31
0.0
  0
LINE
  5
94
  8
NOTE
  6
CONTINUOUS
 62
     4
 10
99.769186000000005
 20
136.79089899999991
 30
0.0
 11
60.0
 21
132.49999999999989
 31
0.0
  0
LINE
  5
95
  8
NOTE
  6
CONTINUOUS
 62
     4
 10
60.0
 20
132.49999999999989
 30
0.0
 11
92.295676000000014
 21
156.1006209999999
 31
0.0
  0
LINE
  5
96
  8
NOTE
  6
CONTINUOUS
 62
     4
 10
204.47592700000001
 20
188.47302300000001
 30
0.0
 11
60.0
 21
132.49999999999989
 31
0.0
  0
LINE
  5
97
  8
NOTE
  6
CONTINUOUS
 62
     4
 39
50.0
 10
488.76325400000002
 20
188.47302300000001
 30
0.0
 11
204.47592700000001
 21
188.47302300000001
 31
0.0
  0
TEXT
  5
98
  8
NOTE
  6
CONTINUOUS
 62
     4
 10
232.25244900000001
 20
212.41673900000001
 30
0.0
 40
64.0
  1
4-φ5
 41
0.9
  0
LINE
  5
99
  8
SIZE
  6
CONTINUOUS
 62
    30
 10
60.0
 20
168.0
 30
0.0
 11
60.0
 21
282.45992100000001
 31
0.0
  0
LINE
  5
9A
  8
SIZE
  6
CONTINUOUS
 62
    30
 10
-60.0
 20
168.0
 30
0.0
 11
-60.0
 21
282.45992100000001
 31
0.0
  0
LINE
  5
9B
  8
SIZE
  6
CONTINUOUS
 62
    30
 10
72.0
 20
262.45992099999989
 30
0.0
 11
84.0
 21
262.45992099999989
 31
0.0
  0
LINE
  5
9C
  8
SIZE
  6
CONTINUOUS
 62
    30
 10
-72.0
 20
262.45992099999989
 30
0.0
 11
-84.0
 21
262.45992099999989
 31
0.0
  0
LINE
  5
9D
  8
SIZE
  6
CONTINUOUS
 62
    30
 10
60.0
 20
262.45992099999989
 30
0.0
 11
-60.0
 21
262.45992099999989
 31
0.0
  0
CIRCLE
  5
9E
  8
SIZE
  6
CONTINUOUS
 62
    30
 10
60.0
 20
262.45992099999989
 30
0.0
 40
6.0
  0
LINE
  5
9F
  8
SIZE
  6
CONTINUOUS
 62
    30
 10
60.0
 20
262.45992099999989
 30
0.0
 11
72.0
 21
262.45992099999989
 31
0.0
  0
CIRCLE
  5
A0
  8
SIZE
  6
CONTINUOUS
 62
    30
 10
-60.0
 20
262.45992099999989
 30
0.0
 40
6.0
  0
LINE
  5
A1
  8
SIZE
  6
CONTINUOUS
 62
    30
 10
-60.0
 20
262.45992099999989
 30
0.0
 11
-72.0
 21
262.45992099999989
 31
0.0
  0
TEXT
  5
A2
  8
SIZE
  6
CONTINUOUS
 62
    30
 10
-68.571428571428569
 20
287.45992099999989
 30
0.0
 40
64.0
  1
120
 41
0.9
 72
     1
 11
0.0
 21
287.45992099999989
 31
0.0
  0
POINT
  5
A3
  8
DEFPOINTS
  6
CONTINUOUS
 62
    30
 10
60.0
 20
148.0
 30
0.0
  0
POINT
  5
A4
  8
DEFPOINTS
  6
CONTINUOUS
 62
    30
 10
-60.0
 20
148.0
 30
0.0
  0
POINT
  5
A5
  8
DEFPOINTS
  6
CONTINUOUS
 62
    30
 10
-60.0
 20
262.45992099999989
 30
0.0
  0
LINE
  5
A6
  8
SIZE
  6
CONTINUOUS
 62
    30
 10
140.0
 20
120.0
 30
0.0
 11
555.42715899999985
 21
120.0
 31
0.0
  0
LINE
  5
A7
  8
SIZE
  6
CONTINUOUS
 62
    30
 10
140.0
 20
-120.0
 30
0.0
 11
555.42715899999985
 21
-120.0
 31
0.0
  0
LINE
  5
A8
  8
SIZE
  6
CONTINUOUS
 62
    30
 10
535.42715899999985
 20
132.0
 30
0.0
 11
535.42715899999985
 21
144.0
 31
0.0
  0
LINE
  5
A9
  8
SIZE
  6
CONTINUOUS
 62
    30
 10
535.42715899999985
 20
-132.0
 30
0.0
 11
535.42715899999985
 21
-144.0
 31
0.0
  0
LINE
  5
AA
  8
SIZE
  6
CONTINUOUS
 62
    30
 10
535.42715899999985
 20
120.0
 30
0.0
 11
535.42715899999985
 21
-120.0
 31
0.0
  0
CIRCLE
  5
AB
  8
SIZE
  6
CONTINUOUS
 62
    30
 10
535.42715899999985
 20
120.0
 30
0.0
 40
6.0
  0
LINE
  5
AC
  8
SIZE
  6
CONTINUOUS
 62
    30
 10
535.42715899999985
 20
120.0
 30
0.0
 11
535.42715899999985
 21
132.0
 31
0.0
  0
CIRCLE
  5
AD
  8
SIZE
  6
CONTINUOUS
 62
    30
 10
535.42715899999985
 20
-120.0
 30
0.0
 40
6.0
  0
LINE
  5
AE
  8
SIZE
  6
CONTINUOUS
 62
    30
 10
535.42715899999985
 20
-120.0
 30
0.0
 11
535.42715899999985
 21
-132.0
 31
0.0
  0
TEXT
  5
AF
  8
SIZE
  6
CONTINUOUS
 62
    30
 10
510.4271589999999
 20
-110.5371428571428
 30
0.0
 40
64.0
  1
□240
 50
90.0
 41
0.9
 72
     1
 11
510.4271589999999
 21
0.0
 31
0.0
  0
POINT
  5
B0
  8
DEFPOINTS
  6
CONTINUOUS
 62
    30
 10
120.0
 20
120.0
 30
0.0
  0
POINT
  5
B1
  8
DEFPOINTS
  6
CONTINUOUS
 62
    30
 10
120.0
 20
-120.0
 30
0.0
  0
POINT
  5
B2
  8
DEFPOINTS
  6
CONTINUOUS
 62
    30
 10
535.42715899999985
 20
-120.0
 30
0.0
  0
CIRCLE
  5
B3
  8
FIX
  6
CONTINUOUS
 62
    11
 39
50.0
 10
60.0
 20
-132.49999999999989
 30
0.0
 40
2.5
  0
CIRCLE
  5
B4
  8
FIX
  6
CONTINUOUS
 62
    11
 39
50.0
 10
-60.0
 20
-132.49999999999989
 30
0.0
 40
2.5
  0
LINE
  5
B5
  8
DETAIL
  6
CONTINUOUS
 62
     5
 10
120.0
 20
-46.600000000000001
 30
0.0
 11
-120.0
 21
-46.600000000000001
 31
0.0
  0
LINE
  5
B6
  8
DETAIL
  6
CONTINUOUS
 62
     5
 10
120.0
 20
26.699999999999989
 30
0.0
 11
-120.0
 21
26.699999999999989
 31
0.0
  0
LINE
  5
B7
  8
DETAIL
  6
CONTINUOUS
 62
     5
 10
120.0
 20
-120.0
 30
0.0
 11
-120.0
 21
-120.0
 31
0.0
  0
LINE
  5
B8
  8
DETAIL
  6
CONTINUOUS
 62
     5
 10
-120.0
 20
120.0
 30
0.0
 11
-120.0
 21
-120.0
 31
0.0
  0
LINE
  5
B9
  8
DETAIL
  6
CONTINUOUS
 62
     5
 10
120.0
 20
120.0
 30
0.0
 11
120.0
 21
-120.0
 31
0.0
  0
LINE
  5
BA
  8
NOTE
  6
CONTINUOUS
 62
     4
 10
-60.0
 20
-152.5
 30
0.0
 11
-60.0
 21
-112.5
 31
0.0
  0
LINE
  5
BB
  8
NOTE
  6
CONTINUOUS
 62
     4
 10
-80.0
 20
-132.49999999999989
 30
0.0
 11
-40.0
 21
-132.49999999999989
 31
0.0
  0
CIRCLE
  5
BC
  8
DETAIL
  6
CONTINUOUS
 62
     5
 10
-60.0
 20
-132.49999999999989
 30
0.0
 40
2.5
  0
LINE
  5
BD
  8
NOTE
  6
CONTINUOUS
 62
     4
 10
60.0
 20
-152.5
 30
0.0
 11
60.0
 21
-112.5
 31
0.0
  0
LINE
  5
BE
  8
NOTE
  6
CONTINUOUS
 62
     4
 10
80.0
 20
-132.49999999999989
 30
0.0
 11
40.0
 21
-132.49999999999989
 31
0.0
  0
CIRCLE
  5
BF
  8
DETAIL
  6
CONTINUOUS
 62
     5
 10
60.0
 20
-132.49999999999989
 30
0.0
 40
2.5
  0
LINE
  5
C0
  8
SIZE
  6
CONTINUOUS
 62
    30
 10
-100.0
 20
132.49999999999989
 30
0.0
 11
-413.66079300000001
 21
132.49999999999989
 31
0.0
  0
LINE
  5
C1
  8
SIZE
  6
CONTINUOUS
 62
    30
 10
-100.0
 20
-132.49999999999989
 30
0.0
 11
-413.66079300000001
 21
-132.49999999999989
 31
0.0
  0
LINE
  5
C2
  8
SIZE
  6
CONTINUOUS
 62
    30
 10
-393.66079300000001
 20
120.5
 30
0.0
 11
-393.66079300000001
 21
-120.5
 31
0.0
  0
CIRCLE
  5
C3
  8
SIZE
  6
CONTINUOUS
 62
    30
 10
-393.66079300000001
 20
132.49999999999989
 30
0.0
 40
6.0
  0
LINE
  5
C4
  8
SIZE
  6
CONTINUOUS
 62
    30
 10
-393.66079300000001
 20
132.49999999999989
 30
0.0
 11
-393.66079300000001
 21
120.5
 31
0.0
  0
CIRCLE
  5
C5
  8
SIZE
  6
CONTINUOUS
 62
    30
 10
-393.66079300000001
 20
-132.49999999999989
 30
0.0
 40
6.0
  0
LINE
  5
C6
  8
SIZE
  6
CONTINUOUS
 62
    30
 10
-393.66079300000001
 20
-132.49999999999989
 30
0.0
 11
-393.66079300000001
 21
-120.5
 31
0.0
  0
TEXT
  5
C7
  8
SIZE
  6
CONTINUOUS
 62
    30
 10
-418.66079300000001
 20
-74.05714285714285
 30
0.0
 40
64.0
  1
265
 50
90.0
 41
0.9
 72
     1
 11
-418.66079300000001
 21
0.0
 31
0.0
  0
POINT
  5
C8
  8
DEFPOINTS
  6
CONTINUOUS
 62
    30
 10
-80.0
 20
132.49999999999989
 30
0.0
  0
POINT
  5
C9
  8
DEFPOINTS
  6
CONTINUOUS
 62
    30
 10
-80.0
 20
-132.49999999999989
 30
0.0
  0
POINT
  5
CA
  8
DEFPOINTS
  6
CONTINUOUS
 62
    30
 10
-393.66079300000001
 20
-132.49999999999989
 30
0.0
  0
LINE
  5
CB
  8
SIZE
  6
CONTINUOUS
 62
    30
 10
-100.0
 20
132.49999999999989
 30
0.0
 11
-307.44238799999988
 21
132.49999999999989
 31
0.0
  0
LINE
  5
CC
  8
SIZE
  6
CONTINUOUS
 62
    30
 10
-220.33862599999989
 20
0.0
 30
0.0
 11
-307.44238799999988
 21
0.0
 31
0.0
  0
LINE
  5
CD
  8
SIZE
  6
CONTINUOUS
 62
    30
 10
-287.44238799999999
 20
120.5
 30
0.0
 11
-287.44238799999999
 21
12.0
 31
0.0
  0
LINE
  5
CE
  8
SIZE
  6
CONTINUOUS
 62
    30
 10
-287.44238799999999
 20
448.48187999999999
 30
0.0
 11
-287.44238799999999
 21
132.49999999999989
 31
0.0
  0
TEXT
  5
CF
  8
SIZE
  6
CONTINUOUS
 62
    30
 10
-312.44238799999999
 20
204.05330828571419
 30
0.0
 40
64.0
  1
132.5
 50
90.0
 41
0.9
 72
     1
 11
-312.44238799999999
 21
313.76759399999992
 31
0.0
  0
CIRCLE
  5
D0
  8
SIZE
  6
CONTINUOUS
 62
    30
 10
-287.44238799999999
 20
132.49999999999989
 30
0.0
 40
6.0
  0
LINE
  5
D1
  8
SIZE
  6
CONTINUOUS
 62
    30
 10
-287.44238799999999
 20
132.49999999999989
 30
0.0
 11
-287.44238799999999
 21
120.5
 31
0.0
  0
CIRCLE
  5
D2
  8
SIZE
  6
CONTINUOUS
 62
    30
 10
-287.44238799999999
 20
0.0
 30
0.0
 40
6.0
  0
LINE
  5
D3
  8
SIZE
  6
CONTINUOUS
 62
    30
 10
-287.44238799999999
 20
0.0
 30
0.0
 11
-287.44238799999999
 21
12.0
 31
0.0
  0
POINT
  5
D4
  8
DEFPOINTS
  6
CONTINUOUS
 62
    30
 10
-80.0
 20
132.49999999999989
 30
0.0
  0
POINT
  5
D5
  8
DEFPOINTS
  6
CONTINUOUS
 62
    30
 10
-200.338626
 20
0.0
 30
0.0
  0
POINT
  5
D6
  8
DEFPOINTS
  6
CONTINUOUS
 62
    30
 10
-287.44238799999999
 20
0.0
 30
0.0
  0
LINE
  5
D7
  8
DETAIL
  6
CONTINUOUS
 62
     5
 10
148.0
 20
-136.0
 30
0.0
 11
-148.0
 21
-136.0
 31
0.0
  0
CIRCLE
  5
D8
  8
ARRANGE
  6
CONTINUOUS
 62
     1
 39
50.0
 10
0.0
 20
0.0
 30
0.0
 40
40.0
  0
POINT
  5
D9
  8
ARRANGE
  6
CONTINUOUS
 62
     1
 10
0.0
 20
0.0
 30
0.0
 39
50.0
  0
TEXT
  5
E4
  8
ETC
  6
CONTINUOUS
 62
    61
 10
423.80131298027118
 20
342.67410077812951
 30
0.0
 40
50.0
  1
EX-20LFH5-M
 41
0.9
  0
TEXT
  5
E5
  8
ETC
  6
CONTINUOUS
 62
    61
 10
423.80131298027118
 20
423.32399683311149
 30
0.0
 40
50.0
  1
EX-20EFH5-M
 41
0.9
  0
TEXT
  5
E6
  8
ETC
  6
CONTINUOUS
 62
    61
 10
300.77812028229971
 20
604.89918692527738
 30
0.0
 40
64.0
  1
EX-20EFH5-M_3
 41
0.9
  0
TEXT
  5
E7
  8
ETC
  6
CONTINUOUS
 62
    61
 10
292.70464228229969
 20
506.88046192527742
 30
0.0
 40
64.0
  1
換気扇
 41
0.9
  0
ENDSEC
  0
EOF
