  0
SECTION
  2
HEADER
  9
$ACADVER
  1
AC1009
  9
$DWGCODEPAGE
  3
dos932
  9
$INSBASE
 10
0.0
 20
0.0
 30
0.0
  9
$EXTMIN
 10
-778.5735920171428
 20
-492.18748834937293
 30
-0.0015257624927045
  9
$EXTMAX
 10
1282.9696773935209
 20
661.37696122910893
 30
0.0022888765696933
  9
$LIMMIN
 10
-2970.0
 20
-2100.0
  9
$LIMMAX
 10
2970.0
 20
2100.0
  9
$ORTHOMODE
 70
     1
  9
$REGENMODE
 70
     1
  9
$FILLMODE
 70
     1
  9
$QTEXTMODE
 70
     0
  9
$MIRRTEXT
 70
     0
  9
$LTSCALE
 40
20.0
  9
$ATTMODE
 70
     1
  9
$TEXTSIZE
 40
64.0
  9
$TRACEWID
 40
0.05
  9
$TEXTSTYLE
  7
STANDARD
  9
$CLAYER
  8
SIZE
  9
$CELTYPE
  6
CONTINUOUS
  9
$CECOLOR
 62
     7
  9
$DIMSCALE
 40
1.0
  9
$DIMASZ
 40
12.0
  9
$DIMEXO
 40
20.0
  9
$DIMDLI
 40
200.0
  9
$DIMRND
 40
0.0
  9
$DIMDLE
 40
0.0
  9
$DIMEXE
 40
20.0
  9
$DIMTP
 40
0.0
  9
$DIMTM
 40
0.0
  9
$DIMTXT
 40
64.0
  9
$DIMCEN
 40
0.09
  9
$DIMTSZ
 40
0.0
  9
$DIMTOL
 70
     0
  9
$DIMLIM
 70
     0
  9
$DIMTIH
 70
     0
  9
$DIMTOH
 70
     0
  9
$DIMSE1
 70
     0
  9
$DIMSE2
 70
     0
  9
$DIMTAD
 70
     1
  9
$DIMZIN
 70
     8
  9
$DIMBLK
  1

  9
$DIMASO
 70
     1
  9
$DIMSHO
 70
     0
  9
$DIMPOST
  1

  9
$DIMAPOST
  1

  9
$DIMALT
 70
     0
  9
$DIMALTD
 70
     2
  9
$DIMALTF
 40
25.399999999999999
  9
$DIMLFAC
 40
1.0
  9
$DIMTOFL
 70
     1
  9
$DIMTVP
 40
0.0
  9
$DIMTIX
 70
     1
  9
$DIMSOXD
 70
     0
  9
$DIMSAH
 70
     0
  9
$DIMBLK1
  1

  9
$DIMBLK2
  1

  9
$DIMSTYLE
  2
STANDARD
  9
$DIMCLRD
 70
     7
  9
$DIMCLRE
 70
     7
  9
$DIMCLRT
 70
     7
  9
$DIMTFAC
 40
1.0
  9
$DIMGAP
 40
25.0
  9
$LUNITS
 70
     2
  9
$LUPREC
 70
     4
  9
$SKETCHINC
 40
0.1
  9
$FILLETRAD
 40
3.0
  9
$AUNITS
 70
     1
  9
$AUPREC
 70
     3
  9
$MENU
  1
ACAD
  9
$ELEVATION
 40
0.0
  9
$PELEVATION
 40
0.0
  9
$THICKNESS
 40
50.0
  9
$LIMCHECK
 70
     0
  9
$CHAMFERA
 40
0.0
  9
$CHAMFERB
 40
0.0
  9
$SKPOLY
 70
     0
  9
$TDCREATE
 40
2453019.62301037
  9
$TDUPDATE
 40
2459017.506239375
  9
$TDINDWG
 40
1.7193037731
  9
$TDUSRTIMER
 40
1.7193037731
  9
$USRTIMER
 70
     1
  9
$ANGBASE
 50
0.0
  9
$ANGDIR
 70
     0
  9
$PDMODE
 70
     3
  9
$PDSIZE
 40
-2.0
  9
$PLINEWID
 40
0.0
  9
$SPLFRAME
 70
     0
  9
$SPLINETYPE
 70
     6
  9
$SPLINESEGS
 70
     8
  9
$SURFTAB1
 70
     6
  9
$SURFTAB2
 70
     6
  9
$SURFTYPE
 70
     6
  9
$SURFU
 70
     6
  9
$SURFV
 70
     6
  9
$UCSNAME
  2

  9
$UCSORG
 10
0.0
 20
0.0
 30
0.0
  9
$UCSXDIR
 10
1.0
 20
0.0
 30
0.0
  9
$UCSYDIR
 10
0.0
 20
1.0
 30
0.0
  9
$PUCSNAME
  2

  9
$PUCSORG
 10
0.0
 20
0.0
 30
0.0
  9
$PUCSXDIR
 10
1.0
 20
0.0
 30
0.0
  9
$PUCSYDIR
 10
0.0
 20
1.0
 30
0.0
  9
$USERI1
 70
     0
  9
$USERI2
 70
     0
  9
$USERI3
 70
     0
  9
$USERI4
 70
     0
  9
$USERI5
 70
     0
  9
$USERR1
 40
20.0
  9
$USERR2
 40
0.0
  9
$USERR3
 40
0.0
  9
$USERR4
 40
0.0
  9
$USERR5
 40
0.0
  9
$WORLDVIEW
 70
     1
  9
$SHADEDGE
 70
     3
  9
$SHADEDIF
 70
    70
  9
$TILEMODE
 70
     1
  9
$MAXACTVP
 70
    48
  9
$PINSBASE
 10
0.0
 20
0.0
 30
0.0
  9
$PLIMCHECK
 70
     0
  9
$PEXTMIN
 10
-100000000000000000000.0
 20
-100000000000000000000.0
 30
-100000000000000000000.0
  9
$PEXTMAX
 10
100000000000000000000.0
 20
100000000000000000000.0
 30
100000000000000000000.0
  9
$PLIMMIN
 10
0.0
 20
0.0
  9
$PLIMMAX
 10
12.0
 20
9.0
  9
$UNITMODE
 70
     0
  9
$VISRETAIN
 70
     0
  9
$PLINEGEN
 70
     0
  9
$PSLTSCALE
 70
     0
  9
$TREEDEPTH
 70
  3020
  9
$ATTDIA
 70
     0
  9
$ATTREQ
 70
     1
  9
$BLIPMODE
 70
     1
  9
$COORDS
 70
     1
  9
$DRAGMODE
 70
     2
  9
$OSMODE
 70
     0
  9
$HANDLING
 70
     0
  9
$HANDSEED
  5
F462
  0
ENDSEC
  0
SECTION
  2
TABLES
  0
TABLE
  2
LTYPE
 70
     2
  0
LTYPE
  2
CONTINUOUS
 70
     0
  3
実線
 72
    65
 73
     0
 40
0.0
  0
LTYPE
  2
DASHDOT
 70
     0
  3
____ _ ____ _ ____ _ ____ _ ____ _ ____ _ ____
 72
    65
 73
     4
 40
5.5
 49
4.0
 49
-0.6
 49
0.3
 49
-0.6
  0
ENDTAB
  0
TABLE
  2
LAYER
 70
    12
  0
LAYER
  2
0
 70
     0
 62
     7
  6
CONTINUOUS
  0
LAYER
  2
BASIS
 70
     0
 62
     6
  6
DASHDOT
  0
LAYER
  2
OUTLINE
 70
     0
 62
     3
  6
CONTINUOUS
  0
LAYER
  2
DETAIL
 70
     0
 62
     5
  6
CONTINUOUS
  0
LAYER
  2
SIZE
 70
     0
 62
    30
  6
CONTINUOUS
  0
LAYER
  2
ARRANGE
 70
     0
 62
     1
  6
CONTINUOUS
  0
LAYER
  2
DEFPOINTS
 70
     0
 62
     7
  6
CONTINUOUS
  0
LAYER
  2
ETC
 70
     0
 62
    61
  6
CONTINUOUS
  0
LAYER
  2
FIX
 70
     0
 62
    11
  6
CONTINUOUS
  0
LAYER
  2
NOTE
 70
     0
 62
     4
  6
CONTINUOUS
  0
LAYER
  2
SERVICESPACE
 70
    64
 62
     2
  6
DASHDOT
  0
LAYER
  2
SYMBOLLINE
 70
    64
 62
    15
  6
CONTINUOUS
  0
ENDTAB
  0
TABLE
  2
STYLE
 70
     1
  0
STYLE
  2
STANDARD
 70
     0
 40
64.0
 41
0.9
 50
0.0
 71
     0
 42
64.0
  3
SIMPLEX.shx
  4
BIGFONT.shx
  0
ENDTAB
  0
TABLE
  2
APPID
 70
    17
  0
APPID
  2
ACAD
 70
     0
  0
APPID
  2
AUTOCAD_POSTSCRIPT_FIGURE
 70
     0
  0
APPID
  2
ACAD_EXEMPT_FROM_CAD_STANDARDS
 70
     0
  0
APPID
  2
ACAD_PSEXT
 70
     0
  0
APPID
  2
ACAUTHENVIRON
 70
     0
  0
APPID
  2
GENIUS_GENOENT_13
 70
     0
  0
APPID
  2
GENIUS_GENCFG_13
 70
     0
  0
APPID
  2
GENIUS_GENCFG0_13
 70
     0
  0
APPID
  2
GENIUS_GENCFG1_13
 70
     0
  0
APPID
  2
GENIUS_GENCFG2_13
 70
     0
  0
APPID
  2
GENIUS_GENCFG3_13
 70
     0
  0
APPID
  2
GENIUS_GENCFG4_13
 70
     0
  0
APPID
  2
GENIUS_GEVCFG0_13
 70
     0
  0
APPID
  2
CONTENTBLOCKICON
 70
     0
  0
APPID
  2
CONTENTBLOCKDESCRIPTION
 70
     0
  0
APPID
  2
ACAD_NAV_VCDISPLAY
 70
     0
  0
APPID
  2
ACAD_MLEADERVER
 70
     0
  0
ENDTAB
  0
TABLE
  2
DIMSTYLE
 70
     1
  0
DIMSTYLE
  2
STANDARD
 70
     0
  3

  4

  5
_ORIGIN
  6

  7

 40
1.0
 41
12.0
 42
20.0
 43
200.0
 44
20.0
 45
0.0
 46
0.0
 47
0.0
 48
0.0
140
64.0
141
0.09
142
0.0
143
25.399999999999999
144
1.0
145
0.0
146
1.0
147
25.0
 71
     0
 72
     0
 73
     0
 74
     0
 75
     0
 76
     0
 77
     1
 78
     8
170
     0
171
     2
172
     1
173
     0
174
     1
175
     0
176
     7
177
     7
178
     7
  0
ENDTAB
  0
TABLE
  2
VIEW
 70
     1
  0
VIEW
  2
ALL
 70
     0
 40
4282.6198079999986
 10
0.0
 20
41.309904000000003
 41
5940.0
 11
0.0
 21
0.0
 31
1.0
 12
0.0
 22
0.0
 32
0.0
 42
50.0
 43
0.0
 44
0.0
 50
0.0
 71
     0
  0
ENDTAB
  0
TABLE
  2
UCS
 70
     0
  0
ENDTAB
  0
TABLE
  2
VPORT
 70
     1
  0
VPORT
  2
*ACTIVE
 70
     0
 10
0.0
 20
0.0
 11
1.0
 21
1.0
 12
252.19804268818919
 22
84.594736439867972
 13
0.0
 23
0.0
 14
1.0
 24
1.0
 15
0.0
 25
0.0
 16
0.0
 26
0.0
 36
1.0
 17
0.0
 27
0.0
 37
0.0
 40
137.3690195450198
 41
2.5192307692307692
 42
50.0
 43
0.0
 44
0.0
 50
0.0
 51
0.0
 71
     0
 72
  1000
 73
     1
 74
     3
 75
     0
 76
     0
 77
     0
 78
     0
  0
ENDTAB
  0
ENDSEC
  0
SECTION
  2
BLOCKS
  0
BLOCK
  8
0
  2
_ORIGIN
 70
     0
 10
0.0
 20
0.0
 30
0.0
  3
_ORIGIN
  1
_ORIGIN
  0
CIRCLE
  8
0
  6
CONTINUOUS
 62
     7
 10
0.0
 20
0.0
 30
0.0
 40
0.5
  0
LINE
  8
0
  6
CONTINUOUS
 62
     7
 10
0.0
 20
0.0
 30
0.0
 11
-1.0
 21
0.0
 31
0.0
  0
ENDBLK
  8
0
  0
ENDSEC
  0
SECTION
  2
ENTITIES
  0
LINE
  8
NOTE
  6
CONTINUOUS
 62
     4
 10
495.25146987185713
 20
275.69574719210868
 30
0.0
 11
101.68107513254721
 21
275.69574719210868
 31
0.0
  0
TEXT
  8
NOTE
  6
CONTINUOUS
 62
     4
 10
130.59373313254741
 20
299.63946419210862
 30
0.0
 40
64.0
  1
4-φ5×8
 41
0.9
  0
LINE
  8
NOTE
  6
CONTINUOUS
 62
     4
 10
101.68107513254721
 20
275.69574719210868
 30
0.0
 11
6.9117019707698546
 21
142.30960630541571
 31
0.0
  0
LINE
  8
NOTE
  6
CONTINUOUS
 62
     4
 10
2.1416089806168661
 20
138.33079842424169
 30
0.0
 11
0.0
 21
132.49999999999989
 31
0.0
  0
LINE
  8
NOTE
  6
CONTINUOUS
 62
     4
 10
0.0
 20
132.49999999999989
 30
0.0
 11
4.7700929901529889
 21
136.47880788117391
 31
0.0
  0
LINE
  8
NOTE
  6
CONTINUOUS
 62
     4
 10
0.0
 20
132.49999999999989
 30
0.0
 11
6.9117019707698546
 21
142.30960630541571
 31
0.0
  0
POINT
  8
ARRANGE
  6
CONTINUOUS
 62
     1
 10
0.0
 20
0.0
 30
0.0
 50
180.0
  0
LINE
  8
BASIS
  6
DASHDOT
 62
     6
 10
-171.720788
 20
0.0
 30
0.0
 11
113.973848
 21
0.0
 31
0.0
  0
CIRCLE
  8
ARRANGE
  6
CONTINUOUS
 62
     1
 10
0.0
 20
0.0
 30
0.0
 40
40.0
  0
LINE
  8
DETAIL
  6
CONTINUOUS
 62
     5
 10
0.0
 20
148.0
 30
0.0
 11
39.0
 21
148.0
 31
0.0
  0
LINE
  8
DETAIL
  6
CONTINUOUS
 62
     5
 10
0.0
 20
-170.0
 30
0.0
 11
27.293897000000019
 21
-170.0
 31
0.0
  0
LINE
  8
DETAIL
  6
CONTINUOUS
 62
     5
 10
0.0
 20
148.0
 30
0.0
 11
0.0
 21
-170.0
 31
0.0
  0
CIRCLE
  8
FIX
  6
CONTINUOUS
 62
    11
 10
0.0
 20
-132.49999999999989
 30
0.0
 40
2.5
  0
LINE
  8
BASIS
  6
DASHDOT
 62
     6
 10
0.0
 20
-152.5
 30
0.0
 11
0.0
 21
-112.5
 31
0.0
  0
LINE
  8
BASIS
  6
DASHDOT
 62
     6
 10
20.0
 20
-132.49999999999989
 30
0.0
 11
-20.0
 21
-132.49999999999989
 31
0.0
  0
CIRCLE
  8
FIX
  6
CONTINUOUS
 62
    11
 10
0.0
 20
132.49999999999989
 30
0.0
 40
2.5
  0
LINE
  8
BASIS
  6
DASHDOT
 62
     6
 10
0.0
 20
152.5
 30
0.0
 11
0.0
 21
112.5
 31
0.0
  0
LINE
  8
BASIS
  6
DASHDOT
 62
     6
 10
20.0
 20
132.49999999999989
 30
0.0
 11
-20.0
 21
132.49999999999989
 31
0.0
  0
LINE
  8
SIZE
  6
CONTINUOUS
 62
    30
 10
39.0
 20
168.0
 30
0.0
 11
39.0
 21
460.37696832245911
 31
0.0
  0
LINE
  8
SIZE
  6
CONTINUOUS
 62
    30
 10
70.0
 20
161.2700679999999
 30
0.0
 11
70.0
 21
460.37696832245911
 31
0.0
  0
LINE
  8
SIZE
  6
CONTINUOUS
 62
    30
 10
27.0
 20
440.37696832245911
 30
0.0
 11
15.0
 21
440.37696832245911
 31
0.0
  0
LINE
  8
SIZE
  6
CONTINUOUS
 62
    30
 10
82.0
 20
440.37696832245911
 30
0.0
 11
94.0
 21
440.37696832245911
 31
0.0
  0
LINE
  8
SIZE
  6
CONTINUOUS
 62
    30
 10
237.11990800000001
 20
440.37696832245911
 30
0.0
 11
70.0
 21
440.37696832245911
 31
0.0
  0
TEXT
  8
SIZE
  6
CONTINUOUS
 62
    30
 10
143.54847971428561
 20
465.37696832245911
 30
0.0
 40
64.0
  1
31
 41
0.9
 72
     1
 11
177.83419399999991
 21
465.37696832245911
 31
0.0
  0
LINE
  8
SIZE
  6
CONTINUOUS
 62
    30
 10
39.0
 20
440.37696832245911
 30
0.0
 11
70.0
 21
440.37696832245911
 31
0.0
  0
LINE
  8
SIZE
  6
CONTINUOUS
 62
    30
 10
39.0
 20
440.37696832245911
 30
0.0
 11
70.0
 21
440.37696832245911
 31
0.0
  0
CIRCLE
  8
SIZE
  6
CONTINUOUS
 62
    30
 10
39.0
 20
440.37696832245911
 30
0.0
 40
6.0
  0
LINE
  8
SIZE
  6
CONTINUOUS
 62
    30
 10
39.0
 20
440.37696832245911
 30
0.0
 11
27.0
 21
440.37696832245911
 31
0.0
  0
CIRCLE
  8
SIZE
  6
CONTINUOUS
 62
    30
 10
70.0
 20
440.37696832245911
 30
0.0
 40
6.0
  0
LINE
  8
SIZE
  6
CONTINUOUS
 62
    30
 10
70.0
 20
440.37696832245911
 30
0.0
 11
82.0
 21
440.37696832245911
 31
0.0
  0
LINE
  8
DETAIL
  6
CONTINUOUS
 62
     5
 10
70.0
 20
141.2700679999999
 30
0.0
 11
70.0
 21
133.0
 31
0.0
  0
LINE
  8
DETAIL
  6
CONTINUOUS
 62
     5
 10
39.0
 20
148.0
 30
0.0
 11
39.0
 21
-136.0
 31
0.0
  0
LINE
  8
DETAIL
  6
CONTINUOUS
 62
     5
 10
39.0
 20
148.0
 30
0.0
 11
65.277349999999956
 21
146.26236900000001
 31
0.0
  0
ARC
  8
DETAIL
  6
CONTINUOUS
 62
     5
 10
65.0
 20
141.2700679999999
 30
0.0
 40
5.0
 50
0.0
 51
86.820170000000644
  0
LINE
  8
DETAIL
  6
CONTINUOUS
 62
     5
 10
76.5
 20
-147.51348899999991
 30
0.0
 11
76.5
 21
-150.7307889999999
 31
0.0
  0
LINE
  8
DETAIL
  6
CONTINUOUS
 62
     5
 10
0.0
 20
-136.0
 30
0.0
 11
39.0
 21
-136.0
 31
0.0
  0
LINE
  8
DETAIL
  6
CONTINUOUS
 62
     5
 10
39.0
 20
-136.0
 30
0.0
 11
75.043457999999987
 21
-145.588741
 31
0.0
  0
LINE
  8
DETAIL
  6
CONTINUOUS
 62
     5
 10
75.351593999999977
 20
-152.540426
 30
0.0
 11
40.067808000000007
 21
-167.14456100000001
 31
0.0
  0
ARC
  8
DETAIL
  6
CONTINUOUS
 62
     5
 10
74.5
 20
-147.51348899999991
 30
0.0
 40
2.0
 50
0.0
 51
74.232817000004033
  0
ARC
  8
DETAIL
  6
CONTINUOUS
 62
     5
 10
74.5
 20
-150.7307889999999
 30
0.0
 40
2.0
 50
295.20112400000261
 51
0.0
  0
ARC
  8
DETAIL
  6
CONTINUOUS
 62
     5
 10
27.293897000000019
 20
-140.0
 30
0.0
 40
30.0
 50
270.0
 51
295.20112400000261
  0
LINE
  8
DETAIL
  6
CONTINUOUS
 62
     5
 10
39.0
 20
133.0
 30
0.0
 11
70.0
 21
133.0
 31
0.0
  0
LINE
  8
SIZE
  6
CONTINUOUS
 62
    30
 10
0.0
 20
171.0
 30
0.0
 11
0.0
 21
580.63539032245922
 31
0.0
  0
CIRCLE
  8
SIZE
  6
CONTINUOUS
 62
    30
 10
0.0
 20
560.63539032245922
 30
0.0
 40
6.0
  0
LINE
  8
SIZE
  6
CONTINUOUS
 62
    30
 10
0.0
 20
560.63539032245922
 30
0.0
 11
-12.0
 21
560.63539032245922
 31
0.0
  0
LINE
  8
SIZE
  6
CONTINUOUS
 62
    30
 10
-107.1316115256177
 20
120.0
 30
0.0
 11
-471.22498001867439
 21
120.0
 31
0.0
  0
LINE
  8
SIZE
  6
CONTINUOUS
 62
    30
 10
-106.8980270228858
 20
-119.8190340549727
 30
0.0
 11
-471.22498001867439
 21
-120.0
 31
0.0
  0
LINE
  8
SIZE
  6
CONTINUOUS
 62
    30
 10
-451.22498001867427
 20
108.0
 30
0.0
 11
-451.22498001867427
 21
-108.0
 31
0.0
  0
TEXT
  8
SIZE
  6
CONTINUOUS
 62
    30
 10
-470.60554516332752
 20
-110.14055398861041
 30
0.0
 40
64.0
  1
□240
 50
90.0
 41
0.9
 72
     1
 11
-470.60554516332752
 21
0.396588868532433
 31
0.0
  0
CIRCLE
  8
SIZE
  6
CONTINUOUS
 62
    30
 10
-451.22498001867427
 20
120.0
 30
0.0
 40
6.0
  0
LINE
  8
SIZE
  6
CONTINUOUS
 62
    30
 10
-451.22498001867427
 20
120.0
 30
0.0
 11
-451.22498001867427
 21
108.0
 31
0.0
  0
CIRCLE
  8
SIZE
  6
CONTINUOUS
 62
    30
 10
-451.22498001867427
 20
-120.0
 30
0.0
 40
6.0
  0
LINE
  8
SIZE
  6
CONTINUOUS
 62
    30
 10
-451.22498001867427
 20
-120.0
 30
0.0
 11
-451.22498001867427
 21
-108.0
 31
0.0
  0
LINE
  8
SIZE
  6
CONTINUOUS
 62
    30
 10
0.0
 20
-190.0
 30
0.0
 11
0.0
 21
-492.08511123761849
 31
0.0
  0
LINE
  8
SIZE
  6
CONTINUOUS
 62
    30
 10
76.5
 20
-168.7307889999999
 30
0.0
 11
76.5
 21
-492.08511123761849
 31
0.0
  0
LINE
  8
SIZE
  6
CONTINUOUS
 62
    30
 10
12.0
 20
-472.08511123761872
 30
0.0
 11
64.5
 21
-472.08511123761872
 31
0.0
  0
LINE
  8
SIZE
  6
CONTINUOUS
 62
    30
 10
338.17350099999982
 20
-472.08511123761872
 30
0.0
 11
76.5
 21
-472.08511123761872
 31
0.0
  0
TEXT
  8
SIZE
  6
CONTINUOUS
 62
    30
 10
143.55465156058511
 20
-451.22317682368163
 30
0.0
 40
64.0
  1
76.5
 41
0.9
 72
     1
 11
231.32608013201369
 21
-451.22317682368163
 31
0.0
  0
CIRCLE
  8
SIZE
  6
CONTINUOUS
 62
    30
 10
0.0
 20
-472.08511123761872
 30
0.0
 40
6.0
  0
LINE
  8
SIZE
  6
CONTINUOUS
 62
    30
 10
0.0
 20
-472.08511123761872
 30
0.0
 11
12.0
 21
-472.08511123761872
 31
0.0
  0
CIRCLE
  8
SIZE
  6
CONTINUOUS
 62
    30
 10
76.5
 20
-472.08511123761872
 30
0.0
 40
6.0
  0
LINE
  8
SIZE
  6
CONTINUOUS
 62
    30
 10
76.5
 20
-472.08511123761872
 30
0.0
 11
64.5
 21
-472.08511123761872
 31
0.0
  0
LINE
  8
DETAIL
  6
CONTINUOUS
 62
     5
 10
68.0
 20
133.0
 30
0.0
 11
68.0
 21
-143.7149499999999
 31
0.0
  0
LINE
  8
SIZE
  6
CONTINUOUS
 62
    30
 10
0.0
 20
168.0
 30
0.0
 11
0.0
 21
580.63539032245922
 31
0.0
  0
LINE
  8
SIZE
  6
CONTINUOUS
 62
    30
 10
70.0
 20
161.2700679999999
 30
0.0
 11
70.0
 21
580.63539032245922
 31
0.0
  0
LINE
  8
SIZE
  6
CONTINUOUS
 62
    30
 10
-12.0
 20
560.63539032245922
 30
0.0
 11
-24.0
 21
560.63539032245922
 31
0.0
  0
LINE
  8
SIZE
  6
CONTINUOUS
 62
    30
 10
82.0
 20
560.63539032245922
 30
0.0
 11
218.83113169934589
 21
560.63539032245922
 31
0.0
  0
LINE
  8
SIZE
  6
CONTINUOUS
 62
    30
 10
0.0
 20
560.63539032245922
 30
0.0
 11
70.0
 21
560.63539032245922
 31
0.0
  0
CIRCLE
  8
SIZE
  6
CONTINUOUS
 62
    30
 10
0.0
 20
560.63539032245922
 30
0.0
 40
6.0
  0
LINE
  8
SIZE
  6
CONTINUOUS
 62
    30
 10
0.0
 20
560.63539032245922
 30
0.0
 11
-12.0
 21
560.63539032245922
 31
0.0
  0
CIRCLE
  8
SIZE
  6
CONTINUOUS
 62
    30
 10
70.0
 20
560.63539032245922
 30
0.0
 40
6.0
  0
LINE
  8
SIZE
  6
CONTINUOUS
 62
    30
 10
70.0
 20
560.63539032245922
 30
0.0
 11
82.0
 21
560.63539032245922
 31
0.0
  0
TEXT
  8
SIZE
  6
CONTINUOUS
 62
    30
 10
105.667513738233
 20
585.63539032245922
 30
0.0
 40
64.0
  1
70
 41
0.9
 72
     1
 11
152.29608516680449
 21
585.63539032245922
 31
0.0
  0
LINE
  8
OUTLINE
  6
CONTINUOUS
 62
     3
 10
68.0
 20
133.0
 30
0.0
 11
68.0
 21
-143.71495035243291
 31
0.0
  0
LINE
  8
OUTLINE
  6
CONTINUOUS
 62
     3
 10
0.0
 20
-119.9153218552501
 30
0.0
 11
0.0
 21
-170.0
 31
0.0
  0
LINE
  8
OUTLINE
  6
CONTINUOUS
 62
     3
 10
75.351593999999977
 20
-152.540426
 30
0.0
 11
40.067808000000007
 21
-167.14456100000001
 31
0.0
  0
ARC
  8
OUTLINE
  6
CONTINUOUS
 62
     3
 10
27.293897000000019
 20
-140.0
 30
0.0
 40
30.0
 50
270.0
 51
295.20112400000261
  0
LINE
  8
OUTLINE
  6
CONTINUOUS
 62
     3
 10
0.0
 20
-170.0
 30
0.0
 11
27.293897000000019
 21
-170.0
 31
0.0
  0
LINE
  8
OUTLINE
  6
CONTINUOUS
 62
     3
 10
68.0
 20
-143.71495035243291
 30
0.0
 11
75.043457999999987
 21
-145.588741
 31
0.0
  0
ARC
  8
OUTLINE
  6
CONTINUOUS
 62
     3
 10
74.5
 20
-150.7307889999999
 30
0.0
 40
2.0
 50
295.20112400000261
 51
0.0
  0
ARC
  8
OUTLINE
  6
CONTINUOUS
 62
     3
 10
74.5
 20
-147.51348899999991
 30
0.0
 40
2.0
 50
0.0
 51
74.232817000004033
  0
LINE
  8
OUTLINE
  6
CONTINUOUS
 62
     3
 10
76.5
 20
-147.51348899999991
 30
0.0
 11
76.5
 21
-150.7307889999999
 31
0.0
  0
LINE
  8
OUTLINE
  6
CONTINUOUS
 62
     3
 10
39.0
 20
148.0
 30
0.0
 11
65.277349999999956
 21
146.26236900000001
 31
0.0
  0
LINE
  8
OUTLINE
  6
CONTINUOUS
 62
     3
 10
68.0
 20
133.0
 30
0.0
 11
70.0
 21
133.0
 31
0.0
  0
LINE
  8
OUTLINE
  6
CONTINUOUS
 62
     3
 10
70.0
 20
141.2700679999999
 30
0.0
 11
70.0
 21
133.0
 31
0.0
  0
ARC
  8
OUTLINE
  6
CONTINUOUS
 62
     3
 10
65.0
 20
141.2700679999999
 30
0.0
 40
5.0
 50
0.0
 51
86.820170000000644
  0
LINE
  8
OUTLINE
  6
CONTINUOUS
 62
     3
 10
0.0
 20
148.0
 30
0.0
 11
39.0
 21
148.0
 31
0.0
  0
LINE
  8
SIZE
  6
CONTINUOUS
 62
    30
 10
-20.0
 20
148.0
 30
0.0
 11
-719.39093399115529
 21
148.0
 31
0.0
  0
LINE
  8
SIZE
  6
CONTINUOUS
 62
    30
 10
-47.293897000000023
 20
-170.0
 30
0.0
 11
-719.39093399115529
 21
-170.0
 31
0.0
  0
LINE
  8
SIZE
  6
CONTINUOUS
 62
    30
 10
-699.39093399115529
 20
148.0
 30
0.0
 11
-699.39093399115529
 21
-158.0
 31
0.0
  0
CIRCLE
  8
SIZE
  6
CONTINUOUS
 62
    30
 10
-699.39093399115529
 20
148.0
 30
0.0
 40
6.0
  0
CIRCLE
  8
SIZE
  6
CONTINUOUS
 62
    30
 10
-699.39093399115529
 20
-170.0
 30
0.0
 40
6.0
  0
LINE
  8
SIZE
  6
CONTINUOUS
 62
    30
 10
-699.39093399115529
 20
-170.0
 30
0.0
 11
-699.39093399115529
 21
-158.0
 31
0.0
  0
TEXT
  8
SIZE
  6
CONTINUOUS
 62
    30
 10
-714.1528111765183
 20
-82.828780702896097
 30
0.0
 40
64.0
  1
318
 50
90.0
 41
0.9
 72
     1
 11
-714.1528111765183
 21
-14.25735213146754
 31
0.0
  0
LINE
  8
SIZE
  6
CONTINUOUS
 62
    30
 10
-40.0
 20
132.49999999999989
 30
0.0
 11
-584.86418601867445
 21
132.49999999999989
 31
0.0
  0
LINE
  8
SIZE
  6
CONTINUOUS
 62
    30
 10
-40.0
 20
-132.49999999999989
 30
0.0
 11
-584.86418601867445
 21
-132.49999999999989
 31
0.0
  0
LINE
  8
SIZE
  6
CONTINUOUS
 62
    30
 10
-564.86418601867445
 20
120.5
 30
0.0
 11
-564.86418601867445
 21
-120.5
 31
0.0
  0
CIRCLE
  8
SIZE
  6
CONTINUOUS
 62
    30
 10
-564.86418601867445
 20
132.49999999999989
 30
0.0
 40
6.0
  0
LINE
  8
SIZE
  6
CONTINUOUS
 62
    30
 10
-564.86418601867445
 20
132.49999999999989
 30
0.0
 11
-564.86418601867445
 21
120.5
 31
0.0
  0
CIRCLE
  8
SIZE
  6
CONTINUOUS
 62
    30
 10
-564.86418601867445
 20
-132.49999999999989
 30
0.0
 40
6.0
  0
LINE
  8
SIZE
  6
CONTINUOUS
 62
    30
 10
-564.86418601867445
 20
-132.49999999999989
 30
0.0
 11
-564.86418601867445
 21
-120.5
 31
0.0
  0
TEXT
  8
SIZE
  6
CONTINUOUS
 62
    30
 10
-584.24475116332769
 20
-76.314494988610392
 30
0.0
 40
64.0
  1
265
 50
90.0
 41
0.9
 72
     1
 11
-584.24475116332769
 21
-2.2573521314675422
 31
0.0
  0
LINE
  8
DETAIL
  6
CONTINUOUS
 62
     5
 10
7.4127932786900601
 20
-103.7720692723788
 30
0.0
 11
0.1242766846985432
 21
-104.5009209317604
 31
0.0
  0
LINE
  8
DETAIL
  6
CONTINUOUS
 62
     5
 10
7.3685741259810129
 20
-103.3297987936248
 30
0.0
 11
0.0
 21
-104.0666562060628
 31
0.0
  0
LINE
  8
DETAIL
  6
CONTINUOUS
 62
     5
 10
0.0
 20
-96.045674763517127
 30
0.0
 11
7.3685663089008813
 21
-96.782531394567286
 31
0.0
  0
LINE
  8
DETAIL
  6
CONTINUOUS
 62
     5
 10
0.1242766846985432
 20
-95.611410037998212
 30
0.0
 11
7.4127932786900601
 21
-96.340261697379447
 31
0.0
  0
LINE
  8
DETAIL
  6
CONTINUOUS
 62
     5
 10
8.6327985691227695
 20
-97.158640380313955
 30
0.0
 11
8.6815356726228856
 21
-97.074433994471292
 31
0.0
  0
LINE
  8
DETAIL
  6
CONTINUOUS
 62
     5
 10
9.0137875784607786
 20
-98.109340485775647
 30
0.0
 11
9.0137875784607786
 21
-102.0029904839826
 31
0.0
  0
LINE
  8
DETAIL
  6
CONTINUOUS
 62
     5
 10
8.5693120337723485
 20
-98.109340485775647
 30
0.0
 11
8.5693120337723485
 21
-102.0029904839826
 31
0.0
  0
LINE
  8
DETAIL
  6
CONTINUOUS
 62
     5
 10
8.6815356726228856
 20
-103.0378969752865
 30
0.0
 11
8.6327986365049583
 21
-102.9536905037494
 31
0.0
  0
ARC
  8
DETAIL
  6
CONTINUOUS
 62
     5
 10
7.2358853997086499
 20
-102.0029904839826
 30
0.0
 40
1.777902178752286
 50
275.71059313749078
 51
0.0
  0
ARC
  8
DETAIL
  6
CONTINUOUS
 62
     5
 10
7.2358853997086499
 20
-98.109340485775647
 30
0.0
 40
1.7779021787524021
 50
0.0
 51
84.289406862509196
  0
ARC
  8
DETAIL
  6
CONTINUOUS
 62
     5
 10
7.2358853997086499
 20
-102.0029904839826
 30
0.0
 40
1.333426634064383
 50
275.71093070358052
 51
0.0001096790968692
  0
ARC
  8
DETAIL
  6
CONTINUOUS
 62
     5
 10
7.2358853997086499
 20
-98.109340485775647
 30
0.0
 40
1.3334266340643099
 50
0.0003312712031118
 51
84.28950520720592
  0
LINE
  8
DETAIL
  6
CONTINUOUS
 62
     5
 10
8.3376992863452415
 20
-97.358321087925106
 30
0.0
 11
8.338610922816315
 21
-97.359079584159645
 31
0.0
  0
LINE
  8
DETAIL
  6
CONTINUOUS
 62
     5
 10
8.338610922816315
 20
-97.359079584159645
 30
0.0
 11
8.3395970711123937
 21
-97.359499689392578
 31
0.0
  0
LINE
  8
DETAIL
  6
CONTINUOUS
 62
     5
 10
8.3395970711123937
 20
-97.359499689392578
 30
0.0
 11
8.3395970711123937
 21
-97.359499689392578
 31
0.0
  0
LINE
  8
DETAIL
  6
CONTINUOUS
 62
     5
 10
8.3395970711123937
 20
-97.359499689392578
 30
0.0
 11
8.3407121413222285
 21
-97.359332156830988
 31
0.0
  0
LINE
  8
DETAIL
  6
CONTINUOUS
 62
     5
 10
8.3407121413222285
 20
-97.359332156830988
 30
0.0
 11
8.3419301366036507
 21
-97.358684316516246
 31
0.0
  0
LINE
  8
DETAIL
  6
CONTINUOUS
 62
     5
 10
8.3419301366036507
 20
-97.358684316516246
 30
0.0
 11
8.3419301366036507
 21
-97.358684316516246
 31
0.0
  0
LINE
  8
DETAIL
  6
CONTINUOUS
 62
     5
 10
8.3419301366036507
 20
-97.358684316516246
 30
0.0
 11
8.3432125532283408
 21
-97.357726810184886
 31
0.0
  0
LINE
  8
DETAIL
  6
CONTINUOUS
 62
     5
 10
8.3432125532283408
 20
-97.357726810184886
 30
0.0
 11
8.3445512668606625
 21
-97.356526949520685
 31
0.0
  0
LINE
  8
DETAIL
  6
CONTINUOUS
 62
     5
 10
8.3445512668606625
 20
-97.356526949520685
 30
0.0
 11
8.3445512668606625
 21
-97.356526949520685
 31
0.0
  0
LINE
  8
DETAIL
  6
CONTINUOUS
 62
     5
 10
8.3445512668606625
 20
-97.356526949520685
 30
0.0
 11
8.3459354703559256
 21
-97.355140399540232
 31
0.0
  0
LINE
  8
DETAIL
  6
CONTINUOUS
 62
     5
 10
8.3459354703559256
 20
-97.355140399540232
 30
0.0
 11
8.3473132459259887
 21
-97.353679568631833
 31
0.0
  0
LINE
  8
DETAIL
  6
CONTINUOUS
 62
     5
 10
8.3473132459259887
 20
-97.353679568631833
 30
0.0
 11
8.3473132459259887
 21
-97.353679568631833
 31
0.0
  0
LINE
  8
DETAIL
  6
CONTINUOUS
 62
     5
 10
8.3473132459259887
 20
-97.353679568631833
 30
0.0
 11
8.3486559139162182
 21
-97.35224014016876
 31
0.0
  0
LINE
  8
DETAIL
  6
CONTINUOUS
 62
     5
 10
8.3486559139162182
 20
-97.35224014016876
 30
0.0
 11
8.3500688578403697
 21
-97.350794154073355
 31
0.0
  0
LINE
  8
DETAIL
  6
CONTINUOUS
 62
     5
 10
8.3500688578403697
 20
-97.350794154073355
 30
0.0
 11
8.3500688578403697
 21
-97.350794154073355
 31
0.0
  0
LINE
  8
DETAIL
  6
CONTINUOUS
 62
     5
 10
8.3500688578403697
 20
-97.350794154073355
 30
0.0
 11
8.3516410258746419
 21
-97.349318803313054
 31
0.0
  0
LINE
  8
DETAIL
  6
CONTINUOUS
 62
     5
 10
8.3516410258746419
 20
-97.349318803313054
 30
0.0
 11
8.3532615616629755
 21
-97.347935536473869
 31
0.0
  0
LINE
  8
DETAIL
  6
CONTINUOUS
 62
     5
 10
8.3532615616629755
 20
-97.347935536473869
 30
0.0
 11
8.3532615616629755
 21
-97.347935536473869
 31
0.0
  0
LINE
  8
DETAIL
  6
CONTINUOUS
 62
     5
 10
8.3532615616629755
 20
-97.347935536473869
 30
0.0
 11
8.3548042484139842
 21
-97.346763130395175
 31
0.0
  0
LINE
  8
DETAIL
  6
CONTINUOUS
 62
     5
 10
8.3548042484139842
 20
-97.346763130395175
 30
0.0
 11
8.3562812321292768
 21
-97.345765419301642
 31
0.0
  0
LINE
  8
DETAIL
  6
CONTINUOUS
 62
     5
 10
8.3562812321292768
 20
-97.345765419301642
 30
0.0
 11
8.3562812321292768
 21
-97.345765419301642
 31
0.0
  0
LINE
  8
DETAIL
  6
CONTINUOUS
 62
     5
 10
8.3562812321292768
 20
-97.345765419301642
 30
0.0
 11
8.3577340420381461
 21
-97.344875531068283
 31
0.0
  0
LINE
  8
DETAIL
  6
CONTINUOUS
 62
     5
 10
8.3577340420381461
 20
-97.344875531068283
 30
0.0
 11
8.3591833774892166
 21
-97.344058710783884
 31
0.0
  0
LINE
  8
DETAIL
  6
CONTINUOUS
 62
     5
 10
8.3591833774892166
 20
-97.344058710783884
 30
0.0
 11
8.3591833774892166
 21
-97.344058710783884
 31
0.0
  0
LINE
  8
DETAIL
  6
CONTINUOUS
 62
     5
 10
8.3591833774892166
 20
-97.344058710783884
 30
0.0
 11
8.3606309695451273
 21
-97.343294851281371
 31
0.0
  0
LINE
  8
DETAIL
  6
CONTINUOUS
 62
     5
 10
8.3606309695451273
 20
-97.343294851281371
 30
0.0
 11
8.3620235059872812
 21
-97.342590319148258
 31
0.0
  0
LINE
  8
DETAIL
  6
CONTINUOUS
 62
     5
 10
8.3620235059872812
 20
-97.342590319148258
 30
0.0
 11
8.3620235059872812
 21
-97.342590319148258
 31
0.0
  0
LINE
  8
DETAIL
  6
CONTINUOUS
 62
     5
 10
8.3620235059872812
 20
-97.342590319148258
 30
0.0
 11
8.3633541645251626
 21
-97.341923596352444
 31
0.0
  0
LINE
  8
DETAIL
  6
CONTINUOUS
 62
     5
 10
8.3633541645251626
 20
-97.341923596352444
 30
0.0
 11
8.364857125869321
 21
-97.341135152621064
 31
0.0
  0
LINE
  8
DETAIL
  6
CONTINUOUS
 62
     5
 10
8.364857125869321
 20
-97.341135152621064
 30
0.0
 11
8.364857125869321
 21
-97.341135152621064
 31
0.0
  0
LINE
  8
DETAIL
  6
CONTINUOUS
 62
     5
 10
8.364857125869321
 20
-97.341135152621064
 30
0.0
 11
8.3667305354449582
 21
-97.340088134695179
 31
0.0
  0
LINE
  8
DETAIL
  6
CONTINUOUS
 62
     5
 10
8.3667305354449582
 20
-97.340088134695179
 30
0.0
 11
8.3687873945427782
 21
-97.338874409607342
 31
0.0
  0
LINE
  8
DETAIL
  6
CONTINUOUS
 62
     5
 10
8.3687873945427782
 20
-97.338874409607342
 30
0.0
 11
8.3687873945427782
 21
-97.338874409607342
 31
0.0
  0
LINE
  8
DETAIL
  6
CONTINUOUS
 62
     5
 10
8.3687873945427782
 20
-97.338874409607342
 30
0.0
 11
8.3708028601752176
 21
-97.337614651389686
 31
0.0
  0
LINE
  8
DETAIL
  6
CONTINUOUS
 62
     5
 10
8.3708028601752176
 20
-97.337614651389686
 30
0.0
 11
8.3727858563590871
 21
-97.336316041787086
 31
0.0
  0
LINE
  8
DETAIL
  6
CONTINUOUS
 62
     5
 10
8.3727858563590871
 20
-97.336316041787086
 30
0.0
 11
8.3727858563590871
 21
-97.336316041787086
 31
0.0
  0
LINE
  8
DETAIL
  6
CONTINUOUS
 62
     5
 10
8.3727858563590871
 20
-97.336316041787086
 30
0.0
 11
8.3747919381769407
 21
-97.334962343174539
 31
0.0
  0
LINE
  8
DETAIL
  6
CONTINUOUS
 62
     5
 10
8.3747919381769407
 20
-97.334962343174539
 30
0.0
 11
8.3768294179621989
 21
-97.333557132733404
 31
0.0
  0
LINE
  8
DETAIL
  6
CONTINUOUS
 62
     5
 10
8.3768294179621989
 20
-97.333557132733404
 30
0.0
 11
8.3768294179621989
 21
-97.333557132733404
 31
0.0
  0
LINE
  8
DETAIL
  6
CONTINUOUS
 62
     5
 10
8.3768294179621989
 20
-97.333557132733404
 30
0.0
 11
8.3788835983596073
 21
-97.332117499611286
 31
0.0
  0
LINE
  8
DETAIL
  6
CONTINUOUS
 62
     5
 10
8.3788835983596073
 20
-97.332117499611286
 30
0.0
 11
8.3808949859992481
 21
-97.330694766018496
 31
0.0
  0
LINE
  8
DETAIL
  6
CONTINUOUS
 62
     5
 10
8.3808949859992481
 20
-97.330694766018496
 30
0.0
 11
8.3808949859992481
 21
-97.330694766018496
 31
0.0
  0
LINE
  8
DETAIL
  6
CONTINUOUS
 62
     5
 10
8.3808949859992481
 20
-97.330694766018496
 30
0.0
 11
8.3828494952099391
 21
-97.329309625665701
 31
0.0
  0
LINE
  8
DETAIL
  6
CONTINUOUS
 62
     5
 10
8.3828494952099391
 20
-97.329309625665701
 30
0.0
 11
8.3849594671164596
 21
-97.327826025215472
 31
0.0
  0
LINE
  8
DETAIL
  6
CONTINUOUS
 62
     5
 10
8.3849594671164596
 20
-97.327826025215472
 30
0.0
 11
8.3849594671164596
 21
-97.327826025215472
 31
0.0
  0
LINE
  8
DETAIL
  6
CONTINUOUS
 62
     5
 10
8.3849594671164596
 20
-97.327826025215472
 30
0.0
 11
8.3874035276485301
 21
-97.32612972828565
 31
0.0
  0
LINE
  8
DETAIL
  6
CONTINUOUS
 62
     5
 10
8.3874035276485301
 20
-97.32612972828565
 30
0.0
 11
8.389999015137164
 21
-97.324350513367335
 31
0.0
  0
LINE
  8
DETAIL
  6
CONTINUOUS
 62
     5
 10
8.389999015137164
 20
-97.324350513367335
 30
0.0
 11
8.389999015137164
 21
-97.324350513367335
 31
0.0
  0
LINE
  8
DETAIL
  6
CONTINUOUS
 62
     5
 10
8.389999015137164
 20
-97.324350513367335
 30
0.0
 11
8.3925301448882692
 21
-97.322638381948309
 31
0.0
  0
LINE
  8
DETAIL
  6
CONTINUOUS
 62
     5
 10
8.3925301448882692
 20
-97.322638381948309
 30
0.0
 11
8.3950099277008121
 21
-97.32098021263073
 31
0.0
  0
LINE
  8
DETAIL
  6
CONTINUOUS
 62
     5
 10
8.3950099277008121
 20
-97.32098021263073
 30
0.0
 11
8.3950099277008121
 21
-97.32098021263073
 31
0.0
  0
LINE
  8
DETAIL
  6
CONTINUOUS
 62
     5
 10
8.3950099277008121
 20
-97.32098021263073
 30
0.0
 11
8.397496680697941
 21
-97.319330753268332
 31
0.0
  0
LINE
  8
DETAIL
  6
CONTINUOUS
 62
     5
 10
8.397496680697941
 20
-97.319330753268332
 30
0.0
 11
8.4000011508178432
 21
-97.317679351619518
 31
0.0
  0
LINE
  8
DETAIL
  6
CONTINUOUS
 62
     5
 10
8.4000011508178432
 20
-97.317679351619518
 30
0.0
 11
8.4000011508178432
 21
-97.317679351619518
 31
0.0
  0
LINE
  8
DETAIL
  6
CONTINUOUS
 62
     5
 10
8.4000011508178432
 20
-97.317679351619518
 30
0.0
 11
8.4025125637660949
 21
-97.316030186235821
 31
0.0
  0
LINE
  8
DETAIL
  6
CONTINUOUS
 62
     5
 10
8.4025125637660949
 20
-97.316030186235821
 30
0.0
 11
8.4049816304991509
 21
-97.31441215895029
 31
0.0
  0
LINE
  8
DETAIL
  6
CONTINUOUS
 62
     5
 10
8.4049816304991509
 20
-97.31441215895029
 30
0.0
 11
8.4049816304991509
 21
-97.31441215895029
 31
0.0
  0
LINE
  8
DETAIL
  6
CONTINUOUS
 62
     5
 10
8.4049816304991509
 20
-97.31441215895029
 30
0.0
 11
8.4073998405835937
 21
-97.312826979159581
 31
0.0
  0
LINE
  8
DETAIL
  6
CONTINUOUS
 62
     5
 10
8.4073998405835937
 20
-97.312826979159581
 30
0.0
 11
8.4099603127563114
 21
-97.311142863237819
 31
0.0
  0
LINE
  8
DETAIL
  6
CONTINUOUS
 62
     5
 10
8.4099603127563114
 20
-97.311142863237819
 30
0.0
 11
8.4099603127563114
 21
-97.311142863237819
 31
0.0
  0
LINE
  8
DETAIL
  6
CONTINUOUS
 62
     5
 10
8.4099603127563114
 20
-97.311142863237819
 30
0.0
 11
8.412825560442343
 21
-97.309248869861221
 31
0.0
  0
LINE
  8
DETAIL
  6
CONTINUOUS
 62
     5
 10
8.412825560442343
 20
-97.309248869861221
 30
0.0
 11
8.4158340466294703
 21
-97.307250919948274
 31
0.0
  0
LINE
  8
DETAIL
  6
CONTINUOUS
 62
     5
 10
8.4158340466294703
 20
-97.307250919948274
 30
0.0
 11
8.4158340466294703
 21
-97.307250919948274
 31
0.0
  0
LINE
  8
DETAIL
  6
CONTINUOUS
 62
     5
 10
8.4158340466294703
 20
-97.307250919948274
 30
0.0
 11
8.4187937683859673
 21
-97.305276073549066
 31
0.0
  0
LINE
  8
DETAIL
  6
CONTINUOUS
 62
     5
 10
8.4187937683859673
 20
-97.305276073549066
 30
0.0
 11
8.4217149095495643
 21
-97.30331908501239
 31
0.0
  0
LINE
  8
DETAIL
  6
CONTINUOUS
 62
     5
 10
8.4217149095495643
 20
-97.30331908501239
 30
0.0
 11
8.4217149095495643
 21
-97.30331908501239
 31
0.0
  0
LINE
  8
DETAIL
  6
CONTINUOUS
 62
     5
 10
8.4217149095495643
 20
-97.30331908501239
 30
0.0
 11
8.4246476671448818
 21
-97.30134846541705
 31
0.0
  0
LINE
  8
DETAIL
  6
CONTINUOUS
 62
     5
 10
8.4246476671448818
 20
-97.30134846541705
 30
0.0
 11
8.427600104180101
 21
-97.299360058478214
 31
0.0
  0
LINE
  8
DETAIL
  6
CONTINUOUS
 62
     5
 10
8.427600104180101
 20
-97.299360058478214
 30
0.0
 11
8.427600104180101
 21
-97.299360058478214
 31
0.0
  0
LINE
  8
DETAIL
  6
CONTINUOUS
 62
     5
 10
8.427600104180101
 20
-97.299360058478214
 30
0.0
 11
8.4305613374829136
 21
-97.297362284859446
 31
0.0
  0
LINE
  8
DETAIL
  6
CONTINUOUS
 62
     5
 10
8.4305613374829136
 20
-97.297362284859446
 30
0.0
 11
8.4334868331823145
 21
-97.295386540394702
 31
0.0
  0
LINE
  8
DETAIL
  6
CONTINUOUS
 62
     5
 10
8.4334868331823145
 20
-97.295386540394702
 30
0.0
 11
8.4334868331823145
 21
-97.295386540394702
 31
0.0
  0
LINE
  8
DETAIL
  6
CONTINUOUS
 62
     5
 10
8.4334868331823145
 20
-97.295386540394702
 30
0.0
 11
8.436367828934408
 21
-97.29344015638344
 31
0.0
  0
LINE
  8
DETAIL
  6
CONTINUOUS
 62
     5
 10
8.436367828934408
 20
-97.29344015638344
 30
0.0
 11
8.4393722992183484
 21
-97.291411230810354
 31
0.0
  0
LINE
  8
DETAIL
  6
CONTINUOUS
 62
     5
 10
8.4393722992183484
 20
-97.291411230810354
 30
0.0
 11
8.4393722992183484
 21
-97.291411230810354
 31
0.0
  0
LINE
  8
DETAIL
  6
CONTINUOUS
 62
     5
 10
8.4393722992183484
 20
-97.291411230810354
 30
0.0
 11
8.4426415697500943
 21
-97.289205568908983
 31
0.0
  0
LINE
  8
DETAIL
  6
CONTINUOUS
 62
     5
 10
8.4426415697500943
 20
-97.289205568908983
 30
0.0
 11
8.4460336343822746
 21
-97.286919038208453
 31
0.0
  0
LINE
  8
DETAIL
  6
CONTINUOUS
 62
     5
 10
8.4460336343822746
 20
-97.286919038208453
 30
0.0
 11
8.4460336343822746
 21
-97.286919038208453
 31
0.0
  0
LINE
  8
DETAIL
  6
CONTINUOUS
 62
     5
 10
8.4460336343822746
 20
-97.286919038208453
 30
0.0
 11
8.4493801170394818
 21
-97.284664966769469
 31
0.0
  0
LINE
  8
DETAIL
  6
CONTINUOUS
 62
     5
 10
8.4493801170394818
 20
-97.284664966769469
 30
0.0
 11
8.4526904937993095
 21
-97.282436462471196
 31
0.0
  0
LINE
  8
DETAIL
  6
CONTINUOUS
 62
     5
 10
8.4526904937993095
 20
-97.282436462471196
 30
0.0
 11
8.4526904937993095
 21
-97.282436462471196
 31
0.0
  0
LINE
  8
DETAIL
  6
CONTINUOUS
 62
     5
 10
8.4526904937993095
 20
-97.282436462471196
 30
0.0
 11
8.4560093192374097
 21
-97.280202923367597
 31
0.0
  0
LINE
  8
DETAIL
  6
CONTINUOUS
 62
     5
 10
8.4560093192374097
 20
-97.280202923367597
 30
0.0
 11
8.4593436097527501
 21
-97.277959128383827
 31
0.0
  0
LINE
  8
DETAIL
  6
CONTINUOUS
 62
     5
 10
8.4593436097527501
 20
-97.277959128383827
 30
0.0
 11
8.4593436097527501
 21
-97.277959128383827
 31
0.0
  0
LINE
  8
DETAIL
  6
CONTINUOUS
 62
     5
 10
8.4593436097527501
 20
-97.277959128383827
 30
0.0
 11
8.4626840723378791
 21
-97.275710875835102
 31
0.0
  0
LINE
  8
DETAIL
  6
CONTINUOUS
 62
     5
 10
8.4626840723378791
 20
-97.275710875835102
 30
0.0
 11
8.4659937145270305
 21
-97.273482660732498
 31
0.0
  0
LINE
  8
DETAIL
  6
CONTINUOUS
 62
     5
 10
8.4659937145270305
 20
-97.273482660732498
 30
0.0
 11
8.4659937145270305
 21
-97.273482660732498
 31
0.0
  0
LINE
  8
DETAIL
  6
CONTINUOUS
 62
     5
 10
8.4659937145270305
 20
-97.273482660732498
 30
0.0
 11
8.4692657029906968
 21
-97.271278610347508
 31
0.0
  0
LINE
  8
DETAIL
  6
CONTINUOUS
 62
     5
 10
8.4692657029906968
 20
-97.271278610347508
 30
0.0
 11
8.4726415404095405
 21
-97.269002684304724
 31
0.0
  0
LINE
  8
DETAIL
  6
CONTINUOUS
 62
     5
 10
8.4726415404095405
 20
-97.269002684304724
 30
0.0
 11
8.4726415404095405
 21
-97.269002684304724
 31
0.0
  0
LINE
  8
DETAIL
  6
CONTINUOUS
 62
     5
 10
8.4726415404095405
 20
-97.269002684304724
 30
0.0
 11
8.4762402714038672
 21
-97.266574129842866
 31
0.0
  0
LINE
  8
DETAIL
  6
CONTINUOUS
 62
     5
 10
8.4762402714038672
 20
-97.266574129842866
 30
0.0
 11
8.4799427723469307
 21
-97.264073512307732
 31
0.0
  0
LINE
  8
DETAIL
  6
CONTINUOUS
 62
     5
 10
8.4799427723469307
 20
-97.264073512307732
 30
0.0
 11
8.4799427723469307
 21
-97.264073512307732
 31
0.0
  0
LINE
  8
DETAIL
  6
CONTINUOUS
 62
     5
 10
8.4799427723469307
 20
-97.264073512307732
 30
0.0
 11
8.4836077397915233
 21
-97.261596557189932
 31
0.0
  0
LINE
  8
DETAIL
  6
CONTINUOUS
 62
     5
 10
8.4836077397915233
 20
-97.261596557189932
 30
0.0
 11
8.4872433192438166
 21
-97.25913831245316
 31
0.0
  0
LINE
  8
DETAIL
  6
CONTINUOUS
 62
     5
 10
8.4872433192438166
 20
-97.25913831245316
 30
0.0
 11
8.4872433192438166
 21
-97.25913831245316
 31
0.0
  0
LINE
  8
DETAIL
  6
CONTINUOUS
 62
     5
 10
8.4872433192438166
 20
-97.25913831245316
 30
0.0
 11
8.4908870206222673
 21
-97.256674044538613
 31
0.0
  0
LINE
  8
DETAIL
  6
CONTINUOUS
 62
     5
 10
8.4908870206222673
 20
-97.256674044538613
 30
0.0
 11
8.4945443625142616
 21
-97.254200571333513
 31
0.0
  0
LINE
  8
DETAIL
  6
CONTINUOUS
 62
     5
 10
8.4945443625142616
 20
-97.254200571333513
 30
0.0
 11
8.4945443625142616
 21
-97.254200571333513
 31
0.0
  0
LINE
  8
DETAIL
  6
CONTINUOUS
 62
     5
 10
8.4945443625142616
 20
-97.254200571333513
 30
0.0
 11
8.4982074947618003
 21
-97.251723716522065
 31
0.0
  0
LINE
  8
DETAIL
  6
CONTINUOUS
 62
     5
 10
8.4982074947618003
 20
-97.251723716522065
 30
0.0
 11
8.501847083570965
 21
-97.24926377554084
 31
0.0
  0
LINE
  8
DETAIL
  6
CONTINUOUS
 62
     5
 10
8.501847083570965
 20
-97.24926377554084
 30
0.0
 11
8.501847083570965
 21
-97.24926377554084
 31
0.0
  0
LINE
  8
DETAIL
  6
CONTINUOUS
 62
     5
 10
8.501847083570965
 20
-97.24926377554084
 30
0.0
 11
8.505457905707317
 21
-97.246824802150968
 31
0.0
  0
LINE
  8
DETAIL
  6
CONTINUOUS
 62
     5
 10
8.505457905707317
 20
-97.246824802150968
 30
0.0
 11
8.5091526638295818
 21
-97.244331411669009
 31
0.0
  0
LINE
  8
DETAIL
  6
CONTINUOUS
 62
     5
 10
8.5091526638295818
 20
-97.244331411669009
 30
0.0
 11
8.5091526638295818
 21
-97.244331411669009
 31
0.0
  0
LINE
  8
DETAIL
  6
CONTINUOUS
 62
     5
 10
8.5091526638295818
 20
-97.244331411669009
 30
0.0
 11
8.5130260198909582
 21
-97.241720051212724
 31
0.0
  0
LINE
  8
DETAIL
  6
CONTINUOUS
 62
     5
 10
8.5130260198909582
 20
-97.241720051212724
 30
0.0
 11
8.5169825471386957
 21
-97.239053933545165
 31
0.0
  0
LINE
  8
DETAIL
  6
CONTINUOUS
 62
     5
 10
8.5169825471386957
 20
-97.239053933545165
 30
0.0
 11
8.5169825471386957
 21
-97.239053933545165
 31
0.0
  0
LINE
  8
DETAIL
  6
CONTINUOUS
 62
     5
 10
8.5169825471386957
 20
-97.239053933545165
 30
0.0
 11
8.5209090485736851
 21
-97.236407875363057
 31
0.0
  0
LINE
  8
DETAIL
  6
CONTINUOUS
 62
     5
 10
8.5209090485736851
 20
-97.236407875363057
 30
0.0
 11
8.5248113349236974
 21
-97.2337763434507
 31
0.0
  0
LINE
  8
DETAIL
  6
CONTINUOUS
 62
     5
 10
8.5248113349236974
 20
-97.2337763434507
 30
0.0
 11
8.5248113349236974
 21
-97.2337763434507
 31
0.0
  0
LINE
  8
DETAIL
  6
CONTINUOUS
 62
     5
 10
8.5248113349236974
 20
-97.2337763434507
 30
0.0
 11
8.5287184414958119
 21
-97.231138100312364
 31
0.0
  0
LINE
  8
DETAIL
  6
CONTINUOUS
 62
     5
 10
8.5287184414958119
 20
-97.231138100312364
 30
0.0
 11
8.5326332941933742
 21
-97.228489441240981
 31
0.0
  0
LINE
  8
DETAIL
  6
CONTINUOUS
 62
     5
 10
8.5326332941933742
 20
-97.228489441240981
 30
0.0
 11
8.5326332941933742
 21
-97.228489441240981
 31
0.0
  0
LINE
  8
DETAIL
  6
CONTINUOUS
 62
     5
 10
8.5326332941933742
 20
-97.228489441240981
 30
0.0
 11
8.5365486490393323
 21
-97.225833599414727
 31
0.0
  0
LINE
  8
DETAIL
  6
CONTINUOUS
 62
     5
 10
8.5365486490393323
 20
-97.225833599414727
 30
0.0
 11
8.5404426919558318
 21
-97.223184026768195
 31
0.0
  0
LINE
  8
DETAIL
  6
CONTINUOUS
 62
     5
 10
8.5404426919558318
 20
-97.223184026768195
 30
0.0
 11
8.5404426919558318
 21
-97.223184026768195
 31
0.0
  0
LINE
  8
DETAIL
  6
CONTINUOUS
 62
     5
 10
8.5404426919558318
 20
-97.223184026768195
 30
0.0
 11
8.5443110637920654
 21
-97.22054212797093
 31
0.0
  0
LINE
  8
DETAIL
  6
CONTINUOUS
 62
     5
 10
8.5443110637920654
 20
-97.22054212797093
 30
0.0
 11
8.5482337952205398
 21
-97.217850899885889
 31
0.0
  0
LINE
  8
DETAIL
  6
CONTINUOUS
 62
     5
 10
8.5482337952205398
 20
-97.217850899885889
 30
0.0
 11
8.5482337952205398
 21
-97.217850899885889
 31
0.0
  0
LINE
  8
DETAIL
  6
CONTINUOUS
 62
     5
 10
8.5482337952205398
 20
-97.217850899885889
 30
0.0
 11
8.5522784748829963
 21
-97.215063150383685
 31
0.0
  0
LINE
  8
DETAIL
  6
CONTINUOUS
 62
     5
 10
8.5522784748829963
 20
-97.215063150383685
 30
0.0
 11
8.5563785334793465
 21
-97.212229339173518
 31
0.0
  0
LINE
  8
DETAIL
  6
CONTINUOUS
 62
     5
 10
8.5563785334793465
 20
-97.212229339173518
 30
0.0
 11
8.5563785334793465
 21
-97.212229339173518
 31
0.0
  0
LINE
  8
DETAIL
  6
CONTINUOUS
 62
     5
 10
8.5563785334793465
 20
-97.212229339173518
 30
0.0
 11
8.5604558539196205
 21
-97.209409320513714
 31
0.0
  0
LINE
  8
DETAIL
  6
CONTINUOUS
 62
     5
 10
8.5604558539196205
 20
-97.209409320513714
 30
0.0
 11
8.5645202859213896
 21
-97.206602875013232
 31
0.0
  0
LINE
  8
DETAIL
  6
CONTINUOUS
 62
     5
 10
8.5645202859213896
 20
-97.206602875013232
 30
0.0
 11
8.5645202859213896
 21
-97.206602875013232
 31
0.0
  0
LINE
  8
DETAIL
  6
CONTINUOUS
 62
     5
 10
8.5645202859213896
 20
-97.206602875013232
 30
0.0
 11
8.5685967470851665
 21
-97.203799439659178
 31
0.0
  0
LINE
  8
DETAIL
  6
CONTINUOUS
 62
     5
 10
8.5685967470851665
 20
-97.203799439659178
 30
0.0
 11
8.572682459755697
 21
-97.201007150599253
 31
0.0
  0
LINE
  8
DETAIL
  6
CONTINUOUS
 62
     5
 10
8.572682459755697
 20
-97.201007150599253
 30
0.0
 11
8.572682459755697
 21
-97.201007150599253
 31
0.0
  0
LINE
  8
DETAIL
  6
CONTINUOUS
 62
     5
 10
8.572682459755697
 20
-97.201007150599253
 30
0.0
 11
8.5767734260200541
 21
-97.198235138022937
 31
0.0
  0
LINE
  8
DETAIL
  6
CONTINUOUS
 62
     5
 10
8.5767734260200541
 20
-97.198235138022937
 30
0.0
 11
8.5808884621931156
 21
-97.19547780912535
 31
0.0
  0
LINE
  8
DETAIL
  6
CONTINUOUS
 62
     5
 10
8.5808884621931156
 20
-97.19547780912535
 30
0.0
 11
8.5808884621931156
 21
-97.19547780912535
 31
0.0
  0
LINE
  8
DETAIL
  6
CONTINUOUS
 62
     5
 10
8.5808884621931156
 20
-97.19547780912535
 30
0.0
 11
8.5850361977331886
 21
-97.19273593855678
 31
0.0
  0
LINE
  8
DETAIL
  6
CONTINUOUS
 62
     5
 10
8.5850361977331886
 20
-97.19273593855678
 30
0.0
 11
8.5891617004392629
 21
-97.190050493784838
 31
0.0
  0
LINE
  8
DETAIL
  6
CONTINUOUS
 62
     5
 10
8.5891617004392629
 20
-97.190050493784838
 30
0.0
 11
8.5891617004392629
 21
-97.190050493784838
 31
0.0
  0
LINE
  8
DETAIL
  6
CONTINUOUS
 62
     5
 10
8.5891617004392629
 20
-97.190050493784838
 30
0.0
 11
8.5932171072238361
 21
-97.187454646813876
 31
0.0
  0
LINE
  8
DETAIL
  6
CONTINUOUS
 62
     5
 10
8.5932171072238361
 20
-97.187454646813876
 30
0.0
 11
8.597246393124351
 21
-97.184910194990607
 31
0.0
  0
LINE
  8
DETAIL
  6
CONTINUOUS
 62
     5
 10
8.597246393124351
 20
-97.184910194990607
 30
0.0
 11
8.597246393124351
 21
-97.184910194990607
 31
0.0
  0
LINE
  8
DETAIL
  6
CONTINUOUS
 62
     5
 10
8.597246393124351
 20
-97.184910194990607
 30
0.0
 11
8.601301097101441
 21
-97.182371037937628
 31
0.0
  0
LINE
  8
DETAIL
  6
CONTINUOUS
 62
     5
 10
8.601301097101441
 20
-97.182371037937628
 30
0.0
 11
8.6053711757076599
 21
-97.179830859046433
 31
0.0
  0
LINE
  8
DETAIL
  6
CONTINUOUS
 62
     5
 10
8.6053711757076599
 20
-97.179830859046433
 30
0.0
 11
8.6053711757076599
 21
-97.179830859046433
 31
0.0
  0
LINE
  8
DETAIL
  6
CONTINUOUS
 62
     5
 10
8.6053711757076599
 20
-97.179830859046433
 30
0.0
 11
8.6094356248324857
 21
-97.177291095264081
 31
0.0
  0
LINE
  8
DETAIL
  6
CONTINUOUS
 62
     5
 10
8.6094356248324857
 20
-97.177291095264081
 30
0.0
 11
8.6134911801411818
 21
-97.174744414002362
 31
0.0
  0
LINE
  8
DETAIL
  6
CONTINUOUS
 62
     5
 10
8.6134911801411818
 20
-97.174744414002362
 30
0.0
 11
8.6134911801411818
 21
-97.174744414002362
 31
0.0
  0
LINE
  8
DETAIL
  6
CONTINUOUS
 62
     5
 10
8.6134911801411818
 20
-97.174744414002362
 30
0.0
 11
8.6175366680697607
 21
-97.172180113884224
 31
0.0
  0
LINE
  8
DETAIL
  6
CONTINUOUS
 62
     5
 10
8.6175366680697607
 20
-97.172180113884224
 30
0.0
 11
8.6215615383737259
 21
-97.169582787909803
 31
0.0
  0
LINE
  8
DETAIL
  6
CONTINUOUS
 62
     5
 10
8.6215615383737259
 20
-97.169582787909803
 30
0.0
 11
8.6215615383737259
 21
-97.169582787909803
 31
0.0
  0
LINE
  8
DETAIL
  6
CONTINUOUS
 62
     5
 10
8.6215615383737259
 20
-97.169582787909803
 30
0.0
 11
8.6255578383759257
 21
-97.166942750679937
 31
0.0
  0
LINE
  8
DETAIL
  6
CONTINUOUS
 62
     5
 10
8.6255578383759257
 20
-97.166942750679937
 30
0.0
 11
8.6295373823575119
 21
-97.164277908819713
 31
0.0
  0
LINE
  8
DETAIL
  6
CONTINUOUS
 62
     5
 10
8.3376995734756747
 20
-102.75401007757959
 30
0.0
 11
8.3387746667829106
 21
-102.7531157562712
 31
0.0
  0
LINE
  8
DETAIL
  6
CONTINUOUS
 62
     5
 10
8.3387746667829106
 20
-102.7531157562712
 30
0.0
 11
8.3399369924684379
 21
-102.7526218998519
 31
0.0
  0
LINE
  8
DETAIL
  6
CONTINUOUS
 62
     5
 10
8.3399369924684379
 20
-102.7526218998519
 30
0.0
 11
8.3399369924684379
 21
-102.7526218998519
 31
0.0
  0
LINE
  8
DETAIL
  6
CONTINUOUS
 62
     5
 10
8.3399369924684379
 20
-102.7526218998519
 30
0.0
 11
8.3412502225580738
 21
-102.75282346060111
 31
0.0
  0
LINE
  8
DETAIL
  6
CONTINUOUS
 62
     5
 10
8.3412502225580738
 20
-102.75282346060111
 30
0.0
 11
8.3426837876731952
 21
-102.7535933403619
 31
0.0
  0
LINE
  8
DETAIL
  6
CONTINUOUS
 62
     5
 10
8.3426837876731952
 20
-102.7535933403619
 30
0.0
 11
8.3426837876731952
 21
-102.7535933403619
 31
0.0
  0
LINE
  8
DETAIL
  6
CONTINUOUS
 62
     5
 10
8.3426837876731952
 20
-102.7535933403619
 30
0.0
 11
8.3441926707841958
 21
-102.75472968803111
 31
0.0
  0
LINE
  8
DETAIL
  6
CONTINUOUS
 62
     5
 10
8.3441926707841958
 20
-102.75472968803111
 30
0.0
 11
8.3457683056599308
 21
-102.7561536911535
 31
0.0
  0
LINE
  8
DETAIL
  6
CONTINUOUS
 62
     5
 10
8.3457683056599308
 20
-102.7561536911535
 30
0.0
 11
8.3457683056599308
 21
-102.7561536911535
 31
0.0
  0
LINE
  8
DETAIL
  6
CONTINUOUS
 62
     5
 10
8.3457683056599308
 20
-102.7561536911535
 30
0.0
 11
8.3473983483236225
 21
-102.7577997708959
 31
0.0
  0
LINE
  8
DETAIL
  6
CONTINUOUS
 62
     5
 10
8.3473983483236225
 20
-102.7577997708959
 30
0.0
 11
8.3490188929981741
 21
-102.75953224426939
 31
0.0
  0
LINE
  8
DETAIL
  6
CONTINUOUS
 62
     5
 10
8.3490188929981741
 20
-102.75953224426939
 30
0.0
 11
8.3490188929981741
 21
-102.75953224426939
 31
0.0
  0
LINE
  8
DETAIL
  6
CONTINUOUS
 62
     5
 10
8.3490188929981741
 20
-102.75953224426939
 30
0.0
 11
8.350595592556374
 21
-102.7612372467388
 31
0.0
  0
LINE
  8
DETAIL
  6
CONTINUOUS
 62
     5
 10
8.350595592556374
 20
-102.7612372467388
 30
0.0
 11
8.3522638962567726
 21
-102.7629582917525
 31
0.0
  0
LINE
  8
DETAIL
  6
CONTINUOUS
 62
     5
 10
8.3522638962567726
 20
-102.7629582917525
 30
0.0
 11
8.3522638962567726
 21
-102.7629582917525
 31
0.0
  0
LINE
  8
DETAIL
  6
CONTINUOUS
 62
     5
 10
8.3522638962567726
 20
-102.7629582917525
 30
0.0
 11
8.3541380112847037
 21
-102.7647305707565
 31
0.0
  0
LINE
  8
DETAIL
  6
CONTINUOUS
 62
     5
 10
8.3541380112847037
 20
-102.7647305707565
 30
0.0
 11
8.3560773801432333
 21
-102.76639860919479
 31
0.0
  0
LINE
  8
DETAIL
  6
CONTINUOUS
 62
     5
 10
8.3560773801432333
 20
-102.76639860919479
 30
0.0
 11
8.3560773801432333
 21
-102.76639860919479
 31
0.0
  0
LINE
  8
DETAIL
  6
CONTINUOUS
 62
     5
 10
8.3560773801432333
 20
-102.76639860919479
 30
0.0
 11
8.3579216092489332
 21
-102.7678087783174
 31
0.0
  0
LINE
  8
DETAIL
  6
CONTINUOUS
 62
     5
 10
8.3579216092489332
 20
-102.7678087783174
 30
0.0
 11
8.3596857253501184
 21
-102.76900549858151
 31
0.0
  0
LINE
  8
DETAIL
  6
CONTINUOUS
 62
     5
 10
8.3596857253501184
 20
-102.76900549858151
 30
0.0
 11
8.3596857253501184
 21
-102.76900549858151
 31
0.0
  0
LINE
  8
DETAIL
  6
CONTINUOUS
 62
     5
 10
8.3596857253501184
 20
-102.76900549858151
 30
0.0
 11
8.3614218098396123
 21
-102.770072304007
 31
0.0
  0
LINE
  8
DETAIL
  6
CONTINUOUS
 62
     5
 10
8.3614218098396123
 20
-102.770072304007
 30
0.0
 11
8.3631547423485699
 21
-102.7710511336427
 31
0.0
  0
LINE
  8
DETAIL
  6
CONTINUOUS
 62
     5
 10
8.3631547423485699
 20
-102.7710511336427
 30
0.0
 11
8.3631547423485699
 21
-102.7710511336427
 31
0.0
  0
LINE
  8
DETAIL
  6
CONTINUOUS
 62
     5
 10
8.3631547423485699
 20
-102.7710511336427
 30
0.0
 11
8.3648859487464051
 21
-102.7719656104609
 31
0.0
  0
LINE
  8
DETAIL
  6
CONTINUOUS
 62
     5
 10
8.3648859487464051
 20
-102.7719656104609
 30
0.0
 11
8.366550241609275
 21
-102.7728076881076
 31
0.0
  0
LINE
  8
DETAIL
  6
CONTINUOUS
 62
     5
 10
8.366550241609275
 20
-102.7728076881076
 30
0.0
 11
8.366550241609275
 21
-102.7728076881076
 31
0.0
  0
LINE
  8
DETAIL
  6
CONTINUOUS
 62
     5
 10
8.366550241609275
 20
-102.7728076881076
 30
0.0
 11
8.3681391939228433
 21
-102.7736034709674
 31
0.0
  0
LINE
  8
DETAIL
  6
CONTINUOUS
 62
     5
 10
8.3681391939228433
 20
-102.7736034709674
 30
0.0
 11
8.3699380336036029
 21
-102.7745473357072
 31
0.0
  0
LINE
  8
DETAIL
  6
CONTINUOUS
 62
     5
 10
8.3699380336036029
 20
-102.7745473357072
 30
0.0
 11
8.3699380336036029
 21
-102.7745473357072
 31
0.0
  0
LINE
  8
DETAIL
  6
CONTINUOUS
 62
     5
 10
8.3699380336036029
 20
-102.7745473357072
 30
0.0
 11
8.3721880770274311
 21
-102.77580606309949
 31
0.0
  0
LINE
  8
DETAIL
  6
CONTINUOUS
 62
     5
 10
8.3721880770274311
 20
-102.77580606309949
 30
0.0
 11
8.3746613394694123
 21
-102.7772677780558
 31
0.0
  0
LINE
  8
DETAIL
  6
CONTINUOUS
 62
     5
 10
8.3746613394694123
 20
-102.7772677780558
 30
0.0
 11
8.3746613394694123
 21
-102.7772677780558
 31
0.0
  0
LINE
  8
DETAIL
  6
CONTINUOUS
 62
     5
 10
8.3746613394694123
 20
-102.7772677780558
 30
0.0
 11
8.3770837752510943
 21
-102.7787855055271
 31
0.0
  0
LINE
  8
DETAIL
  6
CONTINUOUS
 62
     5
 10
8.3770837752510943
 20
-102.7787855055271
 30
0.0
 11
8.3794663959818081
 21
-102.7803505264947
 31
0.0
  0
LINE
  8
DETAIL
  6
CONTINUOUS
 62
     5
 10
8.3794663959818081
 20
-102.7803505264947
 30
0.0
 11
8.3794663959818081
 21
-102.7803505264947
 31
0.0
  0
LINE
  8
DETAIL
  6
CONTINUOUS
 62
     5
 10
8.3794663959818081
 20
-102.7803505264947
 30
0.0
 11
8.3818770111577123
 21
-102.7819826202667
 31
0.0
  0
LINE
  8
DETAIL
  6
CONTINUOUS
 62
     5
 10
8.3818770111577123
 20
-102.7819826202667
 30
0.0
 11
8.3843255645356294
 21
-102.783677303446
 31
0.0
  0
LINE
  8
DETAIL
  6
CONTINUOUS
 62
     5
 10
8.3843255645356294
 20
-102.783677303446
 30
0.0
 11
8.3843255645356294
 21
-102.783677303446
 31
0.0
  0
LINE
  8
DETAIL
  6
CONTINUOUS
 62
     5
 10
8.3843255645356294
 20
-102.783677303446
 30
0.0
 11
8.3867941348573822
 21
-102.7854137256581
 31
0.0
  0
LINE
  8
DETAIL
  6
CONTINUOUS
 62
     5
 10
8.3867941348573822
 20
-102.7854137256581
 30
0.0
 11
8.3892112065277615
 21
-102.7871298313335
 31
0.0
  0
LINE
  8
DETAIL
  6
CONTINUOUS
 62
     5
 10
8.3892112065277615
 20
-102.7871298313335
 30
0.0
 11
8.3892112065277615
 21
-102.7871298313335
 31
0.0
  0
LINE
  8
DETAIL
  6
CONTINUOUS
 62
     5
 10
8.3892112065277615
 20
-102.7871298313335
 30
0.0
 11
8.3915599261383704
 21
-102.7888005344757
 31
0.0
  0
LINE
  8
DETAIL
  6
CONTINUOUS
 62
     5
 10
8.3915599261383704
 20
-102.7888005344757
 30
0.0
 11
8.3940956833541804
 21
-102.7905898325789
 31
0.0
  0
LINE
  8
DETAIL
  6
CONTINUOUS
 62
     5
 10
8.3940956833541804
 20
-102.7905898325789
 30
0.0
 11
8.3940956833541804
 21
-102.7905898325789
 31
0.0
  0
LINE
  8
DETAIL
  6
CONTINUOUS
 62
     5
 10
8.3940956833541804
 20
-102.7905898325789
 30
0.0
 11
8.3970332979763498
 21
-102.79263540747981
 31
0.0
  0
LINE
  8
DETAIL
  6
CONTINUOUS
 62
     5
 10
8.3970332979763498
 20
-102.79263540747981
 30
0.0
 11
8.4001530672733224
 21
-102.794780594912
 31
0.0
  0
LINE
  8
DETAIL
  6
CONTINUOUS
 62
     5
 10
8.4001530672733224
 20
-102.794780594912
 30
0.0
 11
8.4001530672733224
 21
-102.794780594912
 31
0.0
  0
LINE
  8
DETAIL
  6
CONTINUOUS
 62
     5
 10
8.4001530672733224
 20
-102.794780594912
 30
0.0
 11
8.4031954815636709
 21
-102.7968443966179
 31
0.0
  0
LINE
  8
DETAIL
  6
CONTINUOUS
 62
     5
 10
8.4031954815636709
 20
-102.7968443966179
 30
0.0
 11
8.4061763258953306
 21
-102.79884282449299
 31
0.0
  0
LINE
  8
DETAIL
  6
CONTINUOUS
 62
     5
 10
8.4061763258953306
 20
-102.79884282449299
 30
0.0
 11
8.4061763258953306
 21
-102.79884282449299
 31
0.0
  0
LINE
  8
DETAIL
  6
CONTINUOUS
 62
     5
 10
8.4061763258953306
 20
-102.79884282449299
 30
0.0
 11
8.409165755712138
 21
-102.8008305970047
 31
0.0
  0
LINE
  8
DETAIL
  6
CONTINUOUS
 62
     5
 10
8.409165755712138
 20
-102.8008305970047
 30
0.0
 11
8.4121761132914799
 21
-102.8028202487626
 31
0.0
  0
LINE
  8
DETAIL
  6
CONTINUOUS
 62
     5
 10
8.4121761132914799
 20
-102.8028202487626
 30
0.0
 11
8.4121761132914799
 21
-102.8028202487626
 31
0.0
  0
LINE
  8
DETAIL
  6
CONTINUOUS
 62
     5
 10
8.4121761132914799
 20
-102.8028202487626
 30
0.0
 11
8.4151942771009089
 21
-102.8048066997317
 31
0.0
  0
LINE
  8
DETAIL
  6
CONTINUOUS
 62
     5
 10
8.4151942771009089
 20
-102.8048066997317
 30
0.0
 11
8.4181630835323631
 21
-102.8067565951596
 31
0.0
  0
LINE
  8
DETAIL
  6
CONTINUOUS
 62
     5
 10
8.4181630835323631
 20
-102.8067565951596
 30
0.0
 11
8.4181630835323631
 21
-102.8067565951596
 31
0.0
  0
LINE
  8
DETAIL
  6
CONTINUOUS
 62
     5
 10
8.4181630835323631
 20
-102.8067565951596
 30
0.0
 11
8.4210728538255353
 21
-102.8086683322972
 31
0.0
  0
LINE
  8
DETAIL
  6
CONTINUOUS
 62
     5
 10
8.4210728538255353
 20
-102.8086683322972
 30
0.0
 11
8.4241478906919838
 21
-102.8106955911239
 31
0.0
  0
LINE
  8
DETAIL
  6
CONTINUOUS
 62
     5
 10
8.4241478906919838
 20
-102.8106955911239
 30
0.0
 11
8.4241478906919838
 21
-102.8106955911239
 31
0.0
  0
LINE
  8
DETAIL
  6
CONTINUOUS
 62
     5
 10
8.4241478906919838
 20
-102.8106955911239
 30
0.0
 11
8.4275769046701043
 21
-102.81296769945359
 31
0.0
  0
LINE
  8
DETAIL
  6
CONTINUOUS
 62
     5
 10
8.4275769046701043
 20
-102.81296769945359
 30
0.0
 11
8.4311722561437819
 21
-102.8153612937117
 31
0.0
  0
LINE
  8
DETAIL
  6
CONTINUOUS
 62
     5
 10
8.4311722561437819
 20
-102.8153612937117
 30
0.0
 11
8.4311722561437819
 21
-102.8153612937117
 31
0.0
  0
LINE
  8
DETAIL
  6
CONTINUOUS
 62
     5
 10
8.4311722561437819
 20
-102.8153612937117
 30
0.0
 11
8.4347109778009326
 21
-102.81772837653401
 31
0.0
  0
LINE
  8
DETAIL
  6
CONTINUOUS
 62
     5
 10
8.4347109778009326
 20
-102.81772837653401
 30
0.0
 11
8.4382051417371713
 21
-102.8200751067852
 31
0.0
  0
LINE
  8
DETAIL
  6
CONTINUOUS
 62
     5
 10
8.4382051417371713
 20
-102.8200751067852
 30
0.0
 11
8.4382051417371713
 21
-102.8200751067852
 31
0.0
  0
LINE
  8
DETAIL
  6
CONTINUOUS
 62
     5
 10
8.4382051417371713
 20
-102.8200751067852
 30
0.0
 11
8.4417131141153732
 21
-102.8224380700281
 31
0.0
  0
LINE
  8
DETAIL
  6
CONTINUOUS
 62
     5
 10
8.4417131141153732
 20
-102.8224380700281
 30
0.0
 11
8.4452433979918169
 21
-102.8248214023984
 31
0.0
  0
LINE
  8
DETAIL
  6
CONTINUOUS
 62
     5
 10
8.4452433979918169
 20
-102.8248214023984
 30
0.0
 11
8.4452433979918169
 21
-102.8248214023984
 31
0.0
  0
LINE
  8
DETAIL
  6
CONTINUOUS
 62
     5
 10
8.4452433979918169
 20
-102.8248214023984
 30
0.0
 11
8.448783133902225
 21
-102.8272150380444
 31
0.0
  0
LINE
  8
DETAIL
  6
CONTINUOUS
 62
     5
 10
8.448783133902225
 20
-102.8272150380444
 30
0.0
 11
8.4522838754219265
 21
-102.8295845526054
 31
0.0
  0
LINE
  8
DETAIL
  6
CONTINUOUS
 62
     5
 10
8.4522838754219265
 20
-102.8295845526054
 30
0.0
 11
8.4522838754219265
 21
-102.8295845526054
 31
0.0
  0
LINE
  8
DETAIL
  6
CONTINUOUS
 62
     5
 10
8.4522838754219265
 20
-102.8295845526054
 30
0.0
 11
8.4557363321257526
 21
-102.831921902959
 31
0.0
  0
LINE
  8
DETAIL
  6
CONTINUOUS
 62
     5
 10
8.4557363321257526
 20
-102.831921902959
 30
0.0
 11
8.4593234245467102
 21
-102.83434892946021
 31
0.0
  0
LINE
  8
DETAIL
  6
CONTINUOUS
 62
     5
 10
8.4593234245467102
 20
-102.83434892946021
 30
0.0
 11
8.4593234245467102
 21
-102.83434892946021
 31
0.0
  0
LINE
  8
DETAIL
  6
CONTINUOUS
 62
     5
 10
8.4593234245467102
 20
-102.83434892946021
 30
0.0
 11
8.4631989741026246
 21
-102.83696817466669
 31
0.0
  0
LINE
  8
DETAIL
  6
CONTINUOUS
 62
     5
 10
8.4631989741026246
 20
-102.83696817466669
 30
0.0
 11
8.4672081947758215
 21
-102.8396751064688
 31
0.0
  0
LINE
  8
DETAIL
  6
CONTINUOUS
 62
     5
 10
8.4672081947758215
 20
-102.8396751064688
 30
0.0
 11
8.4672081947758215
 21
-102.8396751064688
 31
0.0
  0
LINE
  8
DETAIL
  6
CONTINUOUS
 62
     5
 10
8.4672081947758215
 20
-102.8396751064688
 30
0.0
 11
8.4711676429603813
 21
-102.842346270465
 31
0.0
  0
LINE
  8
DETAIL
  6
CONTINUOUS
 62
     5
 10
8.4711676429603813
 20
-102.842346270465
 30
0.0
 11
8.4750878521269897
 21
-102.8449895977546
 31
0.0
  0
LINE
  8
DETAIL
  6
CONTINUOUS
 62
     5
 10
8.4750878521269897
 20
-102.8449895977546
 30
0.0
 11
8.4750878521269897
 21
-102.8449895977546
 31
0.0
  0
LINE
  8
DETAIL
  6
CONTINUOUS
 62
     5
 10
8.4750878521269897
 20
-102.8449895977546
 30
0.0
 11
8.4790173176022563
 21
-102.8476387348319
 31
0.0
  0
LINE
  8
DETAIL
  6
CONTINUOUS
 62
     5
 10
8.4790173176022563
 20
-102.8476387348319
 30
0.0
 11
8.482962405043736
 21
-102.8502988042719
 31
0.0
  0
LINE
  8
DETAIL
  6
CONTINUOUS
 62
     5
 10
8.482962405043736
 20
-102.8502988042719
 30
0.0
 11
8.482962405043736
 21
-102.8502988042719
 31
0.0
  0
LINE
  8
DETAIL
  6
CONTINUOUS
 62
     5
 10
8.482962405043736
 20
-102.8502988042719
 30
0.0
 11
8.4869125830912253
 21
-102.8529634752126
 31
0.0
  0
LINE
  8
DETAIL
  6
CONTINUOUS
 62
     5
 10
8.4869125830912253
 20
-102.8529634752126
 30
0.0
 11
8.4908318619688998
 21
-102.8556091269716
 31
0.0
  0
LINE
  8
DETAIL
  6
CONTINUOUS
 62
     5
 10
8.4908318619688998
 20
-102.8556091269716
 30
0.0
 11
8.4908318619688998
 21
-102.8556091269716
 31
0.0
  0
LINE
  8
DETAIL
  6
CONTINUOUS
 62
     5
 10
8.4908318619688998
 20
-102.8556091269716
 30
0.0
 11
8.4947138781274134
 21
-102.8582322372108
 31
0.0
  0
LINE
  8
DETAIL
  6
CONTINUOUS
 62
     5
 10
8.4947138781274134
 20
-102.8582322372108
 30
0.0
 11
8.498696231344411
 21
-102.8609269668073
 31
0.0
  0
LINE
  8
DETAIL
  6
CONTINUOUS
 62
     5
 10
8.498696231344411
 20
-102.8609269668073
 30
0.0
 11
8.498696231344411
 21
-102.8609269668073
 31
0.0
  0
LINE
  8
DETAIL
  6
CONTINUOUS
 62
     5
 10
8.498696231344411
 20
-102.8609269668073
 30
0.0
 11
8.5028946519666988
 21
-102.8637723292227
 31
0.0
  0
LINE
  8
DETAIL
  6
CONTINUOUS
 62
     5
 10
8.5028946519666988
 20
-102.8637723292227
 30
0.0
 11
8.5071934293121103
 21
-102.8666890650484
 31
0.0
  0
LINE
  8
DETAIL
  6
CONTINUOUS
 62
     5
 10
8.5071934293121103
 20
-102.8666890650484
 30
0.0
 11
8.5071934293121103
 21
-102.8666890650484
 31
0.0
  0
LINE
  8
DETAIL
  6
CONTINUOUS
 62
     5
 10
8.5071934293121103
 20
-102.8666890650484
 30
0.0
 11
8.5114554626422887
 21
-102.8695829978947
 31
0.0
  0
LINE
  8
DETAIL
  6
CONTINUOUS
 62
     5
 10
8.5114554626422887
 20
-102.8695829978947
 30
0.0
 11
8.5156895320346848
 21
-102.87245855633
 31
0.0
  0
LINE
  8
DETAIL
  6
CONTINUOUS
 62
     5
 10
8.5156895320346848
 20
-102.87245855633
 30
0.0
 11
8.5156895320346848
 21
-102.87245855633
 31
0.0
  0
LINE
  8
DETAIL
  6
CONTINUOUS
 62
     5
 10
8.5156895320346848
 20
-102.87245855633
 30
0.0
 11
8.5199327128211735
 21
-102.8753392823605
 31
0.0
  0
LINE
  8
DETAIL
  6
CONTINUOUS
 62
     5
 10
8.5199327128211735
 20
-102.8753392823605
 30
0.0
 11
8.5241893805202835
 21
-102.878226566791
 31
0.0
  0
LINE
  8
DETAIL
  6
CONTINUOUS
 62
     5
 10
8.5241893805202835
 20
-102.878226566791
 30
0.0
 11
8.5241893805202835
 21
-102.878226566791
 31
0.0
  0
LINE
  8
DETAIL
  6
CONTINUOUS
 62
     5
 10
8.5241893805202835
 20
-102.878226566791
 30
0.0
 11
8.5284519653064308
 21
-102.881113762588
 31
0.0
  0
LINE
  8
DETAIL
  6
CONTINUOUS
 62
     5
 10
8.5284519653064308
 20
-102.881113762588
 30
0.0
 11
8.5326978157763733
 21
-102.8839842225693
 31
0.0
  0
LINE
  8
DETAIL
  6
CONTINUOUS
 62
     5
 10
8.5326978157763733
 20
-102.8839842225693
 30
0.0
 11
8.5326978157763733
 21
-102.8839842225693
 31
0.0
  0
LINE
  8
DETAIL
  6
CONTINUOUS
 62
     5
 10
8.5326978157763733
 20
-102.8839842225693
 30
0.0
 11
8.5369237666614026
 21
-102.88683433746471
 31
0.0
  0
LINE
  8
DETAIL
  6
CONTINUOUS
 62
     5
 10
8.5369237666614026
 20
-102.88683433746471
 30
0.0
 11
8.5412196788126948
 21
-102.88972264980519
 31
0.0
  0
LINE
  8
DETAIL
  6
CONTINUOUS
 62
     5
 10
8.5412196788126948
 20
-102.88972264980519
 30
0.0
 11
8.5412196788126948
 21
-102.88972264980519
 31
0.0
  0
LINE
  8
DETAIL
  6
CONTINUOUS
 62
     5
 10
8.5412196788126948
 20
-102.88972264980519
 30
0.0
 11
8.5456606921195544
 21
-102.8926989125671
 31
0.0
  0
LINE
  8
DETAIL
  6
CONTINUOUS
 62
     5
 10
8.5456606921195544
 20
-102.8926989125671
 30
0.0
 11
8.5501700365109627
 21
-102.8957155686976
 31
0.0
  0
LINE
  8
DETAIL
  6
CONTINUOUS
 62
     5
 10
8.5501700365109627
 20
-102.8957155686976
 30
0.0
 11
8.5501700365109627
 21
-102.8957155686976
 31
0.0
  0
LINE
  8
DETAIL
  6
CONTINUOUS
 62
     5
 10
8.5501700365109627
 20
-102.8957155686976
 30
0.0
 11
8.554656142545582
 21
-102.898716323773
 31
0.0
  0
LINE
  8
DETAIL
  6
CONTINUOUS
 62
     5
 10
8.554656142545582
 20
-102.898716323773
 30
0.0
 11
8.5591201532715786
 21
-102.90170724389741
 31
0.0
  0
LINE
  8
DETAIL
  6
CONTINUOUS
 62
     5
 10
8.5591201532715786
 20
-102.90170724389741
 30
0.0
 11
8.5591201532715786
 21
-102.90170724389741
 31
0.0
  0
LINE
  8
DETAIL
  6
CONTINUOUS
 62
     5
 10
8.5591201532715786
 20
-102.90170724389741
 30
0.0
 11
8.5635827063260876
 21
-102.9047076253746
 31
0.0
  0
LINE
  8
DETAIL
  6
CONTINUOUS
 62
     5
 10
8.5635827063260876
 20
-102.9047076253746
 30
0.0
 11
8.568049705227395
 21
-102.90772732476169
 31
0.0
  0
LINE
  8
DETAIL
  6
CONTINUOUS
 62
     5
 10
8.568049705227395
 20
-102.90772732476169
 30
0.0
 11
8.568049705227395
 21
-102.90772732476169
 31
0.0
  0
LINE
  8
DETAIL
  6
CONTINUOUS
 62
     5
 10
8.568049705227395
 20
-102.90772732476169
 30
0.0
 11
8.572514925961741
 21
-102.9107676882918
 31
0.0
  0
LINE
  8
DETAIL
  6
CONTINUOUS
 62
     5
 10
8.572514925961741
 20
-102.9107676882918
 30
0.0
 11
8.5769383685119465
 21
-102.91380546064831
 31
0.0
  0
LINE
  8
DETAIL
  6
CONTINUOUS
 62
     5
 10
8.5769383685119465
 20
-102.91380546064831
 30
0.0
 11
8.5769383685119465
 21
-102.91380546064831
 31
0.0
  0
LINE
  8
DETAIL
  6
CONTINUOUS
 62
     5
 10
8.5769383685119465
 20
-102.91380546064831
 30
0.0
 11
8.581309048393905
 21
-102.9168381976137
 31
0.0
  0
LINE
  8
DETAIL
  6
CONTINUOUS
 62
     5
 10
8.581309048393905
 20
-102.9168381976137
 30
0.0
 11
8.5857658192578583
 21
-102.91997130091571
 31
0.0
  0
LINE
  8
DETAIL
  6
CONTINUOUS
 62
     5
 10
8.5857658192578583
 20
-102.91997130091571
 30
0.0
 11
8.5857658192578583
 21
-102.91997130091571
 31
0.0
  0
LINE
  8
DETAIL
  6
CONTINUOUS
 62
     5
 10
8.5857658192578583
 20
-102.91997130091571
 30
0.0
 11
8.590426355502359
 21
-102.92329268415369
 31
0.0
  0
LINE
  8
DETAIL
  6
CONTINUOUS
 62
     5
 10
8.590426355502359
 20
-102.92329268415369
 30
0.0
 11
8.5951737763916753
 21
-102.92671246246159
 31
0.0
  0
LINE
  8
DETAIL
  6
CONTINUOUS
 62
     5
 10
8.5951737763916753
 20
-102.92671246246159
 30
0.0
 11
8.5951737763916753
 21
-102.92671246246159
 31
0.0
  0
LINE
  8
DETAIL
  6
CONTINUOUS
 62
     5
 10
8.5951737763916753
 20
-102.92671246246159
 30
0.0
 11
8.5998709551072352
 21
-102.9301228204686
 31
0.0
  0
LINE
  8
DETAIL
  6
CONTINUOUS
 62
     5
 10
8.5998709551072352
 20
-102.9301228204686
 30
0.0
 11
8.6045343356242938
 21
-102.93352201924201
 31
0.0
  0
LINE
  8
DETAIL
  6
CONTINUOUS
 62
     5
 10
8.6045343356242938
 20
-102.93352201924201
 30
0.0
 11
8.6045343356242938
 21
-102.93352201924201
 31
0.0
  0
LINE
  8
DETAIL
  6
CONTINUOUS
 62
     5
 10
8.6045343356242938
 20
-102.93352201924201
 30
0.0
 11
8.6092081589235931
 21
-102.9369281826207
 31
0.0
  0
LINE
  8
DETAIL
  6
CONTINUOUS
 62
     5
 10
8.6092081589235931
 20
-102.9369281826207
 30
0.0
 11
8.6138942832108114
 21
-102.9403328090893
 31
0.0
  0
LINE
  8
DETAIL
  6
CONTINUOUS
 62
     5
 10
8.6138942832108114
 20
-102.9403328090893
 30
0.0
 11
8.6138942832108114
 21
-102.9403328090893
 31
0.0
  0
LINE
  8
DETAIL
  6
CONTINUOUS
 62
     5
 10
8.6138942832108114
 20
-102.9403328090893
 30
0.0
 11
8.6185879610727625
 21
-102.9437208470376
 31
0.0
  0
LINE
  8
DETAIL
  6
CONTINUOUS
 62
     5
 10
8.6185879610727625
 20
-102.9437208470376
 30
0.0
 11
8.6233004054085995
 21
-102.9470776698372
 31
0.0
  0
LINE
  8
DETAIL
  6
CONTINUOUS
 62
     5
 10
8.6233004054085995
 20
-102.9470776698372
 30
0.0
 11
8.6233004054085995
 21
-102.9470776698372
 31
0.0
  0
LINE
  8
DETAIL
  6
CONTINUOUS
 62
     5
 10
8.6233004054085995
 20
-102.9470776698372
 30
0.0
 11
8.6280414545794883
 21
-102.9503949884615
 31
0.0
  0
LINE
  8
DETAIL
  6
CONTINUOUS
 62
     5
 10
8.6280414545794883
 20
-102.9503949884615
 30
0.0
 11
8.6327994884754844
 21
-102.9536894393195
 31
0.0
  0
LINE
  8
DETAIL
  6
CONTINUOUS
 62
     5
 10
70.326408982579778
 20
-130.0379011245241
 30
0.0
 11
64.562753891078046
 21
-130.0379011245241
 31
0.0
  0
ARC
  8
DETAIL
  6
CONTINUOUS
 62
     5
 10
70.326408982579778
 20
-131.40668713167051
 30
0.0
 40
1.368786007146608
 50
45.000000000009223
 51
90.0
  0
LINE
  8
DETAIL
  6
CONTINUOUS
 62
     5
 10
73.459852474125455
 20
-132.6043748879234
 30
0.0
 11
71.294286850226172
 21
-130.4388092640234
 31
0.0
  0
LINE
  8
DETAIL
  6
CONTINUOUS
 62
     5
 10
72.975913540302599
 20
-133.08831382174691
 30
0.0
 11
70.810347916402634
 21
-130.92274819784689
 31
0.0
  0
LINE
  8
DETAIL
  6
CONTINUOUS
 62
     5
 10
72.975913540302599
 20
-133.08831382174691
 30
0.0
 11
73.459852474125455
 21
-132.6043748879234
 31
0.0
  0
ARC
  8
DETAIL
  6
CONTINUOUS
 62
     5
 10
70.326408982579778
 20
-131.40668713167051
 30
0.0
 40
0.6843930035732481
 50
45.000000000027633
 51
90.0
  0
LINE
  8
DETAIL
  6
CONTINUOUS
 62
     5
 10
70.326408982579778
 20
-130.7222941280975
 30
0.0
 11
64.562753891078046
 21
-130.7222941280975
 31
0.0
  0
ARC
  8
DETAIL
  6
CONTINUOUS
 62
     5
 10
-74.735538759786891
 20
-119.0155820497498
 30
0.0
 40
0.899739805500004
 50
239.99999999998491
 51
270.0
  0
LINE
  8
DETAIL
  6
CONTINUOUS
 62
     5
 10
-89.975674360919243
 20
-119.46109486541989
 30
0.0
 11
-89.975674360919243
 21
119.9153218552501
 31
0.0
  0
LINE
  8
DETAIL
  6
CONTINUOUS
 62
     5
 10
-89.972286739080914
 20
-119.4654519525002
 30
0.0
 11
-89.972286739080914
 21
-119.9153218552501
 31
0.0
  0
LINE
  8
DETAIL
  6
CONTINUOUS
 62
     5
 10
-0.44817609183076
 20
-119.9153218552501
 30
0.0
 11
-89.972286739080914
 21
-119.9153218552501
 31
0.0
  0
LINE
  8
DETAIL
  6
CONTINUOUS
 62
     5
 10
-30.005522256104879
 20
119.8573177873477
 30
0.0
 11
-30.005522256104879
 21
123.157738916319
 31
0.0
  0
LINE
  8
DETAIL
  6
CONTINUOUS
 62
     5
 10
-89.975674360919243
 20
119.9153218552501
 30
0.0
 11
-0.0016938109191642
 21
119.9153218552501
 31
0.0
  0
LINE
  8
DETAIL
  6
CONTINUOUS
 62
     5
 10
-86.80171392655086
 20
-99.228644429981159
 30
0.0
 11
-86.80171392655086
 21
99.012665204676978
 31
0.0
  0
LINE
  8
DETAIL
  6
CONTINUOUS
 62
     5
 10
-73.222092069610312
 20
99.012665204676978
 30
0.0
 11
-73.222092069610312
 21
-99.228644429981159
 31
0.0
  0
CIRCLE
  8
DETAIL
  6
CONTINUOUS
 62
     5
 10
-80.011902998080927
 20
95.404197604521869
 30
0.0
 40
4.0005104593580656
  0
LINE
  8
DETAIL
  6
CONTINUOUS
 62
     5
 10
-78.526792067826705
 20
96.889313291832423
 30
0.0
 11
-81.497013928334923
 21
93.919081917211315
 31
0.0
  0
LINE
  8
DETAIL
  6
CONTINUOUS
 62
     5
 10
-81.497018685390799
 20
96.889308534775864
 30
0.0
 11
-78.526787310769691
 21
93.919086674267874
 31
0.0
  0
CIRCLE
  8
DETAIL
  6
CONTINUOUS
 62
     5
 10
-80.011902998080927
 20
24.395136950915909
 30
0.0
 40
4.0005104593580656
  0
LINE
  8
DETAIL
  6
CONTINUOUS
 62
     5
 10
-78.526792067826705
 20
25.880252638226921
 30
0.0
 11
-81.497013928334923
 21
22.91002126360581
 31
0.0
  0
LINE
  8
DETAIL
  6
CONTINUOUS
 62
     5
 10
-81.497018685390799
 20
25.880247881170359
 30
0.0
 11
-78.526787310769691
 21
22.91002602066192
 31
0.0
  0
CIRCLE
  8
DETAIL
  6
CONTINUOUS
 62
     5
 10
-80.011902998080927
 20
-46.61392370268959
 30
0.0
 40
4.0005104593580656
  0
LINE
  8
DETAIL
  6
CONTINUOUS
 62
     5
 10
-78.526792067826705
 20
-45.128808015379043
 30
0.0
 11
-81.497013928334923
 21
-48.099039390000137
 31
0.0
  0
LINE
  8
DETAIL
  6
CONTINUOUS
 62
     5
 10
-81.497018685390799
 20
-45.12881277243514
 30
0.0
 11
-78.526787310769691
 21
-48.099034632943592
 31
0.0
  0
ARC
  8
DETAIL
  6
CONTINUOUS
 62
     5
 10
-92.257584432487761
 20
95.110102232501958
 30
0.0
 40
0.299913268500012
 50
17.000000000001009
 51
107.0000000000291
  0
ARC
  8
DETAIL
  6
CONTINUOUS
 62
     5
 10
-91.683967462401938
 20
95.285474539663028
 30
0.0
 40
0.299913268499948
 50
197.00000000000099
 51
286.99999999998818
  0
ARC
  8
DETAIL
  6
CONTINUOUS
 62
     5
 10
-141.94986365291399
 20
84.572198602436856
 30
0.0
 40
0.26992194164996
 50
106.99999999998811
 51
196.99999999999511
  0
ARC
  8
DETAIL
  6
CONTINUOUS
 62
     5
 10
-141.84998612231391
 20
84.245513919945097
 30
0.0
 40
0.269921941649888
 50
196.99999999999511
 51
301.43312224277292
  0
ARC
  8
DETAIL
  6
CONTINUOUS
 62
     5
 10
-141.84998612231391
 20
84.245513919945097
 30
0.0
 40
0.539843883299988
 50
196.99999999998909
 51
301.43312224278782
  0
ARC
  8
DETAIL
  6
CONTINUOUS
 62
     5
 10
-141.94986365291399
 20
84.572198602436856
 30
0.0
 40
0.5398438833001521
 50
107.0000000000087
 51
196.99999999999511
  0
LINE
  8
DETAIL
  6
CONTINUOUS
 62
     5
 10
-138.7209233303075
 20
85.841639876935005
 30
0.0
 11
-141.70922102650479
 21
84.015203168136395
 31
0.0
  0
LINE
  8
DETAIL
  6
CONTINUOUS
 62
     5
 10
-141.56845593069519
 20
83.784892416327239
 30
0.0
 11
-138.5801582345276
 21
85.6113291252218
 31
0.0
  0
LINE
  8
DETAIL
  6
CONTINUOUS
 62
     5
 10
-142.1076987293587
 20
85.088453875514006
 30
0.0
 11
-90.013179146476091
 21
100.7096161663917
 31
0.0
  0
LINE
  8
DETAIL
  6
CONTINUOUS
 62
     5
 10
-142.02878119113629
 20
84.830326238975431
 30
0.0
 11
-132.50673948771001
 21
87.74150653784227
 31
0.0
  0
LINE
  8
DETAIL
  6
CONTINUOUS
 62
     5
 10
-93.970518667978354
 20
94.900022513923432
 30
0.0
 11
-92.345270586068068
 21
95.396910717545325
 31
0.0
  0
LINE
  8
DETAIL
  6
CONTINUOUS
 62
     5
 10
-129.212164573335
 20
83.80406711194928
 30
0.0
 11
-93.795146360817512
 21
94.326405543837609
 31
0.0
  0
LINE
  8
DETAIL
  6
CONTINUOUS
 62
     5
 10
-90.013179146476091
 20
95.482668957532496
 30
0.0
 11
-91.596281308821631
 21
94.998666054619662
 31
0.0
  0
LINE
  8
DETAIL
  6
CONTINUOUS
 62
     5
 10
-129.21216456550371
 20
83.804067114030204
 30
0.0
 11
-131.70879549012909
 21
85.131549323950821
 31
0.0
  0
LINE
  8
DETAIL
  6
CONTINUOUS
 62
     5
 10
-93.795146360817512
 20
94.326405543837609
 30
0.0
 11
-93.970518667978354
 21
94.900022513923432
 31
0.0
  0
LINE
  8
DETAIL
  6
CONTINUOUS
 62
     5
 10
-138.5801582345276
 20
85.6113291252218
 30
0.0
 11
-138.7209233303075
 21
85.841639876935005
 31
0.0
  0
LINE
  8
DETAIL
  6
CONTINUOUS
 62
     5
 10
-131.70879549012909
 20
85.131549323950821
 30
0.0
 11
-132.58565702593239
 21
87.99963417438039
 31
0.0
  0
LINE
  8
DETAIL
  6
CONTINUOUS
 62
     5
 10
-142.02878119113629
 20
84.830326238975431
 30
0.0
 11
-142.1076987293587
 21
85.088453875514006
 31
0.0
  0
LINE
  8
DETAIL
  6
CONTINUOUS
 62
     5
 10
-142.1081137588526
 20
84.166596381722684
 30
0.0
 11
-142.20799128945271
 21
84.493281064214898
 31
0.0
  0
LINE
  8
DETAIL
  6
CONTINUOUS
 62
     5
 10
-142.46611892599171
 20
84.414363525992485
 30
0.0
 11
-142.36624139539131
 21
84.087678843500726
 31
0.0
  0
LINE
  8
DETAIL
  6
CONTINUOUS
 62
     5
 10
-142.1076987293587
 20
14.0793932219085
 30
0.0
 11
-90.013179146476091
 21
29.700555512786199
 31
0.0
  0
LINE
  8
DETAIL
  6
CONTINUOUS
 62
     5
 10
-90.013179146476091
 20
24.47360830392654
 30
0.0
 11
-91.596281308821403
 21
23.98960540101416
 31
0.0
  0
ARC
  8
DETAIL
  6
CONTINUOUS
 62
     5
 10
-92.257584432487761
 20
24.10104157889646
 30
0.0
 40
0.299913268499948
 50
16.999999999989161
 51
106.99999999998811
  0
ARC
  8
DETAIL
  6
CONTINUOUS
 62
     5
 10
-91.683967462401938
 20
24.276413886057071
 30
0.0
 40
0.299913268500012
 50
197.0000000000216
 51
287.0000000000291
  0
LINE
  8
DETAIL
  6
CONTINUOUS
 62
     5
 10
-142.02878119113629
 20
13.821265585369471
 30
0.0
 11
-132.50673948771001
 21
16.732445884236309
 31
0.0
  0
LINE
  8
DETAIL
  6
CONTINUOUS
 62
     5
 10
-93.970518667978354
 20
23.89096186031793
 30
0.0
 11
-92.345270586067841
 21
24.387850063939371
 31
0.0
  0
LINE
  8
DETAIL
  6
CONTINUOUS
 62
     5
 10
-129.212164573335
 20
12.79500645834378
 30
0.0
 11
-93.795146360817512
 21
23.317344890231649
 31
0.0
  0
LINE
  8
DETAIL
  6
CONTINUOUS
 62
     5
 10
-93.795146360817512
 20
23.317344890231649
 30
0.0
 11
-93.970518667978354
 21
23.89096186031793
 31
0.0
  0
LINE
  8
DETAIL
  6
CONTINUOUS
 62
     5
 10
-131.70879549012889
 20
14.122488670345319
 30
0.0
 11
-132.58565702593219
 21
16.990573520774891
 31
0.0
  0
LINE
  8
DETAIL
  6
CONTINUOUS
 62
     5
 10
-142.1076987293587
 20
-56.929667431697453
 30
0.0
 11
-90.013179146476091
 21
-41.308505140819761
 31
0.0
  0
LINE
  8
DETAIL
  6
CONTINUOUS
 62
     5
 10
-90.013179146476091
 20
-46.535452349678962
 30
0.0
 11
-91.596281308821403
 21
-47.019455252591797
 31
0.0
  0
ARC
  8
DETAIL
  6
CONTINUOUS
 62
     5
 10
-92.257584432487761
 20
-46.908019074709053
 30
0.0
 40
0.299913268499892
 50
16.999999999980421
 51
106.99999999998811
  0
ARC
  8
DETAIL
  6
CONTINUOUS
 62
     5
 10
-91.683967462401938
 20
-46.732646767548431
 30
0.0
 40
0.2999132685000679
 50
197.0000000000216
 51
287.00000000002228
  0
ARC
  8
DETAIL
  6
CONTINUOUS
 62
     5
 10
-141.94986365291399
 20
-57.445922704774603
 30
0.0
 40
0.26992194164996
 50
106.9999999999814
 51
196.99999999999511
  0
ARC
  8
DETAIL
  6
CONTINUOUS
 62
     5
 10
-141.84998612231391
 20
-57.772607387266362
 30
0.0
 40
0.2699219416500039
 50
197.00000000000981
 51
301.43312224281811
  0
ARC
  8
DETAIL
  6
CONTINUOUS
 62
     5
 10
-141.84998612231391
 20
-57.772607387266362
 30
0.0
 40
0.5398438833001079
 50
197.00000000000099
 51
301.4331222428109
  0
ARC
  8
DETAIL
  6
CONTINUOUS
 62
     5
 10
-141.94986365291399
 20
-57.445922704774603
 30
0.0
 40
0.5398438832999161
 50
107.0000000000087
 51
196.99999999999511
  0
LINE
  8
DETAIL
  6
CONTINUOUS
 62
     5
 10
-138.7209233303075
 20
-56.176481430276453
 30
0.0
 11
-141.70922102650459
 21
-58.002918139075057
 31
0.0
  0
LINE
  8
DETAIL
  6
CONTINUOUS
 62
     5
 10
-141.56845593069519
 20
-58.23322889088422
 30
0.0
 11
-138.5801582345274
 21
-56.406792181989658
 31
0.0
  0
LINE
  8
DETAIL
  6
CONTINUOUS
 62
     5
 10
-142.02878119113629
 20
-57.187795068235573
 30
0.0
 11
-132.50673948771001
 21
-54.276614769369189
 31
0.0
  0
LINE
  8
DETAIL
  6
CONTINUOUS
 62
     5
 10
-93.970518667978354
 20
-47.118098793288027
 30
0.0
 11
-92.345270586067841
 21
-46.621210589666589
 31
0.0
  0
LINE
  8
DETAIL
  6
CONTINUOUS
 62
     5
 10
-129.212164573335
 20
-58.214054195262179
 30
0.0
 11
-93.795146360817512
 21
-47.69171576337385
 31
0.0
  0
LINE
  8
DETAIL
  6
CONTINUOUS
 62
     5
 10
-129.21216456550371
 20
-58.214054193181248
 30
0.0
 11
-131.70879549012889
 21
-56.886571983260637
 31
0.0
  0
LINE
  8
DETAIL
  6
CONTINUOUS
 62
     5
 10
-93.795146360817512
 20
-47.69171576337385
 30
0.0
 11
-93.970518667978354
 21
-47.118098793288027
 31
0.0
  0
LINE
  8
DETAIL
  6
CONTINUOUS
 62
     5
 10
-138.5801582345274
 20
-56.406792181989658
 30
0.0
 11
-138.7209233303075
 21
-56.176481430276453
 31
0.0
  0
LINE
  8
DETAIL
  6
CONTINUOUS
 62
     5
 10
-131.70879549012889
 20
-56.886571983260637
 30
0.0
 11
-132.58565702593219
 21
-54.018487132831069
 31
0.0
  0
LINE
  8
DETAIL
  6
CONTINUOUS
 62
     5
 10
-142.02878119113629
 20
-57.187795068235573
 30
0.0
 11
-142.1076987293587
 21
-56.929667431697453
 31
0.0
  0
LINE
  8
DETAIL
  6
CONTINUOUS
 62
     5
 10
-142.1081137588526
 20
-57.851524925488768
 30
0.0
 11
-142.20799128945271
 21
-57.524840242996561
 31
0.0
  0
LINE
  8
DETAIL
  6
CONTINUOUS
 62
     5
 10
-142.46611892599151
 20
-57.603757781218967
 30
0.0
 11
-142.3662413953912
 21
-57.930442463710733
 31
0.0
  0
LINE
  8
DETAIL
  6
CONTINUOUS
 62
     5
 10
-28.00526702642571
 20
124.1578665311586
 30
0.0
 11
-30.005522256104879
 21
124.1578665311586
 31
0.0
  0
LINE
  8
DETAIL
  6
CONTINUOUS
 62
     5
 10
-27.00513941158658
 20
123.157738916319
 30
0.0
 11
-30.005522256104879
 21
123.157738916319
 31
0.0
  0
LINE
  8
DETAIL
  6
CONTINUOUS
 62
     5
 10
-27.00513941158658
 20
119.8573177873477
 30
0.0
 11
-27.00513941158658
 21
123.157738916319
 31
0.0
  0
LINE
  8
DETAIL
  6
CONTINUOUS
 62
     5
 10
-28.00526702642571
 20
119.8573177873477
 30
0.0
 11
-28.00526702642571
 21
124.1578665311586
 31
0.0
  0
LINE
  8
DETAIL
  6
CONTINUOUS
 62
     5
 10
-28.00523315785847
 20
124.1578305724142
 30
0.0
 11
-27.00521239099351
 21
123.1578098055497
 31
0.0
  0
LINE
  8
DETAIL
  6
CONTINUOUS
 62
     5
 10
-32.005777485784051
 20
124.1578665311586
 30
0.0
 11
-30.005522256104879
 21
124.1578665311586
 31
0.0
  0
LINE
  8
DETAIL
  6
CONTINUOUS
 62
     5
 10
-33.005905100623643
 20
123.157738916319
 30
0.0
 11
-30.005522256104879
 21
123.157738916319
 31
0.0
  0
LINE
  8
DETAIL
  6
CONTINUOUS
 62
     5
 10
-33.005905100623643
 20
119.8573177873477
 30
0.0
 11
-33.005905100623643
 21
123.157738916319
 31
0.0
  0
LINE
  8
DETAIL
  6
CONTINUOUS
 62
     5
 10
-32.005777485784051
 20
119.8573177873477
 30
0.0
 11
-32.005777485784051
 21
124.1578665311586
 31
0.0
  0
LINE
  8
DETAIL
  6
CONTINUOUS
 62
     5
 10
-32.005812609936243
 20
124.15767949883551
 30
0.0
 11
-33.005833376801213
 21
123.1576587319705
 31
0.0
  0
ARC
  8
DETAIL
  6
CONTINUOUS
 62
     5
 10
-80.011902998080586
 20
97.88329308165703
 30
0.0
 40
6.8830962390939163
 50
9.4437407482817051
 51
170.5562592517183
  0
ARC
  8
DETAIL
  6
CONTINUOUS
 62
     5
 10
-80.011902998080586
 20
-98.192622006404918
 30
0.0
 40
6.8683968221505154
 50
188.6755536157707
 51
351.3244463842293
  0
LINE
  8
OUTLINE
  6
CONTINUOUS
 62
     3
 10
-89.972286739080914
 20
-119.4654519525002
 30
0.0
 11
-89.972286739080914
 21
-119.9153218552501
 31
0.0
  0
LINE
  8
OUTLINE
  6
CONTINUOUS
 62
     3
 10
0.0
 20
-119.9153218552501
 30
0.0
 11
-89.972286739080914
 21
-119.9153218552501
 31
0.0
  0
LINE
  8
OUTLINE
  6
CONTINUOUS
 62
     3
 10
-89.972286739080914
 20
-119.9153218552501
 30
0.0
 11
-89.975674360919243
 21
119.9153218552501
 31
0.0
  0
LINE
  8
OUTLINE
  6
CONTINUOUS
 62
     3
 10
-89.975674360919243
 20
119.9153218552501
 30
0.0
 11
-0.0016938109191642
 21
119.9153218552501
 31
0.0
  0
LINE
  8
OUTLINE
  6
CONTINUOUS
 62
     3
 10
-89.973980550000078
 20
0.0
 30
0.0
 11
-89.975674360919243
 21
119.9153218552501
 31
0.0
  0
LINE
  8
SIZE
  6
CONTINUOUS
 62
    30
 10
0.0
 20
172.5
 30
0.0
 11
0.0
 21
580.63539032245922
 31
0.0
  0
LINE
  8
SIZE
  6
CONTINUOUS
 62
    30
 10
-89.975674360919243
 20
139.91532185525011
 30
0.0
 11
-89.975674360919243
 21
580.63539032245922
 31
0.0
  0
LINE
  8
SIZE
  6
CONTINUOUS
 62
    30
 10
12.0
 20
560.63539032245922
 30
0.0
 11
24.0
 21
560.63539032245922
 31
0.0
  0
LINE
  8
SIZE
  6
CONTINUOUS
 62
    30
 10
-101.9756743609192
 20
560.63539032245922
 30
0.0
 11
-113.9756743609192
 21
560.63539032245922
 31
0.0
  0
LINE
  8
SIZE
  6
CONTINUOUS
 62
    30
 10
0.0
 20
560.63539032245922
 30
0.0
 11
-89.975674360919243
 21
560.63539032245922
 31
0.0
  0
CIRCLE
  8
SIZE
  6
CONTINUOUS
 62
    30
 10
0.0
 20
560.63539032245922
 30
0.0
 40
6.0
  0
LINE
  8
SIZE
  6
CONTINUOUS
 62
    30
 10
0.0
 20
560.63539032245922
 30
0.0
 11
12.0
 21
560.63539032245922
 31
0.0
  0
CIRCLE
  8
SIZE
  6
CONTINUOUS
 62
    30
 10
-89.975674360919243
 20
560.63539032245922
 30
0.0
 40
6.0
  0
LINE
  8
SIZE
  6
CONTINUOUS
 62
    30
 10
-89.975674360919243
 20
560.63539032245922
 30
0.0
 11
-101.9756743609192
 21
560.63539032245922
 31
0.0
  0
TEXT
  8
SIZE
  6
CONTINUOUS
 62
    30
 10
-91.616408609030998
 20
585.63539032245922
 30
0.0
 40
64.0
  1
90
 41
0.9
 72
     1
 11
-44.987837180459557
 21
585.63539032245922
 31
0.0
  0
LINE
  8
SIZE
  6
CONTINUOUS
 62
    30
 10
-89.975674360919243
 20
139.91532185525011
 30
0.0
 11
-89.975674360919243
 21
580.63539032245922
 31
0.0
  0
LINE
  8
SIZE
  6
CONTINUOUS
 62
    30
 10
-142.46611892599159
 20
104.4143635259923
 30
0.0
 11
-142.46611892599159
 21
580.63539032245922
 31
0.0
  0
LINE
  8
SIZE
  6
CONTINUOUS
 62
    30
 10
-77.975674360919243
 20
560.63539032245922
 30
0.0
 11
-65.975674360919243
 21
560.63539032245922
 31
0.0
  0
LINE
  8
SIZE
  6
CONTINUOUS
 62
    30
 10
-154.46611892599159
 20
560.63539032245922
 30
0.0
 11
-309.72326178313449
 21
560.63539032245922
 31
0.0
  0
LINE
  8
SIZE
  6
CONTINUOUS
 62
    30
 10
-89.975674360919243
 20
560.63539032245922
 30
0.0
 11
-142.46611892599159
 21
560.63539032245922
 31
0.0
  0
CIRCLE
  8
SIZE
  6
CONTINUOUS
 62
    30
 10
-89.975674360919243
 20
560.63539032245922
 30
0.0
 40
6.0
  0
LINE
  8
SIZE
  6
CONTINUOUS
 62
    30
 10
-89.975674360919243
 20
560.63539032245922
 30
0.0
 11
-77.975674360919243
 21
560.63539032245922
 31
0.0
  0
CIRCLE
  8
SIZE
  6
CONTINUOUS
 62
    30
 10
-142.46611892599159
 20
560.63539032245922
 30
0.0
 40
6.0
  0
LINE
  8
SIZE
  6
CONTINUOUS
 62
    30
 10
-142.46611892599159
 20
560.63539032245922
 30
0.0
 11
-154.46611892599159
 21
560.63539032245922
 31
0.0
  0
TEXT
  8
SIZE
  6
CONTINUOUS
 62
    30
 10
-284.72326178313449
 20
585.63539032245922
 30
0.0
 40
64.0
  1
52
 41
0.9
 72
     1
 11
-238.09469035456311
 21
585.63539032245922
 31
0.0
  0
LINE
  8
NOTE
  6
CONTINUOUS
 62
     4
 10
11.5404737321096
 20
-100.0
 30
0.0
 11
-11.5404737321096
 21
-100.0
 31
0.0
  0
LINE
  8
NOTE
  6
CONTINUOUS
 62
     4
 10
-4.8056034086333739
 20
-103.935844911697
 30
0.0
 11
0.0
 21
-100.0
 31
0.0
  0
LINE
  8
NOTE
  6
CONTINUOUS
 62
     4
 10
0.0
 20
-100.0
 30
0.0
 11
-2.1938434191711171
 21
-105.8113466892072
 31
0.0
  0
LINE
  8
NOTE
  6
CONTINUOUS
 62
     4
 10
0.0
 20
-100.0
 30
0.0
 11
-6.9994468278046043
 21
-109.7471916009042
 31
0.0
  0
LINE
  8
NOTE
  6
CONTINUOUS
 62
     4
 10
-6.9994468278046043
 20
-109.7471916009041
 30
0.0
 11
-133.4856124376291
 21
-282.62381976783121
 31
0.0
  0
LINE
  8
NOTE
  6
CONTINUOUS
 62
     4
 10
-133.4856124376291
 20
-282.62381976783121
 30
0.0
 11
-255.51418386620051
 21
-282.62381976783121
 31
0.0
  0
TEXT
  8
NOTE
  6
CONTINUOUS
 62
     4
 10
-249.1551311409502
 20
-272.06059406261971
 30
0.0
 40
64.0
  1
EL
 41
0.9
 72
     2
 11
-164.12655971237879
 21
-272.06059406261971
 31
0.0
  0
LINE
  8
SIZE
  6
CONTINUOUS
 62
    30
 10
-191.720788
 20
0.0
 30
0.0
 11
-358.55755727619947
 21
0.0000000000000568
 31
0.0
  0
LINE
  8
SIZE
  6
CONTINUOUS
 62
    30
 10
-31.5404737321096
 20
-100.0
 30
0.0
 11
-358.55755727619947
 21
-99.999999999999886
 31
0.0
  0
LINE
  8
SIZE
  6
CONTINUOUS
 62
    30
 10
-338.55755727619947
 20
-11.99999999999994
 30
0.0
 11
-338.55755727619947
 21
-87.999999999999886
 31
0.0
  0
LINE
  8
SIZE
  6
CONTINUOUS
 62
    30
 10
-338.55755727619947
 20
-99.999999999999943
 30
0.0
 11
-338.55755727619959
 21
-354.01955523330531
 31
0.0
  0
CIRCLE
  8
SIZE
  6
CONTINUOUS
 62
    30
 10
-338.55755727619947
 20
0.0000000000000568
 30
0.0
 40
6.0
  0
LINE
  8
SIZE
  6
CONTINUOUS
 62
    30
 10
-338.55755727619947
 20
0.0000000000000568
 30
0.0
 11
-338.55755727619947
 21
-11.99999999999994
 31
0.0
  0
CIRCLE
  8
SIZE
  6
CONTINUOUS
 62
    30
 10
-338.55755727619947
 20
-99.999999999999943
 30
0.0
 40
6.0
  0
LINE
  8
SIZE
  6
CONTINUOUS
 62
    30
 10
-338.55755727619947
 20
-99.999999999999943
 30
0.0
 11
-338.55755727619947
 21
-87.999999999999886
 31
0.0
  0
TEXT
  8
SIZE
  6
CONTINUOUS
 62
    30
 10
-363.55755727619942
 20
-329.01955523330543
 30
0.0
 40
64.0
  1
100
 50
90.0
 41
0.9
 72
     1
 11
-363.55755727619942
 21
-260.44812666187681
 31
0.0
  0
LINE
  8
SIZE
  6
CONTINUOUS
 62
    30
 10
-59.0
 20
148.0
 30
0.0
 11
-358.55755727619947
 21
148.00000000000011
 31
0.0
  0
LINE
  8
SIZE
  6
CONTINUOUS
 62
    30
 10
-186.17024457307301
 20
0.0
 30
0.0
 11
-358.55755727619947
 21
0.0000000000000568
 31
0.0
  0
LINE
  8
SIZE
  6
CONTINUOUS
 62
    30
 10
-338.55755727619947
 20
12.00000000000006
 30
0.0
 11
-338.55755727619947
 21
136.00000000000011
 31
0.0
  0
LINE
  8
SIZE
  6
CONTINUOUS
 62
    30
 10
-338.55755727619947
 20
148.00000000000011
 30
0.0
 11
-338.55755727619947
 21
347.14285714285728
 31
0.0
  0
CIRCLE
  8
SIZE
  6
CONTINUOUS
 62
    30
 10
-338.55755727619947
 20
0.0000000000000568
 30
0.0
 40
6.0
  0
LINE
  8
SIZE
  6
CONTINUOUS
 62
    30
 10
-338.55755727619947
 20
0.0000000000000568
 30
0.0
 11
-338.55755727619947
 21
12.00000000000006
 31
0.0
  0
CIRCLE
  8
SIZE
  6
CONTINUOUS
 62
    30
 10
-338.55755727619947
 20
148.00000000000011
 30
0.0
 40
6.0
  0
LINE
  8
SIZE
  6
CONTINUOUS
 62
    30
 10
-338.55755727619947
 20
148.00000000000011
 30
0.0
 11
-338.55755727619947
 21
136.00000000000011
 31
0.0
  0
TEXT
  8
SIZE
  6
CONTINUOUS
 62
    30
 10
-363.55755727619942
 20
185.00000000000011
 30
0.0
 40
64.0
  1
148
 50
90.0
 41
0.9
 72
     1
 11
-363.55755727619942
 21
253.5714285714287
 31
0.0
  0
LINE
  8
BASIS
  6
DASHDOT
 62
     6
 10
121.60749170776759
 20
5.0
 30
0.0
 11
-166.25165509588459
 21
5.0
 31
0.0
  0
LINE
  8
SIZE
  6
CONTINUOUS
 62
    30
 10
-210.98047509679421
 20
0.0
 30
0.0
 11
-206.0262778599913
 21
0.0
 31
0.0
  0
LINE
  8
SIZE
  6
CONTINUOUS
 62
    30
 10
-186.240839716583
 20
5.0
 30
0.0
 11
-246.0262778599913
 21
5.0
 31
0.0
  0
LINE
  8
SIZE
  6
CONTINUOUS
 62
    30
 10
-226.0262778599913
 20
-12.0
 30
0.0
 11
-226.0262778599913
 21
-24.0
 31
0.0
  0
LINE
  8
SIZE
  6
CONTINUOUS
 62
    30
 10
-226.0262778599913
 20
17.0
 30
0.0
 11
-226.0262778599913
 21
117.40000000000001
 31
0.0
  0
LINE
  8
SIZE
  6
CONTINUOUS
 62
    30
 10
-226.0262778599913
 20
0.0
 30
0.0
 11
-226.0262778599913
 21
5.0
 31
0.0
  0
CIRCLE
  8
SIZE
  6
CONTINUOUS
 62
    30
 10
-226.0262778599913
 20
0.0
 30
0.0
 40
6.0
  0
LINE
  8
SIZE
  6
CONTINUOUS
 62
    30
 10
-226.0262778599913
 20
0.0
 30
0.0
 11
-226.0262778599913
 21
-12.0
 31
0.0
  0
CIRCLE
  8
SIZE
  6
CONTINUOUS
 62
    30
 10
-226.0262778599913
 20
5.0
 30
0.0
 40
6.0
  0
LINE
  8
SIZE
  6
CONTINUOUS
 62
    30
 10
-226.0262778599913
 20
5.0
 30
0.0
 11
-226.0262778599913
 21
17.0
 31
0.0
  0
TEXT
  8
SIZE
  6
CONTINUOUS
 62
    30
 10
-251.0262778599913
 20
54.000000000000057
 30
0.0
 40
64.0
  1
5
 50
90.0
 41
0.9
 72
     1
 11
-251.0262778599913
 21
73.200000000000045
 31
0.0
  0
LINE
  8
NOTE
  6
CONTINUOUS
 62
     4
 10
6.5050760967942551
 20
-178.54923444804811
 30
0.0
 11
6.5050760967942551
 21
-164.84822606883679
 31
0.0
  0
ARC
  8
DETAIL
  6
CONTINUOUS
 62
     5
 10
4.0264090599628162
 20
-236.99628119213739
 30
0.0
 40
2.3999999999999999
 50
90.0
 51
178.0908475669994
  0
LINE
  8
DETAIL
  6
CONTINUOUS
 62
     5
 10
8.9837431336256941
 20
-234.5962811921373
 30
0.0
 11
4.0264090599628162
 21
-234.5962811921373
 31
0.0
  0
ARC
  8
DETAIL
  6
CONTINUOUS
 62
     5
 10
8.9837431336256941
 20
-236.99628119213739
 30
0.0
 40
2.3999999999999999
 50
1.909152433000554
 51
90.0
  0
LINE
  8
DETAIL
  6
CONTINUOUS
 62
     5
 10
12.10507609679439
 20
-258.59628119213761
 30
0.0
 11
11.38241091037594
 21
-236.91632559957921
 31
0.0
  0
LINE
  8
DETAIL
  6
CONTINUOUS
 62
     5
 10
0.9050760967943461
 20
-258.59628119213761
 30
0.0
 11
12.10507609679439
 21
-258.59628119213761
 31
0.0
  0
LINE
  8
DETAIL
  6
CONTINUOUS
 62
     5
 10
1.6277412832130269
 20
-236.91632559957921
 30
0.0
 11
0.9050760967943461
 21
-258.59628119213761
 31
0.0
  0
LINE
  8
DETAIL
  6
CONTINUOUS
 62
     5
 10
7.3050760967942097
 20
-206.17673931893921
 30
0.0
 11
7.3050760967942097
 21
-169.23177712992131
 31
0.0
  0
LINE
  8
DETAIL
  6
CONTINUOUS
 62
     5
 10
5.7050760967943006
 20
-206.17673931893921
 30
0.0
 11
5.7050760967943006
 21
-169.23177712992131
 31
0.0
  0
LINE
  8
DETAIL
  6
CONTINUOUS
 62
     5
 10
7.3050760967942097
 20
-234.5962811921373
 30
0.0
 11
7.3050760967942097
 21
-211.88545695815799
 31
0.0
  0
LINE
  8
DETAIL
  6
CONTINUOUS
 62
     5
 10
5.7050760967943006
 20
-234.5962811921373
 30
0.0
 11
5.7050760967943006
 21
-211.88545695815799
 31
0.0
  0
LINE
  8
SIZE
  6
CONTINUOUS
 62
    30
 10
6.5050760967942551
 20
-254.5962811921373
 30
0.0
 11
6.5050760967942551
 21
-415.59892859445972
 31
0.0
  0
LINE
  8
SIZE
  6
CONTINUOUS
 62
    30
 10
0.0
 20
-190.0
 30
0.0
 11
0.0
 21
-415.59892859445972
 31
0.0
  0
LINE
  8
SIZE
  6
CONTINUOUS
 62
    30
 10
18.505076096794259
 20
-395.59892859445972
 30
0.0
 11
30.505076096794259
 21
-395.59892859445972
 31
0.0
  0
LINE
  8
SIZE
  6
CONTINUOUS
 62
    30
 10
-12.0
 20
-395.59892859445972
 30
0.0
 11
-195.64648054982041
 21
-395.59892859445972
 31
0.0
  0
LINE
  8
SIZE
  6
CONTINUOUS
 62
    30
 10
6.5050760967942551
 20
-395.59892859445972
 30
0.0
 11
0.0
 21
-395.59892859445972
 31
0.0
  0
CIRCLE
  8
SIZE
  6
CONTINUOUS
 62
    30
 10
6.5050760967942551
 20
-395.59892859445972
 30
0.0
 40
6.0
  0
LINE
  8
SIZE
  6
CONTINUOUS
 62
    30
 10
6.5050760967942551
 20
-395.59892859445972
 30
0.0
 11
18.505076096794259
 21
-395.59892859445972
 31
0.0
  0
CIRCLE
  8
SIZE
  6
CONTINUOUS
 62
    30
 10
0.0
 20
-395.59892859445972
 30
0.0
 40
6.0
  0
LINE
  8
SIZE
  6
CONTINUOUS
 62
    30
 10
0.0
 20
-395.59892859445972
 30
0.0
 11
-12.0
 21
-395.59892859445972
 31
0.0
  0
TEXT
  8
SIZE
  6
CONTINUOUS
 62
    30
 10
-170.6464805498203
 20
-370.59892859445972
 30
0.0
 40
64.0
  1
6.5
 41
0.9
 72
     1
 11
-110.3036234069632
 21
-370.59892859445972
 31
0.0
  0
LINE
  8
NOTE
  6
CONTINUOUS
 62
     4
 10
93.442593250175378
 20
5.0
 30
0.0
 11
149.76665178687841
 21
92.657471224281835
 31
0.0
  0
LINE
  8
NOTE
  6
CONTINUOUS
 62
     4
 10
149.76665178687841
 20
92.657471224281835
 30
0.0
 11
161.76665178687841
 21
92.657471224281835
 31
0.0
  0
LINE
  8
NOTE
  6
CONTINUOUS
 62
     4
 10
161.76665178687841
 20
92.657471224281835
 30
0.0
 11
516.93746010674022
 21
92.657471224281835
 31
0.0
  0
LINE
  8
NOTE
  6
CONTINUOUS
 62
     4
 10
101.70959029035249
 20
13.951753645616749
 30
0.0
 11
93.442593250175378
 21
5.0
 31
0.0
  0
LINE
  8
NOTE
  6
CONTINUOUS
 62
     4
 10
93.442593250175378
 20
5.0
 30
0.0
 11
98.149349299998903
 21
16.239376356433642
 31
0.0
  0
TEXT
  8
NOTE
  6
CONTINUOUS
 62
     4
 10
160.51139265383611
 20
110.65747122428181
 30
0.0
 40
64.0
  1
羽根中心線
 41
0.9
  0
LINE
  8
OUTLINE
  6
CONTINUOUS
 62
     3
 10
0.0
 20
148.0
 30
0.0
 11
-0.0016938109191642
 21
119.9153218552501
 31
0.0
  0
TEXT
  8
ETC
  6
CONTINUOUS
 62
    61
 10
536.73358648903195
 20
597.30895669295569
 30
0.0
 40
64.0
  1
EX-20EFH9-M_5
 41
0.9
  0
TEXT
  8
ETC
  6
CONTINUOUS
 62
    61
 10
532.54759248903156
 20
479.35364667812451
 30
0.0
 40
64.0
  1
換気扇
 41
0.9
  0
TEXT
  8
ETC
  6
CONTINUOUS
 62
    61
 10
583.24899073758752
 20
371.20487379189922
 30
0.0
 40
40.0
  1
EX-20EFH9-M
 50
0.0
 41
0.9
 51
0.0
  7
STANDARD
 71
     0
 11
0.0
 21
0.0
 31
0.0
210
0.0
220
0.0
230
1.0
  0
TEXT
  8
ETC
  6
CONTINUOUS
 62
    61
 10
583.24899073758752
 20
305.20487379189922
 30
0.0
 40
40.0
  1
EX-20LFH9-M
 50
0.0
 41
0.9
 51
0.0
  7
STANDARD
 71
     0
 11
0.0
 21
0.0
 31
0.0
210
0.0
220
0.0
230
1.0
  0
LINE
  8
SIZE
  6
CONTINUOUS
 62
    30
 10
0.0000000000000012
 20
168.0
 30
0.0
 11
0.0000000000000109
 21
326.38392883597447
 31
0.0
  0
LINE
  8
SIZE
  6
CONTINUOUS
 62
    30
 10
-30.005522256104879
 20
143.157738916319
 30
0.0
 11
-30.005522256104872
 21
326.38392883597447
 31
0.0
  0
LINE
  8
SIZE
  6
CONTINUOUS
 62
    30
 10
12.000000000000011
 20
306.38392883597447
 30
0.0
 11
24.000000000000011
 21
306.38392883597447
 31
0.0
  0
LINE
  8
SIZE
  6
CONTINUOUS
 62
    30
 10
-42.005522256104868
 20
306.38392883597447
 30
0.0
 11
-295.16862123147263
 21
306.38392883597447
 31
0.0
  0
LINE
  8
SIZE
  6
CONTINUOUS
 62
    30
 10
0.0000000000000097
 20
306.38392883597447
 30
0.0
 11
-30.005522256104872
 21
306.38392883597447
 31
0.0
  0
CIRCLE
  8
SIZE
  6
CONTINUOUS
 62
    30
 10
0.0000000000000097
 20
306.38392883597447
 30
0.0
 40
6.0
  0
LINE
  8
SIZE
  6
CONTINUOUS
 62
    30
 10
0.0000000000000097
 20
306.38392883597447
 30
0.0
 11
12.000000000000009
 21
306.38392883597447
 31
0.0
  0
CIRCLE
  8
SIZE
  6
CONTINUOUS
 62
    30
 10
-30.005522256104872
 20
306.38392883597447
 30
0.0
 40
6.0
  0
LINE
  8
SIZE
  6
CONTINUOUS
 62
    30
 10
-30.005522256104872
 20
306.38392883597447
 30
0.0
 11
-42.005522256104868
 21
306.38392883597447
 31
0.0
  0
TEXT
  8
SIZE
  6
CONTINUOUS
 62
    30
 10
-277.6840498029012
 20
331.38392883597447
 30
0.0
 40
64.0
  1
30
 50
0.0
 41
0.9
 51
0.0
  7
STANDARD
 71
     0
 72
     1
 11
-223.54004980290119
 21
331.38392883597447
 31
0.0
210
0.0
220
0.0
230
1.0
  0
POINT
  8
DEFPOINTS
  6
CONTINUOUS
 62
    30
 10
0.0
 20
148.0
 30
0.0
  0
POINT
  8
DEFPOINTS
  6
CONTINUOUS
 62
    30
 10
-30.005522256104879
 20
123.157738916319
 30
0.0
  0
POINT
  8
DEFPOINTS
  6
CONTINUOUS
 62
    30
 10
-30.005522256104872
 20
306.38392883597447
 30
0.0
  0
ENDSEC
  0
EOF
