  0
SECTION
  2
HEADER
  9
$ACADVER
  1
AC1009
  9
$INSBASE
 10
0.0
 20
0.0
 30
0.0
  9
$EXTMIN
 10
-365.38983599999989
 20
-242.001847
 30
0.0
  9
$EXTMAX
 10
1061.0536886763309
 20
503.83201180725882
 30
50.0
  9
$LIMMIN
 10
-2970.0
 20
-2100.0
  9
$LIMMAX
 10
2970.0
 20
2100.0
  9
$ORTHOMODE
 70
     0
  9
$REGENMODE
 70
     0
  9
$FILLMODE
 70
     1
  9
$QTEXTMODE
 70
     0
  9
$MIRRTEXT
 70
     0
  9
$DRAGMODE
 70
     2
  9
$LTSCALE
 40
20.0
  9
$OSMODE
 70
   171
  9
$ATTMODE
 70
     1
  9
$TEXTSIZE
 40
64.0
  9
$TRACEWID
 40
0.05
  9
$TEXTSTYLE
  7
STANDARD
  9
$CLAYER
  8
SIZE
  9
$CELTYPE
  6
CONTINUOUS
  9
$CECOLOR
 62
     8
  9
$DIMSCALE
 40
1.0
  9
$DIMASZ
 40
12.0
  9
$DIMEXO
 40
20.0
  9
$DIMDLI
 40
200.0
  9
$DIMRND
 40
0.0
  9
$DIMDLE
 40
0.0
  9
$DIMEXE
 40
20.0
  9
$DIMTP
 40
0.0
  9
$DIMTM
 40
0.0
  9
$DIMTXT
 40
64.0
  9
$DIMCEN
 40
0.09
  9
$DIMTSZ
 40
0.0
  9
$DIMTOL
 70
     0
  9
$DIMLIM
 70
     0
  9
$DIMTIH
 70
     0
  9
$DIMTOH
 70
     0
  9
$DIMSE1
 70
     0
  9
$DIMSE2
 70
     0
  9
$DIMTAD
 70
     1
  9
$DIMZIN
 70
     8
  9
$DIMBLK
  1
DOT1
  9
$DIMASO
 70
     1
  9
$DIMSHO
 70
     0
  9
$DIMPOST
  1

  9
$DIMAPOST
  1

  9
$DIMALT
 70
     0
  9
$DIMALTD
 70
     2
  9
$DIMALTF
 40
25.399999999999999
  9
$DIMLFAC
 40
1.0
  9
$DIMTOFL
 70
     1
  9
$DIMTVP
 40
0.0
  9
$DIMTIX
 70
     1
  9
$DIMSOXD
 70
     0
  9
$DIMSAH
 70
     1
  9
$DIMBLK1
  1
ORIGIN
  9
$DIMBLK2
  1
ORIGIN
  9
$DIMSTYLE
  2
STANDARD
  9
$DIMCLRD
 70
     0
  9
$DIMCLRE
 70
     0
  9
$DIMCLRT
 70
     0
  9
$DIMTFAC
 40
1.0
  9
$DIMGAP
 40
0.09
  9
$LUNITS
 70
     2
  9
$LUPREC
 70
     4
  9
$SKETCHINC
 40
0.1
  9
$FILLETRAD
 40
17.0
  9
$AUNITS
 70
     1
  9
$AUPREC
 70
     3
  9
$MENU
  1
ACAD
  9
$ELEVATION
 40
0.0
  9
$PELEVATION
 40
0.0
  9
$THICKNESS
 40
50.0
  9
$LIMCHECK
 70
     0
  9
$BLIPMODE
 70
     0
  9
$CHAMFERA
 40
0.0
  9
$CHAMFERB
 40
0.0
  9
$SKPOLY
 70
     0
  9
$TDCREATE
 40
2451453.4938508091
  9
$TDUPDATE
 40
2453761.441604815
  9
$TDINDWG
 40
0.7424618634
  9
$TDUSRTIMER
 40
0.7424618634
  9
$USRTIMER
 70
     1
  9
$ANGBASE
 50
0.0
  9
$ANGDIR
 70
     0
  9
$PDMODE
 70
     3
  9
$PDSIZE
 40
-2.0
  9
$PLINEWID
 40
0.0
  9
$COORDS
 70
     2
  9
$SPLFRAME
 70
     0
  9
$SPLINETYPE
 70
     6
  9
$SPLINESEGS
 70
     8
  9
$ATTDIA
 70
     0
  9
$ATTREQ
 70
     1
  9
$HANDLING
 70
 22529
  9
$HANDSEED
  5
220
  9
$SURFTAB1
 70
     6
  9
$SURFTAB2
 70
     6
  9
$SURFTYPE
 70
     6
  9
$SURFU
 70
     6
  9
$SURFV
 70
     6
  9
$UCSNAME
  2

  9
$UCSORG
 10
0.0
 20
0.0
 30
0.0
  9
$UCSXDIR
 10
1.0
 20
0.0
 30
0.0
  9
$UCSYDIR
 10
0.0
 20
1.0
 30
0.0
  9
$PUCSNAME
  2

  9
$PUCSORG
 10
0.0
 20
0.0
 30
0.0
  9
$PUCSXDIR
 10
1.0
 20
0.0
 30
0.0
  9
$PUCSYDIR
 10
0.0
 20
1.0
 30
0.0
  9
$USERI1
 70
     0
  9
$USERI2
 70
     0
  9
$USERI3
 70
     0
  9
$USERI4
 70
     0
  9
$USERI5
 70
     0
  9
$USERR1
 40
20.0
  9
$USERR2
 40
0.0
  9
$USERR3
 40
0.0
  9
$USERR4
 40
0.0
  9
$USERR5
 40
0.0
  9
$WORLDVIEW
 70
     1
  9
$SHADEDGE
 70
     3
  9
$SHADEDIF
 70
    70
  9
$TILEMODE
 70
     1
  9
$MAXACTVP
 70
    64
  9
$PLIMCHECK
 70
     0
  9
$PEXTMIN
 10
1.0000000000000000E+020
 20
1.0000000000000000E+020
 30
1.0000000000000000E+020
  9
$PEXTMAX
 10
-1.0000000000000000E+020
 20
-1.0000000000000000E+020
 30
-1.0000000000000000E+020
  9
$PLIMMIN
 10
0.0
 20
0.0
  9
$PLIMMAX
 10
12.0
 20
9.0
  9
$UNITMODE
 70
     0
  9
$VISRETAIN
 70
     1
  9
$PLINEGEN
 70
     0
  9
$PSLTSCALE
 70
     1
  0
ENDSEC
  0
SECTION
  2
TABLES
  0
TABLE
  2
VPORT
 70
    11
  0
VPORT
  2
*ACTIVE
 70
     0
 10
0.0
 20
0.0
 11
1.0
 21
1.0
 12
135.5026380000001
 22
127.43524752153461
 13
0.0
 23
0.0
 14
1.0
 24
1.0
 15
0.0
 25
0.0
 16
0.0
 26
0.0
 36
1.0
 17
0.0
 27
0.0
 37
0.0
 40
1698.69994689959
 41
1.4423558897243101
 42
50.0
 43
0.0
 44
0.0
 50
0.0
 51
0.0
 71
     0
 72
   100
 73
     1
 74
     0
 75
     0
 76
     0
 77
     0
 78
     0
  0
ENDTAB
  0
TABLE
  2
LTYPE
 70
     2
  0
LTYPE
  2
CONTINUOUS
 70
     0
  3
実線
 72
    65
 73
     0
 40
0.0
  0
LTYPE
  2
DASHDOT
 70
     0
  3
____ _ ____ _ ____ _ ____ _ ____ _ ____ _ ____
 72
    65
 73
     4
 40
5.5
 49
4.0
 49
-0.6
 49
0.3
 49
-0.6
  0
ENDTAB
  0
TABLE
  2
LAYER
 70
    12
  0
LAYER
  2
0
 70
     0
 62
     7
  6
CONTINUOUS
  0
LAYER
  2
SIZE
 70
     0
 62
    30
  6
CONTINUOUS
  0
LAYER
  2
BASIS
 70
     0
 62
     6
  6
DASHDOT
  0
LAYER
  2
OUTLINE
 70
     0
 62
     3
  6
CONTINUOUS
  0
LAYER
  2
DETAIL
 70
     0
 62
     5
  6
CONTINUOUS
  0
LAYER
  2
ARRANGE
 70
     0
 62
     1
  6
CONTINUOUS
  0
LAYER
  2
DEFPOINTS
 70
     0
 62
     7
  6
CONTINUOUS
  0
LAYER
  2
ETC
 70
     0
 62
    61
  6
CONTINUOUS
  0
LAYER
  2
NOTE
 70
     0
 62
     4
  6
CONTINUOUS
  0
LAYER
  2
FIX
 70
     0
 62
    11
  6
CONTINUOUS
  0
LAYER
  2
SERVICESPACE
 70
     0
 62
     2
  6
DASHDOT
  0
LAYER
  2
SYMBOLLINE
 70
     0
 62
    15
  6
CONTINUOUS
  0
ENDTAB
  0
TABLE
  2
STYLE
 70
     1
  0
STYLE
  2
STANDARD
 70
     0
 40
64.0
 41
0.9
 50
0.0
 71
     0
 42
64.0
  3
SIMPLEX.shx
  4
BIGFONT.shx
  0
ENDTAB
  0
TABLE
  2
VIEW
 70
     1
  0
VIEW
  2
ALL
 70
     0
 40
4282.6198079999986
 10
0.0
 20
41.309903999999989
 41
5940.0
 11
0.0
 21
0.0
 31
1.0
 12
0.0
 22
0.0
 32
0.0
 42
50.0
 43
0.0
 44
0.0
 50
0.0
 71
     0
  0
ENDTAB
  0
TABLE
  2
UCS
 70
     0
  0
ENDTAB
  0
TABLE
  2
APPID
 70
     1
  0
APPID
  2
ACAD
 70
     0
  0
ENDTAB
  0
TABLE
  2
DIMSTYLE
 70
     1
  0
DIMSTYLE
  2
STANDARD
 70
     0
  3

  4

  5

  6

  7

 40
1.0
 41
0.18
 42
0.0625
 43
0.38
 44
0.18
 45
0.0
 46
0.0
 47
0.0
 48
0.0
140
0.18
141
0.09
142
0.0
143
25.399999999999999
144
1.0
145
0.0
146
1.0
147
0.09
 71
     0
 72
     0
 73
     1
 74
     1
 75
     0
 76
     0
 77
     0
 78
     0
170
     0
171
     2
172
     0
173
     0
174
     0
175
     0
176
     0
177
     0
178
     0
  0
ENDTAB
  0
ENDSEC
  0
SECTION
  2
BLOCKS
  0
BLOCK
  8
0
  2
$MODEL_SPACE
 70
     0
 10
0.0
 20
0.0
 30
0.0
  3
$MODEL_SPACE
  1

  0
ENDBLK
  5
20
  8
0
  0
BLOCK
 67
     1
  8
0
  2
$PAPER_SPACE
 70
     0
 10
0.0
 20
0.0
 30
0.0
  3
$PAPER_SPACE
  1

  0
ENDBLK
  5
1C
 67
     1
  8
0
  0
BLOCK
  8
0
  2
DOT1
 70
     0
 10
0.0
 20
0.0
 30
0.0
  3
DOT1
  1

  0
CIRCLE
  5
34
  8
SIZE
  6
CONTINUOUS
 62
     7
 10
0.0
 20
0.0
 30
0.0
 40
3.0
  0
ENDBLK
  5
35
  8
0
  0
BLOCK
  8
0
  2
_ORIGIN
 70
     0
 10
0.0
 20
0.0
 30
0.0
  3
_ORIGIN
  1

  0
CIRCLE
  5
38
  8
0
  6
CONTINUOUS
 62
     7
 10
0.0
 20
0.0
 30
0.0
 40
0.5
  0
LINE
  5
39
  8
0
  6
CONTINUOUS
 62
     7
 10
0.0
 20
0.0
 30
0.0
 11
-1.0
 21
0.0
 31
0.0
  0
ENDBLK
  5
3A
  8
0
  0
ENDSEC
  0
SECTION
  2
ENTITIES
  0
LINE
  5
3D
  8
BASIS
  6
DASHDOT
 62
     6
 10
0.0
 20
200.40224599999991
 30
0.0
 11
0.0
 21
-232.9293569999999
 31
0.0
  0
LINE
  5
3E
  8
BASIS
  6
DASHDOT
 62
     6
 10
-227.78437999999991
 20
0.0
 30
0.0
 11
230.686418
 21
0.0
 31
0.0
  0
CIRCLE
  5
3F
  8
ARRANGE
  6
CONTINUOUS
 62
     1
 39
50.0
 10
0.0
 20
0.0
 30
0.0
 40
40.0
  0
POINT
  5
40
  8
ARRANGE
  6
CONTINUOUS
 62
     1
 10
0.0
 20
0.0
 30
0.0
 39
50.0
  0
ARC
  5
41
  8
DETAIL
  6
CONTINUOUS
 62
     5
 10
0.0
 20
1528.0
 30
0.0
 40
1700.0
 50
270.0
 51
274.46425799999997
  0
LINE
  5
42
  8
DETAIL
  6
CONTINUOUS
 62
     5
 10
148.0
 20
-148.0
 30
0.0
 11
-119.5
 21
-148.0
 31
0.0
  0
LINE
  5
43
  8
DETAIL
  6
CONTINUOUS
 62
     5
 10
142.0
 20
148.0
 30
0.0
 11
-142.0
 21
148.0
 31
0.0
  0
LINE
  5
44
  8
DETAIL
  6
CONTINUOUS
 62
     5
 10
5.0
 20
-148.0
 30
0.0
 11
25.0
 21
-148.0
 31
0.0
  0
LINE
  5
45
  8
DETAIL
  6
CONTINUOUS
 62
     5
 10
-148.0
 20
110.0
 30
0.0
 11
-148.0
 21
-110.0
 31
0.0
  0
LINE
  5
46
  8
DETAIL
  6
CONTINUOUS
 62
     5
 10
-148.0
 20
142.0
 30
0.0
 11
-148.0
 21
-146.5
 31
0.0
  0
LINE
  5
47
  8
DETAIL
  6
CONTINUOUS
 62
     5
 10
-148.0
 20
142.0
 30
0.0
 11
-148.0
 21
-148.0
 31
0.0
  0
LINE
  5
48
  8
DETAIL
  6
CONTINUOUS
 62
     5
 10
-148.0
 20
110.0
 30
0.0
 11
-148.0
 21
-110.0
 31
0.0
  0
ARC
  5
49
  8
DETAIL
  6
CONTINUOUS
 62
     5
 10
0.0
 20
1528.0
 30
0.0
 40
1700.0
 50
265.53574199999991
 51
270.0
  0
LINE
  5
4A
  8
DETAIL
  6
CONTINUOUS
 62
     5
 10
-32.0
 20
-148.0
 30
0.0
 11
-148.0
 21
-148.0
 31
0.0
  0
LINE
  5
4B
  8
DETAIL
  6
CONTINUOUS
 62
     5
 10
-119.5
 20
-148.0
 30
0.0
 11
-145.5
 21
-148.0
 31
0.0
  0
LINE
  5
4C
  8
DETAIL
  6
CONTINUOUS
 62
     5
 10
-143.26093399999999
 20
-148.0
 30
0.0
 11
-140.0
 21
-148.0
 31
0.0
  0
LINE
  5
4D
  8
DETAIL
  6
CONTINUOUS
 62
     5
 10
-3.5
 20
-148.0
 30
0.0
 11
3.5316199999999989
 21
-148.0
 31
0.0
  0
LINE
  5
4E
  8
DETAIL
  6
CONTINUOUS
 62
     5
 10
-5.0
 20
-148.0
 30
0.0
 11
-25.0
 21
-148.0
 31
0.0
  0
LINE
  5
4F
  8
DETAIL
  6
CONTINUOUS
 62
     5
 10
-26.5
 20
-148.0
 30
0.0
 11
-30.5
 21
-148.0
 31
0.0
  0
ARC
  5
50
  8
DETAIL
  6
CONTINUOUS
 62
     5
 10
-142.0
 20
142.0
 30
0.0
 40
6.0
 50
90.0
 51
180.0
  0
LINE
  5
51
  8
DETAIL
  6
CONTINUOUS
 62
     5
 10
148.0
 20
142.0
 30
0.0
 11
148.0
 21
-148.0
 31
0.0
  0
LINE
  5
52
  8
DETAIL
  6
CONTINUOUS
 62
     5
 10
26.5
 20
-148.0
 30
0.0
 11
30.5
 21
-148.0
 31
0.0
  0
LINE
  5
53
  8
DETAIL
  6
CONTINUOUS
 62
     5
 10
148.0
 20
-148.0
 30
0.0
 11
148.0
 21
-149.8939179999999
 31
0.0
  0
ARC
  5
54
  8
DETAIL
  6
CONTINUOUS
 62
     5
 10
131.0
 20
-149.8939179999999
 30
0.0
 40
17.0
 50
274.46425799999997
 51
0.0
  0
LINE
  5
55
  8
DETAIL
  6
CONTINUOUS
 62
     5
 10
-148.0
 20
-148.0
 30
0.0
 11
-148.0
 21
-149.8939179999999
 31
0.0
  0
ARC
  5
56
  8
DETAIL
  6
CONTINUOUS
 62
     5
 10
-131.0
 20
-149.8939179999999
 30
0.0
 40
17.0
 50
180.0
 51
265.53574199999991
  0
ARC
  5
57
  8
DETAIL
  6
CONTINUOUS
 62
     5
 10
142.0
 20
142.0
 30
0.0
 40
6.0
 50
0.0
 51
90.0
  0
LINE
  5
58
  8
SIZE
  6
CONTINUOUS
 62
    30
 10
-148.0
 20
162.0
 30
0.0
 11
-148.0
 21
306.98393599999991
 31
0.0
  0
LINE
  5
59
  8
SIZE
  6
CONTINUOUS
 62
    30
 10
148.0
 20
162.0
 30
0.0
 11
148.0
 21
306.98393599999991
 31
0.0
  0
LINE
  5
5A
  8
SIZE
  6
CONTINUOUS
 62
    30
 10
-136.0
 20
286.98393599999991
 30
0.0
 11
136.0
 21
286.98393599999991
 31
0.0
  0
CIRCLE
  5
5B
  8
SIZE
  6
CONTINUOUS
 62
    30
 10
-148.0
 20
286.98393599999991
 30
0.0
 40
6.0
  0
LINE
  5
5C
  8
SIZE
  6
CONTINUOUS
 62
    30
 10
-148.0
 20
286.98393599999991
 30
0.0
 11
-136.0
 21
286.98393599999991
 31
0.0
  0
CIRCLE
  5
5D
  8
SIZE
  6
CONTINUOUS
 62
    30
 10
148.0
 20
286.98393599999991
 30
0.0
 40
6.0
  0
LINE
  5
5E
  8
SIZE
  6
CONTINUOUS
 62
    30
 10
148.0
 20
286.98393599999991
 30
0.0
 11
136.0
 21
286.98393599999991
 31
0.0
  0
TEXT
  5
5F
  8
SIZE
  6
CONTINUOUS
 62
    30
 10
-72.685714285714297
 20
311.98393599999991
 30
0.0
 40
64.0
  1
296
 41
0.9
 72
     1
 11
0.0
 21
311.98393599999991
 31
0.0
  0
POINT
  5
60
  8
DEFPOINTS
  6
CONTINUOUS
 62
    30
 10
-148.0
 20
142.0
 30
0.0
  0
POINT
  5
61
  8
DEFPOINTS
  6
CONTINUOUS
 62
    30
 10
148.0
 20
142.0
 30
0.0
  0
POINT
  5
62
  8
DEFPOINTS
  6
CONTINUOUS
 62
    30
 10
148.0
 20
286.98393599999991
 30
0.0
  0
LINE
  5
63
  8
SIZE
  6
CONTINUOUS
 62
    30
 10
162.0
 20
148.0
 30
0.0
 11
512.63990499999989
 21
148.0
 31
0.0
  0
LINE
  5
64
  8
SIZE
  6
CONTINUOUS
 62
    30
 10
20.0
 20
-172.0
 30
0.0
 11
512.63990499999989
 21
-172.0
 31
0.0
  0
LINE
  5
65
  8
SIZE
  6
CONTINUOUS
 62
    30
 10
492.63990499999989
 20
136.0
 30
0.0
 11
492.63990499999989
 21
-160.0
 31
0.0
  0
CIRCLE
  5
66
  8
SIZE
  6
CONTINUOUS
 62
    30
 10
492.63990499999989
 20
148.0
 30
0.0
 40
6.0
  0
LINE
  5
67
  8
SIZE
  6
CONTINUOUS
 62
    30
 10
492.63990499999989
 20
148.0
 30
0.0
 11
492.63990499999989
 21
136.0
 31
0.0
  0
CIRCLE
  5
68
  8
SIZE
  6
CONTINUOUS
 62
    30
 10
492.63990499999989
 20
-172.0
 30
0.0
 40
6.0
  0
LINE
  5
69
  8
SIZE
  6
CONTINUOUS
 62
    30
 10
492.63990499999989
 20
-172.0
 30
0.0
 11
492.63990499999989
 21
-160.0
 31
0.0
  0
TEXT
  5
6A
  8
SIZE
  6
CONTINUOUS
 62
    30
 10
467.63990499999989
 20
-86.057142857142836
 30
0.0
 40
64.0
  1
320
 50
90.0
 41
0.9
 72
     1
 11
467.63990499999989
 21
-12.0
 31
0.0
  0
POINT
  5
6B
  8
DEFPOINTS
  6
CONTINUOUS
 62
    30
 10
142.0
 20
148.0
 30
0.0
  0
POINT
  5
6C
  8
DEFPOINTS
  6
CONTINUOUS
 62
    30
 10
0.0
 20
-172.0
 30
0.0
  0
POINT
  5
6D
  8
DEFPOINTS
  6
CONTINUOUS
 62
    30
 10
492.63990499999989
 20
-172.0
 30
0.0
  0
LINE
  5
6E
  8
SIZE
  6
CONTINUOUS
 62
    30
 10
250.68641799999989
 20
0.0
 30
0.0
 11
373.57495299999999
 21
0.0
 31
0.0
  0
LINE
  5
6F
  8
SIZE
  6
CONTINUOUS
 62
    30
 10
20.0
 20
-172.0
 30
0.0
 11
373.57495299999999
 21
-172.0
 31
0.0
  0
LINE
  5
70
  8
SIZE
  6
CONTINUOUS
 62
    30
 10
353.57495299999988
 20
12.0
 30
0.0
 11
353.57495299999988
 21
24.0
 31
0.0
  0
LINE
  5
71
  8
SIZE
  6
CONTINUOUS
 62
    30
 10
353.57495299999988
 20
-184.0
 30
0.0
 11
353.57495299999988
 21
-196.0
 31
0.0
  0
LINE
  5
72
  8
SIZE
  6
CONTINUOUS
 62
    30
 10
353.57495299999988
 20
0.0
 30
0.0
 11
353.57495299999988
 21
-172.0
 31
0.0
  0
CIRCLE
  5
73
  8
SIZE
  6
CONTINUOUS
 62
    30
 10
353.57495299999988
 20
0.0
 30
0.0
 40
6.0
  0
LINE
  5
74
  8
SIZE
  6
CONTINUOUS
 62
    30
 10
353.57495299999988
 20
0.0
 30
0.0
 11
353.57495299999988
 21
12.0
 31
0.0
  0
CIRCLE
  5
75
  8
SIZE
  6
CONTINUOUS
 62
    30
 10
353.57495299999988
 20
-172.0
 30
0.0
 40
6.0
  0
LINE
  5
76
  8
SIZE
  6
CONTINUOUS
 62
    30
 10
353.57495299999988
 20
-172.0
 30
0.0
 11
353.57495299999988
 21
-184.0
 31
0.0
  0
TEXT
  5
77
  8
SIZE
  6
CONTINUOUS
 62
    30
 10
328.57495299999988
 20
-154.5714285714285
 30
0.0
 40
64.0
  1
172
 50
90.0
 41
0.9
 72
     1
 11
328.57495299999988
 21
-86.0
 31
0.0
  0
POINT
  5
78
  8
DEFPOINTS
  6
CONTINUOUS
 62
    30
 10
230.686418
 20
0.0
 30
0.0
  0
POINT
  5
79
  8
DEFPOINTS
  6
CONTINUOUS
 62
    30
 10
0.0
 20
-172.0
 30
0.0
  0
POINT
  5
7A
  8
DEFPOINTS
  6
CONTINUOUS
 62
    30
 10
353.57495299999988
 20
-172.0
 30
0.0
  0
LINE
  5
7B
  8
NOTE
  6
CONTINUOUS
 62
     4
 10
-241.94706699999989
 20
-242.001847
 30
0.0
 11
-148.0
 21
-100.0
 31
0.0
  0
LINE
  5
7C
  8
NOTE
  6
CONTINUOUS
 62
     4
 10
-360.51283299999989
 20
-242.001847
 30
0.0
 11
-241.94706699999989
 21
-242.001847
 31
0.0
  0
TEXT
  5
7D
  8
NOTE
  6
CONTINUOUS
 62
     4
 10
-337.36017399999997
 20
-214.574895
 30
0.0
 40
64.0
  1
EL
 41
0.9
  0
LINE
  5
7E
  8
NOTE
  6
CONTINUOUS
 62
     4
 10
-161.286978
 20
-137.7287189999999
 30
0.0
 11
-148.0
 21
-100.0
 31
0.0
  0
LINE
  5
7F
  8
NOTE
  6
CONTINUOUS
 62
     4
 10
-148.0
 20
-100.0
 30
0.0
 11
-178.37121999999999
 21
-126.03053899999991
 31
0.0
  0
LINE
  5
80
  8
NOTE
  6
CONTINUOUS
 62
     4
 10
-148.0
 20
-120.0
 30
0.0
 11
-148.0
 21
-80.0
 31
0.0
  0
LINE
  5
81
  8
NOTE
  6
CONTINUOUS
 62
     4
 10
-128.0
 20
-100.0
 30
0.0
 11
-168.0
 21
-100.0
 31
0.0
  0
LINE
  5
82
  8
OUTLINE
  6
CONTINUOUS
 62
     3
 10
142.0
 20
148.0
 30
0.0
 11
-142.0
 21
148.0
 31
0.0
  0
LINE
  5
83
  8
OUTLINE
  6
CONTINUOUS
 62
     3
 10
148.0
 20
-148.0
 30
0.0
 11
-119.5
 21
-148.0
 31
0.0
  0
ARC
  5
84
  8
OUTLINE
  6
CONTINUOUS
 62
     3
 10
0.0
 20
1528.0
 30
0.0
 40
1700.0
 50
270.0
 51
274.46425799999997
  0
LINE
  5
85
  8
OUTLINE
  6
CONTINUOUS
 62
     3
 10
-148.0
 20
110.0
 30
0.0
 11
-148.0
 21
-110.0
 31
0.0
  0
LINE
  5
86
  8
OUTLINE
  6
CONTINUOUS
 62
     3
 10
-148.0
 20
142.0
 30
0.0
 11
-148.0
 21
-148.0
 31
0.0
  0
LINE
  5
87
  8
OUTLINE
  6
CONTINUOUS
 62
     3
 10
-148.0
 20
142.0
 30
0.0
 11
-148.0
 21
-146.5
 31
0.0
  0
LINE
  5
88
  8
OUTLINE
  6
CONTINUOUS
 62
     3
 10
-148.0
 20
110.0
 30
0.0
 11
-148.0
 21
-110.0
 31
0.0
  0
ARC
  5
89
  8
OUTLINE
  6
CONTINUOUS
 62
     3
 10
-131.0
 20
-149.8939179999999
 30
0.0
 40
17.0
 50
180.0
 51
265.53574199999991
  0
ARC
  5
8A
  8
OUTLINE
  6
CONTINUOUS
 62
     3
 10
0.0
 20
1528.0
 30
0.0
 40
1700.0
 50
265.53574199999991
 51
270.0
  0
LINE
  5
8B
  8
OUTLINE
  6
CONTINUOUS
 62
     3
 10
-32.0
 20
-148.0
 30
0.0
 11
-148.0
 21
-148.0
 31
0.0
  0
LINE
  5
8C
  8
OUTLINE
  6
CONTINUOUS
 62
     3
 10
-148.0
 20
-148.0
 30
0.0
 11
-148.0
 21
-149.8939179999999
 31
0.0
  0
LINE
  5
8D
  8
OUTLINE
  6
CONTINUOUS
 62
     3
 10
-143.26093399999999
 20
-148.0
 30
0.0
 11
-140.0
 21
-148.0
 31
0.0
  0
LINE
  5
8E
  8
OUTLINE
  6
CONTINUOUS
 62
     3
 10
-119.5
 20
-148.0
 30
0.0
 11
-145.5
 21
-148.0
 31
0.0
  0
ARC
  5
8F
  8
OUTLINE
  6
CONTINUOUS
 62
     3
 10
-142.0
 20
142.0
 30
0.0
 40
6.0
 50
90.0
 51
180.0
  0
LINE
  5
90
  8
OUTLINE
  6
CONTINUOUS
 62
     3
 10
148.0
 20
142.0
 30
0.0
 11
148.0
 21
-148.0
 31
0.0
  0
ARC
  5
91
  8
OUTLINE
  6
CONTINUOUS
 62
     3
 10
131.0
 20
-149.8939179999999
 30
0.0
 40
17.0
 50
274.46425799999997
 51
0.0
  0
LINE
  5
92
  8
OUTLINE
  6
CONTINUOUS
 62
     3
 10
148.0
 20
-148.0
 30
0.0
 11
148.0
 21
-149.8939179999999
 31
0.0
  0
ARC
  5
93
  8
OUTLINE
  6
CONTINUOUS
 62
     3
 10
142.0
 20
142.0
 30
0.0
 40
6.0
 50
0.0
 51
90.0
  0
LINE
  5
94
  8
SIZE
  6
CONTINUOUS
 62
    30
 10
-247.78437999999991
 20
0.0
 30
0.0
 11
-296.38983599999989
 21
0.0
 31
0.0
  0
LINE
  5
95
  8
SIZE
  6
CONTINUOUS
 62
    30
 10
-188.0
 20
-100.0
 30
0.0
 11
-296.38983599999989
 21
-100.0
 31
0.0
  0
LINE
  5
96
  8
SIZE
  6
CONTINUOUS
 62
    30
 10
-276.389836
 20
12.0
 30
0.0
 11
-276.389836
 21
24.0
 31
0.0
  0
LINE
  5
97
  8
SIZE
  6
CONTINUOUS
 62
    30
 10
-276.389836
 20
-112.0
 30
0.0
 11
-276.389836
 21
-124.0
 31
0.0
  0
LINE
  5
98
  8
SIZE
  6
CONTINUOUS
 62
    30
 10
-276.389836
 20
0.0
 30
0.0
 11
-276.389836
 21
-100.0
 31
0.0
  0
CIRCLE
  5
99
  8
SIZE
  6
CONTINUOUS
 62
    30
 10
-276.389836
 20
0.0
 30
0.0
 40
6.0
  0
LINE
  5
9A
  8
SIZE
  6
CONTINUOUS
 62
    30
 10
-276.389836
 20
0.0
 30
0.0
 11
-276.389836
 21
12.0
 31
0.0
  0
CIRCLE
  5
9B
  8
SIZE
  6
CONTINUOUS
 62
    30
 10
-276.389836
 20
-100.0
 30
0.0
 40
6.0
  0
LINE
  5
9C
  8
SIZE
  6
CONTINUOUS
 62
    30
 10
-276.389836
 20
-100.0
 30
0.0
 11
-276.389836
 21
-112.0
 31
0.0
  0
TEXT
  5
9D
  8
SIZE
  6
CONTINUOUS
 62
    30
 10
-301.389836
 20
-118.5714285714285
 30
0.0
 40
64.0
  1
100
 50
90.0
 41
0.9
 72
     1
 11
-301.389836
 21
-50.0
 31
0.0
  0
POINT
  5
9E
  8
DEFPOINTS
  6
CONTINUOUS
 62
    30
 10
-227.78437999999991
 20
0.0
 30
0.0
  0
POINT
  5
9F
  8
DEFPOINTS
  6
CONTINUOUS
 62
    30
 10
-168.0
 20
-100.0
 30
0.0
  0
POINT
  5
A0
  8
DEFPOINTS
  6
CONTINUOUS
 62
    30
 10
-276.389836
 20
-100.0
 30
0.0
  0
ARC
  5
A1
  8
DETAIL
  6
CONTINUOUS
 62
     5
 10
0.0
 20
3367.0120000000002
 30
0.0
 40
3520.0
 50
267.67039399999987
 51
272.32960600000001
  0
LINE
  5
A2
  8
DETAIL
  6
CONTINUOUS
 62
     5
 10
-145.0
 20
-148.08023299999999
 30
0.0
 11
-145.0
 21
-148.0
 31
0.0
  0
ARC
  5
A3
  8
DETAIL
  6
CONTINUOUS
 62
     5
 10
-143.0
 20
-148.08023299999999
 30
0.0
 40
2.0
 50
180.0
 51
267.67039399999987
  0
LINE
  5
A4
  8
DETAIL
  6
CONTINUOUS
 62
     5
 10
140.0
 20
-150.20258100000001
 30
0.0
 11
140.0
 21
-150.0
 31
0.0
  0
LINE
  5
A5
  8
DETAIL
  6
CONTINUOUS
 62
     5
 10
145.0
 20
-148.0
 30
0.0
 11
145.0
 21
-148.08023299999999
 31
0.0
  0
ARC
  5
A6
  8
DETAIL
  6
CONTINUOUS
 62
     5
 10
143.0
 20
-148.08023299999999
 30
0.0
 40
2.0
 50
272.32960600000001
 51
0.0
  0
CIRCLE
  5
A7
  8
DETAIL
  6
CONTINUOUS
 62
     5
 10
0.0
 20
0.0
 30
0.0
 40
109.0
  0
CIRCLE
  5
A8
  8
DETAIL
  6
CONTINUOUS
 62
     5
 10
0.0
 20
0.0
 30
0.0
 40
46.0
  0
ARC
  5
A9
  8
DETAIL
  6
CONTINUOUS
 62
     5
 10
-52.295929000000001
 20
-39.374662999999998
 30
0.0
 40
76.896286000000003
 50
324.34890899999999
 51
339.98873099999997
  0
ARC
  5
AA
  8
DETAIL
  6
CONTINUOUS
 62
     5
 10
0.0
 20
0.0
 30
0.0
 40
104.9999539999999
 50
18.708527
 51
84.599924999999999
  0
ARC
  5
AB
  8
DETAIL
  6
CONTINUOUS
 62
     5
 10
-34.061432000000003
 20
60.959029999999998
 30
0.0
 40
87.035659999999993
 50
215.93419
 51
234.83081000000001
  0
ARC
  5
AC
  8
DETAIL
  6
CONTINUOUS
 62
     5
 10
-91.801849000000004
 20
-31.088401000000001
 30
0.0
 40
8.0769199999999994
 50
57.161416000000003
 51
198.70845299999999
  0
ARC
  5
AD
  8
DETAIL
  6
CONTINUOUS
 62
     5
 10
0.0
 20
0.0
 30
0.0
 40
104.9999539999999
 50
198.70850799999999
 51
264.59988900000002
  0
ARC
  5
AE
  8
DETAIL
  6
CONTINUOUS
 62
     5
 10
-60.959029999999998
 20
-34.06142899999999
 30
0.0
 40
87.035659999999993
 50
305.93411800000001
 51
324.83073799999988
  0
ARC
  5
AF
  8
DETAIL
  6
CONTINUOUS
 62
     5
 10
-48.059005999999997
 20
31.479033999999999
 30
0.0
 40
67.747481999999991
 50
246.93783999999999
 51
273.85807399999999
  0
ARC
  5
B0
  8
DETAIL
  6
CONTINUOUS
 62
     5
 10
-43.804488999999997
 20
30.377746999999989
 30
0.0
 40
54.055770999999993
 50
266.71495299999992
 51
274.23072899999988
  0
ARC
  5
B1
  8
DETAIL
  6
CONTINUOUS
 62
     5
 10
-43.43089299999999
 20
45.249924
 30
0.0
 40
82.298309000000003
 50
237.51594900000001
 51
247.72888499999991
  0
ARC
  5
B2
  8
DETAIL
  6
CONTINUOUS
 62
     5
 10
-39.374664000000003
 20
52.295929000000001
 30
0.0
 40
76.896286000000003
 50
234.3489809999999
 51
249.98880299999999
  0
ARC
  5
B3
  8
DETAIL
  6
CONTINUOUS
 62
     5
 10
-43.959029999999991
 20
42.047699000000001
 30
0.0
 40
65.702866
 50
250.68701200000001
 51
267.43283300000002
  0
ARC
  5
B4
  8
DETAIL
  6
CONTINUOUS
 62
     5
 10
-46.606110000000001
 20
15.526672
 30
0.0
 40
51.526932000000002
 50
273.44137799999999
 51
286.92723099999989
  0
ARC
  5
B5
  8
DETAIL
  6
CONTINUOUS
 62
     5
 10
0.0
 20
0.0
 30
0.0
 40
104.9999539999999
 50
108.70852600000001
 51
174.599907
  0
ARC
  5
B6
  8
DETAIL
  6
CONTINUOUS
 62
     5
 10
60.959044999999989
 20
34.061432000000003
 30
0.0
 40
87.035659999999993
 50
125.93415400000001
 51
144.83077399999999
  0
ARC
  5
B7
  8
DETAIL
  6
CONTINUOUS
 62
     5
 10
-31.088394000000001
 20
91.801909999999978
 30
0.0
 40
8.0769199999999994
 50
327.161362
 51
108.7084539999999
  0
ARC
  5
B8
  8
DETAIL
  6
CONTINUOUS
 62
     5
 10
52.295883000000003
 20
39.374664000000003
 30
0.0
 40
76.896286000000003
 50
144.3489449999999
 51
159.988767
  0
ARC
  5
B9
  8
DETAIL
  6
CONTINUOUS
 62
     5
 10
42.047699000000001
 20
43.959029999999991
 30
0.0
 40
65.702866
 50
160.6869759999999
 51
177.43279599999991
  0
ARC
  5
BA
  8
DETAIL
  6
CONTINUOUS
 62
     5
 10
30.377762000000001
 20
43.804488999999997
 30
0.0
 40
54.055770999999993
 50
176.71508
 51
184.230638
  0
ARC
  5
BB
  8
DETAIL
  6
CONTINUOUS
 62
     5
 10
15.526581
 20
46.606110000000001
 30
0.0
 40
51.526932000000002
 50
183.441396
 51
196.92730399999999
  0
ARC
  5
BC
  8
DETAIL
  6
CONTINUOUS
 62
     5
 10
31.47908
 20
48.059005999999997
 30
0.0
 40
67.747481999999991
 50
156.93785800000001
 51
183.858092
  0
ARC
  5
BD
  8
DETAIL
  6
CONTINUOUS
 62
     5
 10
45.249878000000002
 20
43.43089299999999
 30
0.0
 40
82.298309000000003
 50
147.5159669999999
 51
157.728903
  0
ARC
  5
BE
  8
DETAIL
  6
CONTINUOUS
 62
     5
 10
34.061492999999999
 20
-60.959029999999998
 30
0.0
 40
87.035659999999993
 50
35.93415499999999
 51
54.830773999999991
  0
ARC
  5
BF
  8
DETAIL
  6
CONTINUOUS
 62
     5
 10
-45.249924
 20
-43.430894000000002
 30
0.0
 40
82.298309000000003
 50
327.51587599999999
 51
337.728812
  0
ARC
  5
C0
  8
DETAIL
  6
CONTINUOUS
 62
     5
 10
0.0
 20
0.0
 30
0.0
 40
104.9999539999999
 50
288.70848999999993
 51
333.194277
  0
ARC
  5
C1
  8
DETAIL
  6
CONTINUOUS
 62
     5
 10
31.088455
 20
-91.801909999999978
 30
0.0
 40
8.0769199999999994
 50
147.16139799999991
 51
288.70843500000001
  0
ARC
  5
C2
  8
DETAIL
  6
CONTINUOUS
 62
     5
 10
-42.047699000000001
 20
-43.959032000000001
 30
0.0
 40
65.702866
 50
340.68693999999999
 51
357.43275999999997
  0
ARC
  5
C3
  8
DETAIL
  6
CONTINUOUS
 62
     5
 10
-30.377746999999989
 20
-43.804496999999991
 30
0.0
 40
54.055770999999993
 50
356.71509900000001
 51
4.2307110000000003
  0
ARC
  5
C4
  8
DETAIL
  6
CONTINUOUS
 62
     5
 10
-15.526672
 20
-46.606110000000001
 30
0.0
 40
51.526932000000002
 50
3.441352999999999
 51
16.927223999999999
  0
ARC
  5
C5
  8
DETAIL
  6
CONTINUOUS
 62
     5
 10
-31.479033999999999
 20
-48.059005999999997
 30
0.0
 40
67.747481999999991
 50
336.93776699999989
 51
3.8580009999999998
  0
ARC
  5
C6
  8
DETAIL
  6
CONTINUOUS
 62
     5
 10
0.0
 20
0.0
 30
0.0
 40
104.9999539999999
 50
333.194277
 51
354.59981699999992
  0
ARC
  5
C7
  8
DETAIL
  6
CONTINUOUS
 62
     5
 10
48.059052000000001
 20
-31.479034999999989
 30
0.0
 40
67.747481999999991
 50
66.937876000000003
 51
93.858110000000025
  0
ARC
  5
C8
  8
DETAIL
  6
CONTINUOUS
 62
     5
 10
39.374588000000003
 20
-52.295929000000001
 30
0.0
 40
76.896286000000003
 50
54.348945999999991
 51
69.988784999999993
  0
ARC
  5
C9
  8
DETAIL
  6
CONTINUOUS
 62
     5
 10
43.804459000000001
 20
-30.377751
 30
0.0
 40
54.055770999999993
 50
86.715207000000007
 51
94.230710000000016
  0
ARC
  5
CA
  8
DETAIL
  6
CONTINUOUS
 62
     5
 10
46.606155000000001
 20
-15.526662999999999
 30
0.0
 40
51.526932000000002
 50
93.441632000000027
 51
106.927322
  0
ARC
  5
CB
  8
DETAIL
  6
CONTINUOUS
 62
     5
 10
43.959076000000003
 20
-42.047702999999998
 30
0.0
 40
65.702866
 50
70.686993999999984
 51
87.432813999999993
  0
ARC
  5
CC
  8
DETAIL
  6
CONTINUOUS
 62
     5
 10
43.430785999999998
 20
-45.249924
 30
0.0
 40
82.298309000000003
 50
57.515985000000001
 51
67.728920999999985
  0
ARC
  5
CD
  8
DETAIL
  6
CONTINUOUS
 62
     5
 10
91.802093999999997
 20
31.088394000000001
 30
0.0
 40
8.0769199999999994
 50
237.16143500000001
 51
279.036068
  0
ARC
  5
CE
  8
DETAIL
  6
CONTINUOUS
 62
     5
 10
91.802093999999997
 20
31.088394000000001
 30
0.0
 40
8.0769199999999994
 50
279.036068
 51
7.3789910000000001
  0
TEXT
  5
DC
  8
ETC
  6
CONTINUOUS
 62
    61
 10
587.48226010490293
 20
12.86040499033242
 30
0.0
 40
50.0
  1
EX-20RH5
 41
0.9
  0
TEXT
  5
DD
  8
ETC
  6
CONTINUOUS
 62
    61
 10
587.48226010490293
 20
-68.223525519230634
 30
0.0
 40
50.0
  1
EX-20SH5
 41
0.9
  0
TEXT
  5
DE
  8
ETC
  6
CONTINUOUS
 62
    61
 10
585.22906393432606
 20
96.196667601280765
 30
0.0
 40
50.0
  1
EX-20LH5
 41
0.9
  0
TEXT
  5
DF
  8
ETC
  6
CONTINUOUS
 62
    61
 10
587.48226010490293
 20
179.5329323072537
 30
0.0
 40
50.0
  1
EX-20KJ5-BL
 41
0.9
  0
TEXT
  5
E0
  8
ETC
  6
CONTINUOUS
 62
    61
 10
585.22906393432606
 20
257.70277724777219
 30
0.0
 40
50.0
  1
EX-20EH5
 41
0.9
  0
TEXT
  5
E1
  8
ETC
  6
CONTINUOUS
 62
    61
 10
455.15947174743371
 20
439.83201180725882
 30
0.0
 40
64.0
  1
EX-20EH5_2
 41
0.9
  0
TEXT
  5
E2
  8
ETC
  6
CONTINUOUS
 62
    61
 10
447.08599374743369
 20
341.81328680725869
 30
0.0
 40
64.0
  1
換気扇
 41
0.9
  0
ENDSEC
  0
EOF
