  0
SECTION
  2
HEADER
  9
$ACADVER
  1
AC1009
  9
$INSBASE
 10
0.0
 20
0.0
 30
0.0
  9
$EXTMIN
 10
-619.58627700000022
 20
-318.39196900000002
 30
0.0
  9
$EXTMAX
 10
1149.394853354009
 20
572.055537419046
 30
50.0
  9
$LIMMIN
 10
-2970.0
 20
-2100.0
  9
$LIMMAX
 10
2970.0
 20
2100.0
  9
$ORTHOMODE
 70
     0
  9
$REGENMODE
 70
     0
  9
$FILLMODE
 70
     1
  9
$QTEXTMODE
 70
     0
  9
$MIRRTEXT
 70
     0
  9
$DRAGMODE
 70
     2
  9
$LTSCALE
 40
20.0
  9
$OSMODE
 70
   171
  9
$ATTMODE
 70
     1
  9
$TEXTSIZE
 40
64.0
  9
$TRACEWID
 40
0.05
  9
$TEXTSTYLE
  7
STANDARD
  9
$CLAYER
  8
SIZE
  9
$CELTYPE
  6
CONTINUOUS
  9
$CECOLOR
 62
     8
  9
$DIMSCALE
 40
1.0
  9
$DIMASZ
 40
12.0
  9
$DIMEXO
 40
20.0
  9
$DIMDLI
 40
200.0
  9
$DIMRND
 40
0.0
  9
$DIMDLE
 40
0.0
  9
$DIMEXE
 40
20.0
  9
$DIMTP
 40
0.0
  9
$DIMTM
 40
0.0
  9
$DIMTXT
 40
64.0
  9
$DIMCEN
 40
0.09
  9
$DIMTSZ
 40
0.0
  9
$DIMTOL
 70
     0
  9
$DIMLIM
 70
     0
  9
$DIMTIH
 70
     0
  9
$DIMTOH
 70
     0
  9
$DIMSE1
 70
     0
  9
$DIMSE2
 70
     0
  9
$DIMTAD
 70
     1
  9
$DIMZIN
 70
     8
  9
$DIMBLK
  1
DOT1
  9
$DIMASO
 70
     1
  9
$DIMSHO
 70
     0
  9
$DIMPOST
  1

  9
$DIMAPOST
  1

  9
$DIMALT
 70
     0
  9
$DIMALTD
 70
     2
  9
$DIMALTF
 40
25.399999999999999
  9
$DIMLFAC
 40
1.0
  9
$DIMTOFL
 70
     1
  9
$DIMTVP
 40
0.0
  9
$DIMTIX
 70
     1
  9
$DIMSOXD
 70
     0
  9
$DIMSAH
 70
     1
  9
$DIMBLK1
  1
ORIGIN
  9
$DIMBLK2
  1
ORIGIN
  9
$DIMSTYLE
  2
STANDARD
  9
$DIMCLRD
 70
     0
  9
$DIMCLRE
 70
     0
  9
$DIMCLRT
 70
     0
  9
$DIMTFAC
 40
1.0
  9
$DIMGAP
 40
0.09
  9
$LUNITS
 70
     2
  9
$LUPREC
 70
     4
  9
$SKETCHINC
 40
0.1
  9
$FILLETRAD
 40
17.0
  9
$AUNITS
 70
     1
  9
$AUPREC
 70
     3
  9
$MENU
  1
ACAD
  9
$ELEVATION
 40
0.0
  9
$PELEVATION
 40
0.0
  9
$THICKNESS
 40
50.0
  9
$LIMCHECK
 70
     0
  9
$BLIPMODE
 70
     0
  9
$CHAMFERA
 40
0.0
  9
$CHAMFERB
 40
0.0
  9
$SKPOLY
 70
     0
  9
$TDCREATE
 40
2451453.4938508091
  9
$TDUPDATE
 40
2453761.4444599878
  9
$TDINDWG
 40
0.7681845602
  9
$TDUSRTIMER
 40
0.7681845602
  9
$USRTIMER
 70
     1
  9
$ANGBASE
 50
0.0
  9
$ANGDIR
 70
     0
  9
$PDMODE
 70
     3
  9
$PDSIZE
 40
-2.0
  9
$PLINEWID
 40
0.0
  9
$COORDS
 70
     2
  9
$SPLFRAME
 70
     0
  9
$SPLINETYPE
 70
     6
  9
$SPLINESEGS
 70
     8
  9
$ATTDIA
 70
     0
  9
$ATTREQ
 70
     1
  9
$HANDLING
 70
 22529
  9
$HANDSEED
  5
23E
  9
$SURFTAB1
 70
     6
  9
$SURFTAB2
 70
     6
  9
$SURFTYPE
 70
     6
  9
$SURFU
 70
     6
  9
$SURFV
 70
     6
  9
$UCSNAME
  2

  9
$UCSORG
 10
0.0
 20
0.0
 30
0.0
  9
$UCSXDIR
 10
1.0
 20
0.0
 30
0.0
  9
$UCSYDIR
 10
0.0
 20
1.0
 30
0.0
  9
$PUCSNAME
  2

  9
$PUCSORG
 10
0.0
 20
0.0
 30
0.0
  9
$PUCSXDIR
 10
1.0
 20
0.0
 30
0.0
  9
$PUCSYDIR
 10
0.0
 20
1.0
 30
0.0
  9
$USERI1
 70
     0
  9
$USERI2
 70
     0
  9
$USERI3
 70
     0
  9
$USERI4
 70
     0
  9
$USERI5
 70
     0
  9
$USERR1
 40
20.0
  9
$USERR2
 40
0.0
  9
$USERR3
 40
0.0
  9
$USERR4
 40
0.0
  9
$USERR5
 40
0.0
  9
$WORLDVIEW
 70
     1
  9
$SHADEDGE
 70
     3
  9
$SHADEDIF
 70
    70
  9
$TILEMODE
 70
     1
  9
$MAXACTVP
 70
    64
  9
$PLIMCHECK
 70
     0
  9
$PEXTMIN
 10
1.0000000000000000E+020
 20
1.0000000000000000E+020
 30
1.0000000000000000E+020
  9
$PEXTMAX
 10
-1.0000000000000000E+020
 20
-1.0000000000000000E+020
 30
-1.0000000000000000E+020
  9
$PLIMMIN
 10
0.0
 20
0.0
  9
$PLIMMAX
 10
12.0
 20
9.0
  9
$UNITMODE
 70
     0
  9
$VISRETAIN
 70
     1
  9
$PLINEGEN
 70
     0
  9
$PSLTSCALE
 70
     1
  0
ENDSEC
  0
SECTION
  2
TABLES
  0
TABLE
  2
VPORT
 70
    11
  0
VPORT
  2
*ACTIVE
 70
     0
 10
0.0
 20
0.0
 11
1.0
 21
1.0
 12
64.428136978062867
 22
124.08691813631999
 13
0.0
 23
0.0
 14
1.0
 24
1.0
 15
0.0
 25
0.0
 16
0.0
 26
0.0
 36
1.0
 17
0.0
 27
0.0
 37
0.0
 40
1705.864403019312
 41
1.4423558897243101
 42
50.0
 43
0.0
 44
0.0
 50
0.0
 51
0.0
 71
     0
 72
   100
 73
     1
 74
     0
 75
     0
 76
     0
 77
     0
 78
     0
  0
ENDTAB
  0
TABLE
  2
LTYPE
 70
     2
  0
LTYPE
  2
CONTINUOUS
 70
     0
  3
実線
 72
    65
 73
     0
 40
0.0
  0
LTYPE
  2
DASHDOT
 70
     0
  3
____ _ ____ _ ____ _ ____ _ ____ _ ____ _ ____
 72
    65
 73
     4
 40
5.5
 49
4.0
 49
-0.6
 49
0.3
 49
-0.6
  0
ENDTAB
  0
TABLE
  2
LAYER
 70
    12
  0
LAYER
  2
0
 70
     0
 62
     7
  6
CONTINUOUS
  0
LAYER
  2
SIZE
 70
     0
 62
    30
  6
CONTINUOUS
  0
LAYER
  2
BASIS
 70
     0
 62
     6
  6
DASHDOT
  0
LAYER
  2
OUTLINE
 70
     0
 62
     3
  6
CONTINUOUS
  0
LAYER
  2
DETAIL
 70
     0
 62
     5
  6
CONTINUOUS
  0
LAYER
  2
ARRANGE
 70
     0
 62
     1
  6
CONTINUOUS
  0
LAYER
  2
DEFPOINTS
 70
     0
 62
     7
  6
CONTINUOUS
  0
LAYER
  2
ETC
 70
     0
 62
    61
  6
CONTINUOUS
  0
LAYER
  2
FIX
 70
     0
 62
    11
  6
CONTINUOUS
  0
LAYER
  2
NOTE
 70
     0
 62
     4
  6
CONTINUOUS
  0
LAYER
  2
SERVICESPACE
 70
     0
 62
     2
  6
DASHDOT
  0
LAYER
  2
SYMBOLLINE
 70
     0
 62
    15
  6
CONTINUOUS
  0
ENDTAB
  0
TABLE
  2
STYLE
 70
     1
  0
STYLE
  2
STANDARD
 70
     0
 40
64.0
 41
0.9
 50
0.0
 71
     0
 42
64.0
  3
SIMPLEX.shx
  4
BIGFONT.shx
  0
ENDTAB
  0
TABLE
  2
VIEW
 70
     1
  0
VIEW
  2
ALL
 70
     0
 40
4282.6198079999986
 10
0.0
 20
41.309903999999989
 41
5940.0
 11
0.0
 21
0.0
 31
1.0
 12
0.0
 22
0.0
 32
0.0
 42
50.0
 43
0.0
 44
0.0
 50
0.0
 71
     0
  0
ENDTAB
  0
TABLE
  2
UCS
 70
     0
  0
ENDTAB
  0
TABLE
  2
APPID
 70
     1
  0
APPID
  2
ACAD
 70
     0
  0
ENDTAB
  0
TABLE
  2
DIMSTYLE
 70
     1
  0
DIMSTYLE
  2
STANDARD
 70
     0
  3

  4

  5

  6

  7

 40
1.0
 41
0.18
 42
0.0625
 43
0.38
 44
0.18
 45
0.0
 46
0.0
 47
0.0
 48
0.0
140
0.18
141
0.09
142
0.0
143
25.399999999999999
144
1.0
145
0.0
146
1.0
147
0.09
 71
     0
 72
     0
 73
     1
 74
     1
 75
     0
 76
     0
 77
     0
 78
     0
170
     0
171
     2
172
     0
173
     0
174
     0
175
     0
176
     0
177
     0
178
     0
  0
ENDTAB
  0
ENDSEC
  0
SECTION
  2
BLOCKS
  0
BLOCK
  8
0
  2
$MODEL_SPACE
 70
     0
 10
0.0
 20
0.0
 30
0.0
  3
$MODEL_SPACE
  1

  0
ENDBLK
  5
20
  8
0
  0
BLOCK
 67
     1
  8
0
  2
$PAPER_SPACE
 70
     0
 10
0.0
 20
0.0
 30
0.0
  3
$PAPER_SPACE
  1

  0
ENDBLK
  5
1C
 67
     1
  8
0
  0
BLOCK
  8
0
  2
DOT1
 70
     0
 10
0.0
 20
0.0
 30
0.0
  3
DOT1
  1

  0
CIRCLE
  5
34
  8
SIZE
  6
CONTINUOUS
 62
     7
 10
0.0
 20
0.0
 30
0.0
 40
3.0
  0
ENDBLK
  5
35
  8
0
  0
BLOCK
  8
0
  2
_ORIGIN
 70
     0
 10
0.0
 20
0.0
 30
0.0
  3
_ORIGIN
  1

  0
CIRCLE
  5
38
  8
0
  6
CONTINUOUS
 62
     7
 10
0.0
 20
0.0
 30
0.0
 40
0.5
  0
LINE
  5
39
  8
0
  6
CONTINUOUS
 62
     7
 10
0.0
 20
0.0
 30
0.0
 11
-1.0
 21
0.0
 31
0.0
  0
ENDBLK
  5
3A
  8
0
  0
ENDSEC
  0
SECTION
  2
ENTITIES
  0
LINE
  5
3D
  8
BASIS
  6
DASHDOT
 62
     6
 10
0.0
 20
200.40224599999991
 30
0.0
 11
0.0
 21
-232.9293569999999
 31
0.0
  0
LINE
  5
3E
  8
BASIS
  6
DASHDOT
 62
     6
 10
227.78437999999991
 20
0.0
 30
0.0
 11
-230.686418
 21
0.0
 31
0.0
  0
CIRCLE
  5
3F
  8
ARRANGE
  6
CONTINUOUS
 62
     1
 39
50.0
 10
0.0
 20
0.0
 30
0.0
 40
40.0
  0
POINT
  5
40
  8
ARRANGE
  6
CONTINUOUS
 62
     1
 10
0.0
 20
0.0
 30
0.0
 39
50.0
  0
ARC
  5
41
  8
DETAIL
  6
CONTINUOUS
 62
     5
 10
0.0
 20
1528.0
 30
0.0
 40
1700.0
 50
265.53574199999991
 51
270.0
  0
LINE
  5
42
  8
DETAIL
  6
CONTINUOUS
 62
     5
 10
-148.0
 20
-148.0
 30
0.0
 11
119.5
 21
-148.0
 31
0.0
  0
LINE
  5
43
  8
DETAIL
  6
CONTINUOUS
 62
     5
 10
-142.0
 20
148.0
 30
0.0
 11
142.0
 21
148.0
 31
0.0
  0
LINE
  5
44
  8
DETAIL
  6
CONTINUOUS
 62
     5
 10
-5.0
 20
-148.0
 30
0.0
 11
-25.0
 21
-148.0
 31
0.0
  0
LINE
  5
45
  8
DETAIL
  6
CONTINUOUS
 62
     5
 10
148.0
 20
110.0
 30
0.0
 11
148.0
 21
-110.0
 31
0.0
  0
LINE
  5
46
  8
DETAIL
  6
CONTINUOUS
 62
     5
 10
148.0
 20
142.0
 30
0.0
 11
148.0
 21
-146.5
 31
0.0
  0
LINE
  5
47
  8
DETAIL
  6
CONTINUOUS
 62
     5
 10
148.0
 20
142.0
 30
0.0
 11
148.0
 21
-148.0
 31
0.0
  0
LINE
  5
48
  8
DETAIL
  6
CONTINUOUS
 62
     5
 10
148.0
 20
110.0
 30
0.0
 11
148.0
 21
-110.0
 31
0.0
  0
ARC
  5
49
  8
DETAIL
  6
CONTINUOUS
 62
     5
 10
0.0
 20
1528.0
 30
0.0
 40
1700.0
 50
270.0
 51
274.46425799999997
  0
LINE
  5
4A
  8
DETAIL
  6
CONTINUOUS
 62
     5
 10
32.0
 20
-148.0
 30
0.0
 11
148.0
 21
-148.0
 31
0.0
  0
LINE
  5
4B
  8
DETAIL
  6
CONTINUOUS
 62
     5
 10
119.5
 20
-148.0
 30
0.0
 11
145.5
 21
-148.0
 31
0.0
  0
LINE
  5
4C
  8
DETAIL
  6
CONTINUOUS
 62
     5
 10
143.26093399999999
 20
-148.0
 30
0.0
 11
140.0
 21
-148.0
 31
0.0
  0
LINE
  5
4D
  8
DETAIL
  6
CONTINUOUS
 62
     5
 10
3.5
 20
-148.0
 30
0.0
 11
-3.5316199999999989
 21
-148.0
 31
0.0
  0
LINE
  5
4E
  8
DETAIL
  6
CONTINUOUS
 62
     5
 10
5.0
 20
-148.0
 30
0.0
 11
25.0
 21
-148.0
 31
0.0
  0
LINE
  5
4F
  8
DETAIL
  6
CONTINUOUS
 62
     5
 10
26.5
 20
-148.0
 30
0.0
 11
30.5
 21
-148.0
 31
0.0
  0
ARC
  5
50
  8
DETAIL
  6
CONTINUOUS
 62
     5
 10
142.0
 20
142.0
 30
0.0
 40
6.0
 50
0.0
 51
90.0
  0
LINE
  5
51
  8
DETAIL
  6
CONTINUOUS
 62
     5
 10
-148.0
 20
142.0
 30
0.0
 11
-148.0
 21
-148.0
 31
0.0
  0
LINE
  5
52
  8
DETAIL
  6
CONTINUOUS
 62
     5
 10
-26.5
 20
-148.0
 30
0.0
 11
-30.5
 21
-148.0
 31
0.0
  0
LINE
  5
53
  8
DETAIL
  6
CONTINUOUS
 62
     5
 10
-148.0
 20
-148.0
 30
0.0
 11
-148.0
 21
-149.8939179999999
 31
0.0
  0
ARC
  5
54
  8
DETAIL
  6
CONTINUOUS
 62
     5
 10
-131.0
 20
-149.8939179999999
 30
0.0
 40
17.0
 50
180.0
 51
265.53574199999991
  0
LINE
  5
55
  8
DETAIL
  6
CONTINUOUS
 62
     5
 10
148.0
 20
-148.0
 30
0.0
 11
148.0
 21
-149.8939179999999
 31
0.0
  0
ARC
  5
56
  8
DETAIL
  6
CONTINUOUS
 62
     5
 10
131.0
 20
-149.8939179999999
 30
0.0
 40
17.0
 50
274.46425799999997
 51
0.0
  0
ARC
  5
57
  8
DETAIL
  6
CONTINUOUS
 62
     5
 10
-142.0
 20
142.0
 30
0.0
 40
6.0
 50
90.0
 51
180.0
  0
LINE
  5
58
  8
SIZE
  6
CONTINUOUS
 62
    30
 10
148.0
 20
162.0
 30
0.0
 11
148.0
 21
400.03999599999997
 31
0.0
  0
LINE
  5
59
  8
SIZE
  6
CONTINUOUS
 62
    30
 10
-148.0
 20
162.0
 30
0.0
 11
-148.0
 21
400.03999599999997
 31
0.0
  0
LINE
  5
5A
  8
SIZE
  6
CONTINUOUS
 62
    30
 10
136.0
 20
380.03999599999997
 30
0.0
 11
-136.0
 21
380.03999599999997
 31
0.0
  0
CIRCLE
  5
5B
  8
SIZE
  6
CONTINUOUS
 62
    30
 10
148.0
 20
380.03999599999997
 30
0.0
 40
6.0
  0
LINE
  5
5C
  8
SIZE
  6
CONTINUOUS
 62
    30
 10
148.0
 20
380.03999599999997
 30
0.0
 11
136.0
 21
380.03999599999997
 31
0.0
  0
CIRCLE
  5
5D
  8
SIZE
  6
CONTINUOUS
 62
    30
 10
-148.0
 20
380.03999599999997
 30
0.0
 40
6.0
  0
LINE
  5
5E
  8
SIZE
  6
CONTINUOUS
 62
    30
 10
-148.0
 20
380.03999599999997
 30
0.0
 11
-136.0
 21
380.03999599999997
 31
0.0
  0
TEXT
  5
5F
  8
SIZE
  6
CONTINUOUS
 62
    30
 10
-72.685714285714297
 20
405.03999599999997
 30
0.0
 40
64.0
  1
296
 41
0.9
 72
     1
 11
0.0
 21
405.03999599999997
 31
0.0
  0
POINT
  5
60
  8
DEFPOINTS
  6
CONTINUOUS
 62
    30
 10
148.0
 20
142.0
 30
0.0
  0
POINT
  5
61
  8
DEFPOINTS
  6
CONTINUOUS
 62
    30
 10
-148.0
 20
142.0
 30
0.0
  0
POINT
  5
62
  8
DEFPOINTS
  6
CONTINUOUS
 62
    30
 10
-148.0
 20
380.03999599999997
 30
0.0
  0
LINE
  5
63
  8
SIZE
  6
CONTINUOUS
 62
    30
 10
-162.0
 20
148.0
 30
0.0
 11
-550.586277
 21
148.0
 31
0.0
  0
LINE
  5
64
  8
SIZE
  6
CONTINUOUS
 62
    30
 10
-20.0
 20
-172.0
 30
0.0
 11
-550.586277
 21
-172.0
 31
0.0
  0
LINE
  5
65
  8
SIZE
  6
CONTINUOUS
 62
    30
 10
-530.586277
 20
136.0
 30
0.0
 11
-530.586277
 21
-160.0
 31
0.0
  0
CIRCLE
  5
66
  8
SIZE
  6
CONTINUOUS
 62
    30
 10
-530.586277
 20
148.0
 30
0.0
 40
6.0
  0
LINE
  5
67
  8
SIZE
  6
CONTINUOUS
 62
    30
 10
-530.586277
 20
148.0
 30
0.0
 11
-530.586277
 21
136.0
 31
0.0
  0
CIRCLE
  5
68
  8
SIZE
  6
CONTINUOUS
 62
    30
 10
-530.586277
 20
-172.0
 30
0.0
 40
6.0
  0
LINE
  5
69
  8
SIZE
  6
CONTINUOUS
 62
    30
 10
-530.586277
 20
-172.0
 30
0.0
 11
-530.586277
 21
-160.0
 31
0.0
  0
TEXT
  5
6A
  8
SIZE
  6
CONTINUOUS
 62
    30
 10
-555.586277
 20
-86.057142857142836
 30
0.0
 40
64.0
  1
320
 50
90.0
 41
0.9
 72
     1
 11
-555.586277
 21
-12.0
 31
0.0
  0
POINT
  5
6B
  8
DEFPOINTS
  6
CONTINUOUS
 62
    30
 10
-142.0
 20
148.0
 30
0.0
  0
POINT
  5
6C
  8
DEFPOINTS
  6
CONTINUOUS
 62
    30
 10
0.0
 20
-172.0
 30
0.0
  0
POINT
  5
6D
  8
DEFPOINTS
  6
CONTINUOUS
 62
    30
 10
-530.586277
 20
-172.0
 30
0.0
  0
LINE
  5
6E
  8
SIZE
  6
CONTINUOUS
 62
    30
 10
-250.68641799999989
 20
0.0
 30
0.0
 11
-420.64309299999991
 21
0.0
 31
0.0
  0
LINE
  5
6F
  8
SIZE
  6
CONTINUOUS
 62
    30
 10
-20.0
 20
-172.0
 30
0.0
 11
-420.64309299999991
 21
-172.0
 31
0.0
  0
LINE
  5
70
  8
SIZE
  6
CONTINUOUS
 62
    30
 10
-400.64309300000002
 20
12.0
 30
0.0
 11
-400.64309300000002
 21
24.0
 31
0.0
  0
LINE
  5
71
  8
SIZE
  6
CONTINUOUS
 62
    30
 10
-400.64309300000002
 20
-184.0
 30
0.0
 11
-400.64309300000002
 21
-196.0
 31
0.0
  0
LINE
  5
72
  8
SIZE
  6
CONTINUOUS
 62
    30
 10
-400.64309300000002
 20
0.0
 30
0.0
 11
-400.64309300000002
 21
-172.0
 31
0.0
  0
CIRCLE
  5
73
  8
SIZE
  6
CONTINUOUS
 62
    30
 10
-400.64309300000002
 20
0.0
 30
0.0
 40
6.0
  0
LINE
  5
74
  8
SIZE
  6
CONTINUOUS
 62
    30
 10
-400.64309300000002
 20
0.0
 30
0.0
 11
-400.64309300000002
 21
12.0
 31
0.0
  0
CIRCLE
  5
75
  8
SIZE
  6
CONTINUOUS
 62
    30
 10
-400.64309300000002
 20
-172.0
 30
0.0
 40
6.0
  0
LINE
  5
76
  8
SIZE
  6
CONTINUOUS
 62
    30
 10
-400.64309300000002
 20
-172.0
 30
0.0
 11
-400.64309300000002
 21
-184.0
 31
0.0
  0
TEXT
  5
77
  8
SIZE
  6
CONTINUOUS
 62
    30
 10
-425.64309299999991
 20
-154.5714285714285
 30
0.0
 40
64.0
  1
172
 50
90.0
 41
0.9
 72
     1
 11
-425.64309299999991
 21
-86.0
 31
0.0
  0
POINT
  5
78
  8
DEFPOINTS
  6
CONTINUOUS
 62
    30
 10
-230.686418
 20
0.0
 30
0.0
  0
POINT
  5
79
  8
DEFPOINTS
  6
CONTINUOUS
 62
    30
 10
0.0
 20
-172.0
 30
0.0
  0
POINT
  5
7A
  8
DEFPOINTS
  6
CONTINUOUS
 62
    30
 10
-400.64309300000002
 20
-172.0
 30
0.0
  0
LINE
  5
7B
  8
NOTE
  6
CONTINUOUS
 62
     4
 10
272.40109899999999
 20
16.496776999999991
 30
0.0
 11
148.0
 21
-100.0
 31
0.0
  0
LINE
  5
7C
  8
NOTE
  6
CONTINUOUS
 62
     4
 10
392.20767799999987
 20
16.496776999999991
 30
0.0
 11
272.40109899999999
 21
16.496776999999991
 31
0.0
  0
TEXT
  5
7D
  8
NOTE
  6
CONTINUOUS
 62
     4
 10
290.16786400000001
 20
37.787022999999991
 30
0.0
 40
64.0
  1
EL
 41
0.9
  0
LINE
  5
7E
  8
NOTE
  6
CONTINUOUS
 62
     4
 10
183.2846209999999
 20
-81.158674000000005
 30
0.0
 11
148.0
 21
-100.0
 31
0.0
  0
LINE
  5
7F
  8
NOTE
  6
CONTINUOUS
 62
     4
 10
148.0
 20
-100.0
 30
0.0
 11
169.1367149999999
 21
-66.040622999999997
 31
0.0
  0
LINE
  5
80
  8
NOTE
  6
CONTINUOUS
 62
     4
 10
148.0
 20
-120.0
 30
0.0
 11
148.0
 21
-80.0
 31
0.0
  0
LINE
  5
81
  8
NOTE
  6
CONTINUOUS
 62
     4
 10
128.0
 20
-100.0
 30
0.0
 11
168.0
 21
-100.0
 31
0.0
  0
LINE
  5
82
  8
OUTLINE
  6
CONTINUOUS
 62
     3
 10
-142.0
 20
148.0
 30
0.0
 11
142.0
 21
148.0
 31
0.0
  0
LINE
  5
83
  8
OUTLINE
  6
CONTINUOUS
 62
     3
 10
-148.0
 20
-148.0
 30
0.0
 11
119.5
 21
-148.0
 31
0.0
  0
ARC
  5
84
  8
OUTLINE
  6
CONTINUOUS
 62
     3
 10
0.0
 20
1528.0
 30
0.0
 40
1700.0
 50
265.53574199999991
 51
270.0
  0
LINE
  5
85
  8
OUTLINE
  6
CONTINUOUS
 62
     3
 10
148.0
 20
110.0
 30
0.0
 11
148.0
 21
-110.0
 31
0.0
  0
LINE
  5
86
  8
OUTLINE
  6
CONTINUOUS
 62
     3
 10
148.0
 20
142.0
 30
0.0
 11
148.0
 21
-148.0
 31
0.0
  0
LINE
  5
87
  8
OUTLINE
  6
CONTINUOUS
 62
     3
 10
148.0
 20
142.0
 30
0.0
 11
148.0
 21
-146.5
 31
0.0
  0
LINE
  5
88
  8
OUTLINE
  6
CONTINUOUS
 62
     3
 10
148.0
 20
110.0
 30
0.0
 11
148.0
 21
-110.0
 31
0.0
  0
ARC
  5
89
  8
OUTLINE
  6
CONTINUOUS
 62
     3
 10
131.0
 20
-149.8939179999999
 30
0.0
 40
17.0
 50
274.46425799999997
 51
0.0
  0
ARC
  5
8A
  8
OUTLINE
  6
CONTINUOUS
 62
     3
 10
0.0
 20
1528.0
 30
0.0
 40
1700.0
 50
270.0
 51
274.46425799999997
  0
LINE
  5
8B
  8
OUTLINE
  6
CONTINUOUS
 62
     3
 10
32.0
 20
-148.0
 30
0.0
 11
148.0
 21
-148.0
 31
0.0
  0
LINE
  5
8C
  8
OUTLINE
  6
CONTINUOUS
 62
     3
 10
148.0
 20
-148.0
 30
0.0
 11
148.0
 21
-149.8939179999999
 31
0.0
  0
LINE
  5
8D
  8
OUTLINE
  6
CONTINUOUS
 62
     3
 10
143.26093399999999
 20
-148.0
 30
0.0
 11
140.0
 21
-148.0
 31
0.0
  0
LINE
  5
8E
  8
OUTLINE
  6
CONTINUOUS
 62
     3
 10
119.5
 20
-148.0
 30
0.0
 11
145.5
 21
-148.0
 31
0.0
  0
ARC
  5
8F
  8
OUTLINE
  6
CONTINUOUS
 62
     3
 10
142.0
 20
142.0
 30
0.0
 40
6.0
 50
0.0
 51
90.0
  0
LINE
  5
90
  8
OUTLINE
  6
CONTINUOUS
 62
     3
 10
-148.0
 20
142.0
 30
0.0
 11
-148.0
 21
-148.0
 31
0.0
  0
ARC
  5
91
  8
OUTLINE
  6
CONTINUOUS
 62
     3
 10
-131.0
 20
-149.8939179999999
 30
0.0
 40
17.0
 50
180.0
 51
265.53574199999991
  0
LINE
  5
92
  8
OUTLINE
  6
CONTINUOUS
 62
     3
 10
-148.0
 20
-148.0
 30
0.0
 11
-148.0
 21
-149.8939179999999
 31
0.0
  0
ARC
  5
93
  8
OUTLINE
  6
CONTINUOUS
 62
     3
 10
-142.0
 20
142.0
 30
0.0
 40
6.0
 50
90.0
 51
180.0
  0
LINE
  5
94
  8
DETAIL
  6
CONTINUOUS
 62
     5
 10
120.0
 20
120.0
 30
0.0
 11
-120.0
 21
120.0
 31
0.0
  0
LINE
  5
95
  8
DETAIL
  6
CONTINUOUS
 62
     5
 10
120.0
 20
-120.0
 30
0.0
 11
-120.0
 21
-120.0
 31
0.0
  0
LINE
  5
96
  8
DETAIL
  6
CONTINUOUS
 62
     5
 10
-120.0
 20
120.0
 30
0.0
 11
-120.0
 21
-120.0
 31
0.0
  0
LINE
  5
97
  8
DETAIL
  6
CONTINUOUS
 62
     5
 10
120.0
 20
120.0
 30
0.0
 11
120.0
 21
-120.0
 31
0.0
  0
LINE
  5
98
  8
DETAIL
  6
CONTINUOUS
 62
     5
 10
120.0
 20
100.0
 30
0.0
 11
-120.0
 21
100.0
 31
0.0
  0
LINE
  5
99
  8
DETAIL
  6
CONTINUOUS
 62
     5
 10
120.0
 20
26.699999999999989
 30
0.0
 11
-120.0
 21
26.699999999999989
 31
0.0
  0
LINE
  5
9A
  8
DETAIL
  6
CONTINUOUS
 62
     5
 10
120.0
 20
-46.600000000000001
 30
0.0
 11
-120.0
 21
-46.600000000000001
 31
0.0
  0
CIRCLE
  5
9B
  8
FIX
  6
CONTINUOUS
 62
    11
 39
50.0
 10
-60.0
 20
132.49999999999989
 30
0.0
 40
2.5
  0
CIRCLE
  5
9C
  8
DETAIL
  6
CONTINUOUS
 62
     5
 10
-60.0
 20
132.49999999999989
 30
0.0
 40
2.5
  0
LINE
  5
9D
  8
NOTE
  6
CONTINUOUS
 62
     4
 10
-60.0
 20
152.5
 30
0.0
 11
-60.0
 21
112.5
 31
0.0
  0
LINE
  5
9E
  8
NOTE
  6
CONTINUOUS
 62
     4
 10
-80.0
 20
132.49999999999989
 30
0.0
 11
-40.0
 21
132.49999999999989
 31
0.0
  0
CIRCLE
  5
9F
  8
FIX
  6
CONTINUOUS
 62
    11
 39
50.0
 10
60.0
 20
132.49999999999989
 30
0.0
 40
2.5
  0
LINE
  5
A0
  8
NOTE
  6
CONTINUOUS
 62
     4
 10
60.0
 20
152.5
 30
0.0
 11
60.0
 21
112.5
 31
0.0
  0
LINE
  5
A1
  8
NOTE
  6
CONTINUOUS
 62
     4
 10
80.0
 20
132.49999999999989
 30
0.0
 11
40.0
 21
132.49999999999989
 31
0.0
  0
CIRCLE
  5
A2
  8
DETAIL
  6
CONTINUOUS
 62
     5
 10
60.0
 20
132.49999999999989
 30
0.0
 40
2.5
  0
CIRCLE
  5
A3
  8
FIX
  6
CONTINUOUS
 62
    11
 39
50.0
 10
-60.0
 20
-132.49999999999989
 30
0.0
 40
2.5
  0
LINE
  5
A4
  8
NOTE
  6
CONTINUOUS
 62
     4
 10
-60.0
 20
-152.5
 30
0.0
 11
-60.0
 21
-112.5
 31
0.0
  0
LINE
  5
A5
  8
NOTE
  6
CONTINUOUS
 62
     4
 10
-80.0
 20
-132.49999999999989
 30
0.0
 11
-40.0
 21
-132.49999999999989
 31
0.0
  0
CIRCLE
  5
A6
  8
DETAIL
  6
CONTINUOUS
 62
     5
 10
-60.0
 20
-132.49999999999989
 30
0.0
 40
2.5
  0
CIRCLE
  5
A7
  8
FIX
  6
CONTINUOUS
 62
    11
 39
50.0
 10
60.0
 20
-132.49999999999989
 30
0.0
 40
2.5
  0
CIRCLE
  5
A8
  8
DETAIL
  6
CONTINUOUS
 62
     5
 10
60.0
 20
-132.49999999999989
 30
0.0
 40
2.5
  0
LINE
  5
A9
  8
NOTE
  6
CONTINUOUS
 62
     4
 10
60.0
 20
-152.5
 30
0.0
 11
60.0
 21
-112.5
 31
0.0
  0
LINE
  5
AA
  8
NOTE
  6
CONTINUOUS
 62
     4
 10
80.0
 20
-132.49999999999989
 30
0.0
 11
40.0
 21
-132.49999999999989
 31
0.0
  0
LINE
  5
AB
  8
SIZE
  6
CONTINUOUS
 62
    30
 10
-100.0
 20
132.49999999999989
 30
0.0
 11
-420.64309299999991
 21
132.49999999999989
 31
0.0
  0
LINE
  5
AC
  8
SIZE
  6
CONTINUOUS
 62
    30
 10
-250.68641799999989
 20
0.0
 30
0.0
 11
-420.64309299999991
 21
0.0
 31
0.0
  0
LINE
  5
AD
  8
SIZE
  6
CONTINUOUS
 62
    30
 10
-400.64309300000002
 20
120.5
 30
0.0
 11
-400.64309300000002
 21
12.0
 31
0.0
  0
LINE
  5
AE
  8
SIZE
  6
CONTINUOUS
 62
    30
 10
-400.64309300000002
 20
448.48187999999999
 30
0.0
 11
-400.64309300000002
 21
132.49999999999989
 31
0.0
  0
TEXT
  5
AF
  8
SIZE
  6
CONTINUOUS
 62
    30
 10
-425.64309299999991
 20
204.05330828571419
 30
0.0
 40
64.0
  1
132.5
 50
90.0
 41
0.9
 72
     1
 11
-425.64309299999991
 21
313.76759399999992
 31
0.0
  0
CIRCLE
  5
B0
  8
SIZE
  6
CONTINUOUS
 62
    30
 10
-400.64309300000002
 20
132.49999999999989
 30
0.0
 40
6.0
  0
LINE
  5
B1
  8
SIZE
  6
CONTINUOUS
 62
    30
 10
-400.64309300000002
 20
132.49999999999989
 30
0.0
 11
-400.64309300000002
 21
120.5
 31
0.0
  0
CIRCLE
  5
B2
  8
SIZE
  6
CONTINUOUS
 62
    30
 10
-400.64309300000002
 20
0.0
 30
0.0
 40
6.0
  0
LINE
  5
B3
  8
SIZE
  6
CONTINUOUS
 62
    30
 10
-400.64309300000002
 20
0.0
 30
0.0
 11
-400.64309300000002
 21
12.0
 31
0.0
  0
POINT
  5
B4
  8
DEFPOINTS
  6
CONTINUOUS
 62
    30
 10
-80.0
 20
132.49999999999989
 30
0.0
  0
POINT
  5
B5
  8
DEFPOINTS
  6
CONTINUOUS
 62
    30
 10
-230.686418
 20
0.0
 30
0.0
  0
POINT
  5
B6
  8
DEFPOINTS
  6
CONTINUOUS
 62
    30
 10
-400.64309300000002
 20
0.0
 30
0.0
  0
LINE
  5
B7
  8
SIZE
  6
CONTINUOUS
 62
    30
 10
247.78437999999991
 20
0.0
 30
0.0
 11
428.63700799999998
 21
0.0
 31
0.0
  0
LINE
  5
B8
  8
SIZE
  6
CONTINUOUS
 62
    30
 10
188.0
 20
-100.0
 30
0.0
 11
428.63700799999998
 21
-100.0
 31
0.0
  0
LINE
  5
B9
  8
SIZE
  6
CONTINUOUS
 62
    30
 10
408.63700799999998
 20
-12.0
 30
0.0
 11
408.63700799999998
 21
-88.0
 31
0.0
  0
LINE
  5
BA
  8
SIZE
  6
CONTINUOUS
 62
    30
 10
408.63700799999998
 20
-318.39196900000002
 30
0.0
 11
408.63700799999998
 21
-100.0
 31
0.0
  0
TEXT
  5
BB
  8
SIZE
  6
CONTINUOUS
 62
    30
 10
383.63700799999998
 20
-293.3919695714286
 30
0.0
 40
64.0
  1
100
 50
90.0
 41
0.9
 72
     1
 11
383.63700799999998
 21
-224.82054099999999
 31
0.0
  0
CIRCLE
  5
BC
  8
SIZE
  6
CONTINUOUS
 62
    30
 10
408.63700799999998
 20
0.0
 30
0.0
 40
6.0
  0
LINE
  5
BD
  8
SIZE
  6
CONTINUOUS
 62
    30
 10
408.63700799999998
 20
0.0
 30
0.0
 11
408.63700799999998
 21
-12.0
 31
0.0
  0
CIRCLE
  5
BE
  8
SIZE
  6
CONTINUOUS
 62
    30
 10
408.63700799999998
 20
-100.0
 30
0.0
 40
6.0
  0
LINE
  5
BF
  8
SIZE
  6
CONTINUOUS
 62
    30
 10
408.63700799999998
 20
-100.0
 30
0.0
 11
408.63700799999998
 21
-88.0
 31
0.0
  0
POINT
  5
C0
  8
DEFPOINTS
  6
CONTINUOUS
 62
    30
 10
227.78437999999991
 20
0.0
 30
0.0
  0
POINT
  5
C1
  8
DEFPOINTS
  6
CONTINUOUS
 62
    30
 10
168.0
 20
-100.0
 30
0.0
  0
POINT
  5
C2
  8
DEFPOINTS
  6
CONTINUOUS
 62
    30
 10
408.63700799999998
 20
-100.0
 30
0.0
  0
LINE
  5
C3
  8
SIZE
  6
CONTINUOUS
 62
    30
 10
-100.0
 20
132.49999999999989
 30
0.0
 11
-289.57206400000001
 21
132.49999999999989
 31
0.0
  0
LINE
  5
C4
  8
SIZE
  6
CONTINUOUS
 62
    30
 10
-100.0
 20
-132.49999999999989
 30
0.0
 11
-289.57206400000001
 21
-132.49999999999989
 31
0.0
  0
LINE
  5
C5
  8
SIZE
  6
CONTINUOUS
 62
    30
 10
-269.57206400000001
 20
120.5
 30
0.0
 11
-269.57206400000001
 21
-120.5
 31
0.0
  0
CIRCLE
  5
C6
  8
SIZE
  6
CONTINUOUS
 62
    30
 10
-269.57206400000001
 20
132.49999999999989
 30
0.0
 40
6.0
  0
LINE
  5
C7
  8
SIZE
  6
CONTINUOUS
 62
    30
 10
-269.57206400000001
 20
132.49999999999989
 30
0.0
 11
-269.57206400000001
 21
120.5
 31
0.0
  0
CIRCLE
  5
C8
  8
SIZE
  6
CONTINUOUS
 62
    30
 10
-269.57206400000001
 20
-132.49999999999989
 30
0.0
 40
6.0
  0
LINE
  5
C9
  8
SIZE
  6
CONTINUOUS
 62
    30
 10
-269.57206400000001
 20
-132.49999999999989
 30
0.0
 11
-269.57206400000001
 21
-120.5
 31
0.0
  0
TEXT
  5
CA
  8
SIZE
  6
CONTINUOUS
 62
    30
 10
-294.57206400000001
 20
-74.05714285714285
 30
0.0
 40
64.0
  1
265
 50
90.0
 41
0.9
 72
     1
 11
-294.57206400000001
 21
0.0
 31
0.0
  0
POINT
  5
CB
  8
DEFPOINTS
  6
CONTINUOUS
 62
    30
 10
-80.0
 20
132.49999999999989
 30
0.0
  0
POINT
  5
CC
  8
DEFPOINTS
  6
CONTINUOUS
 62
    30
 10
-80.0
 20
-132.49999999999989
 30
0.0
  0
POINT
  5
CD
  8
DEFPOINTS
  6
CONTINUOUS
 62
    30
 10
-269.57206400000001
 20
-132.49999999999989
 30
0.0
  0
LINE
  5
CE
  8
SIZE
  6
CONTINUOUS
 62
    30
 10
60.0
 20
168.0
 30
0.0
 11
60.0
 21
282.45992100000001
 31
0.0
  0
LINE
  5
CF
  8
SIZE
  6
CONTINUOUS
 62
    30
 10
-60.0
 20
168.0
 30
0.0
 11
-60.0
 21
282.45992100000001
 31
0.0
  0
LINE
  5
D0
  8
SIZE
  6
CONTINUOUS
 62
    30
 10
72.0
 20
262.45992099999989
 30
0.0
 11
84.0
 21
262.45992099999989
 31
0.0
  0
LINE
  5
D1
  8
SIZE
  6
CONTINUOUS
 62
    30
 10
-72.0
 20
262.45992099999989
 30
0.0
 11
-84.0
 21
262.45992099999989
 31
0.0
  0
LINE
  5
D2
  8
SIZE
  6
CONTINUOUS
 62
    30
 10
60.0
 20
262.45992099999989
 30
0.0
 11
-60.0
 21
262.45992099999989
 31
0.0
  0
CIRCLE
  5
D3
  8
SIZE
  6
CONTINUOUS
 62
    30
 10
60.0
 20
262.45992099999989
 30
0.0
 40
6.0
  0
LINE
  5
D4
  8
SIZE
  6
CONTINUOUS
 62
    30
 10
60.0
 20
262.45992099999989
 30
0.0
 11
72.0
 21
262.45992099999989
 31
0.0
  0
CIRCLE
  5
D5
  8
SIZE
  6
CONTINUOUS
 62
    30
 10
-60.0
 20
262.45992099999989
 30
0.0
 40
6.0
  0
LINE
  5
D6
  8
SIZE
  6
CONTINUOUS
 62
    30
 10
-60.0
 20
262.45992099999989
 30
0.0
 11
-72.0
 21
262.45992099999989
 31
0.0
  0
TEXT
  5
D7
  8
SIZE
  6
CONTINUOUS
 62
    30
 10
-68.571428571428569
 20
287.45992099999989
 30
0.0
 40
64.0
  1
120
 41
0.9
 72
     1
 11
0.0
 21
287.45992099999989
 31
0.0
  0
POINT
  5
D8
  8
DEFPOINTS
  6
CONTINUOUS
 62
    30
 10
60.0
 20
148.0
 30
0.0
  0
POINT
  5
D9
  8
DEFPOINTS
  6
CONTINUOUS
 62
    30
 10
-60.0
 20
148.0
 30
0.0
  0
POINT
  5
DA
  8
DEFPOINTS
  6
CONTINUOUS
 62
    30
 10
-60.0
 20
262.45992099999989
 30
0.0
  0
LINE
  5
DB
  8
SIZE
  6
CONTINUOUS
 62
    30
 10
140.0
 20
120.0
 30
0.0
 11
555.42715899999985
 21
120.0
 31
0.0
  0
LINE
  5
DC
  8
SIZE
  6
CONTINUOUS
 62
    30
 10
140.0
 20
-120.0
 30
0.0
 11
555.42715899999985
 21
-120.0
 31
0.0
  0
LINE
  5
DD
  8
SIZE
  6
CONTINUOUS
 62
    30
 10
535.42715899999985
 20
132.0
 30
0.0
 11
535.42715899999985
 21
144.0
 31
0.0
  0
LINE
  5
DE
  8
SIZE
  6
CONTINUOUS
 62
    30
 10
535.42715899999985
 20
-132.0
 30
0.0
 11
535.42715899999985
 21
-144.0
 31
0.0
  0
LINE
  5
DF
  8
SIZE
  6
CONTINUOUS
 62
    30
 10
535.42715899999985
 20
120.0
 30
0.0
 11
535.42715899999985
 21
-120.0
 31
0.0
  0
CIRCLE
  5
E0
  8
SIZE
  6
CONTINUOUS
 62
    30
 10
535.42715899999985
 20
120.0
 30
0.0
 40
6.0
  0
LINE
  5
E1
  8
SIZE
  6
CONTINUOUS
 62
    30
 10
535.42715899999985
 20
120.0
 30
0.0
 11
535.42715899999985
 21
132.0
 31
0.0
  0
CIRCLE
  5
E2
  8
SIZE
  6
CONTINUOUS
 62
    30
 10
535.42715899999985
 20
-120.0
 30
0.0
 40
6.0
  0
LINE
  5
E3
  8
SIZE
  6
CONTINUOUS
 62
    30
 10
535.42715899999985
 20
-120.0
 30
0.0
 11
535.42715899999985
 21
-132.0
 31
0.0
  0
TEXT
  5
E4
  8
SIZE
  6
CONTINUOUS
 62
    30
 10
510.4271589999999
 20
-110.5371428571428
 30
0.0
 40
64.0
  1
□240
 50
90.0
 41
0.9
 72
     1
 11
510.4271589999999
 21
0.0
 31
0.0
  0
POINT
  5
E7
  8
DEFPOINTS
  6
CONTINUOUS
 62
    30
 10
535.42715899999985
 20
-120.0
 30
0.0
  0
LINE
  5
E8
  8
NOTE
  6
CONTINUOUS
 62
     4
 39
50.0
 10
488.76325400000002
 20
216.180443
 30
0.0
 11
203.33979099999999
 21
216.180443
 31
0.0
  0
TEXT
  5
E9
  8
NOTE
  6
CONTINUOUS
 62
     4
 10
232.25244900000001
 20
240.12415999999999
 30
0.0
 40
64.0
  1
4-φ5
 41
0.9
  0
LINE
  5
EA
  8
NOTE
  6
CONTINUOUS
 62
     4
 10
203.33979099999999
 20
216.180443
 30
0.0
 11
60.0
 21
132.49999999999989
 31
0.0
  0
LINE
  5
EB
  8
NOTE
  6
CONTINUOUS
 62
     4
 10
98.590265999999986
 20
143.02574699999991
 30
0.0
 11
60.0
 21
132.49999999999989
 31
0.0
  0
LINE
  5
EC
  8
NOTE
  6
CONTINUOUS
 62
     4
 10
60.0
 20
132.49999999999989
 30
0.0
 11
88.157277000000008
 21
160.91069799999991
 31
0.0
  0
TEXT
  5
FA
  8
ETC
  6
CONTINUOUS
 62
    61
 10
675.82342478258056
 20
81.083930602119381
 30
0.0
 40
50.0
  1
EX-20RH5
 41
0.9
  0
TEXT
  5
FB
  8
ETC
  6
CONTINUOUS
 62
    61
 10
675.82342478258056
 20
0.0000000925563199
 30
0.0
 40
50.0
  1
EX-20SH5
 41
0.9
  0
TEXT
  5
FC
  8
ETC
  6
CONTINUOUS
 62
    61
 10
673.57022861200392
 20
164.42019321306771
 30
0.0
 40
50.0
  1
EX-20LH5
 41
0.9
  0
TEXT
  5
FD
  8
ETC
  6
CONTINUOUS
 62
    61
 10
675.82342478258056
 20
247.75645791904071
 30
0.0
 40
50.0
  1
EX-20KJ5-BL
 41
0.9
  0
TEXT
  5
FE
  8
ETC
  6
CONTINUOUS
 62
    61
 10
673.57022861200392
 20
325.92630285955909
 30
0.0
 40
50.0
  1
EX-20EH5
 41
0.9
  0
TEXT
  5
FF
  8
ETC
  6
CONTINUOUS
 62
    61
 10
543.50063642511145
 20
508.05553741904572
 30
0.0
 40
64.0
  1
EX-20EH5_3
 41
0.9
  0
TEXT
  5
100
  8
ETC
  6
CONTINUOUS
 62
    61
 10
535.42715842511143
 20
410.0368124190457
 30
0.0
 40
64.0
  1
換気扇
 41
0.9
  0
ENDSEC
  0
EOF
