  0
SECTION
  2
HEADER
  9
$ACADVER
  1
AC1009
  9
$DWGCODEPAGE
  3
dos932
  9
$INSBASE
 10
0.0
 20
0.0
 30
0.0
  9
$EXTMIN
 10
-597.29917774361093
 20
-318.51195103781362
 30
-0.0015257624927045
  9
$EXTMAX
 10
1250.3402828242849
 20
511.73401671896499
 30
0.0022888765696933
  9
$LIMMIN
 10
-2970.0
 20
-2100.0
  9
$LIMMAX
 10
2970.0
 20
2100.0
  9
$ORTHOMODE
 70
     1
  9
$REGENMODE
 70
     1
  9
$FILLMODE
 70
     1
  9
$QTEXTMODE
 70
     0
  9
$MIRRTEXT
 70
     0
  9
$LTSCALE
 40
20.0
  9
$ATTMODE
 70
     1
  9
$TEXTSIZE
 40
64.0
  9
$TRACEWID
 40
0.05
  9
$TEXTSTYLE
  7
STANDARD
  9
$CLAYER
  8
NOTE
  9
$CELTYPE
  6
CONTINUOUS
  9
$CECOLOR
 62
     7
  9
$DIMSCALE
 40
1.0
  9
$DIMASZ
 40
12.0
  9
$DIMEXO
 40
20.0
  9
$DIMDLI
 40
200.0
  9
$DIMRND
 40
0.0
  9
$DIMDLE
 40
0.0
  9
$DIMEXE
 40
20.0
  9
$DIMTP
 40
0.0
  9
$DIMTM
 40
0.0
  9
$DIMTXT
 40
64.0
  9
$DIMCEN
 40
0.09
  9
$DIMTSZ
 40
0.0
  9
$DIMTOL
 70
     0
  9
$DIMLIM
 70
     0
  9
$DIMTIH
 70
     0
  9
$DIMTOH
 70
     0
  9
$DIMSE1
 70
     0
  9
$DIMSE2
 70
     0
  9
$DIMTAD
 70
     1
  9
$DIMZIN
 70
     8
  9
$DIMBLK
  1

  9
$DIMASO
 70
     1
  9
$DIMSHO
 70
     0
  9
$DIMPOST
  1

  9
$DIMAPOST
  1

  9
$DIMALT
 70
     0
  9
$DIMALTD
 70
     2
  9
$DIMALTF
 40
25.399999999999999
  9
$DIMLFAC
 40
1.0
  9
$DIMTOFL
 70
     1
  9
$DIMTVP
 40
0.0
  9
$DIMTIX
 70
     1
  9
$DIMSOXD
 70
     0
  9
$DIMSAH
 70
     0
  9
$DIMBLK1
  1

  9
$DIMBLK2
  1

  9
$DIMSTYLE
  2
STANDARD
  9
$DIMCLRD
 70
     7
  9
$DIMCLRE
 70
     7
  9
$DIMCLRT
 70
     7
  9
$DIMTFAC
 40
1.0
  9
$DIMGAP
 40
25.0
  9
$LUNITS
 70
     2
  9
$LUPREC
 70
     4
  9
$SKETCHINC
 40
0.1
  9
$FILLETRAD
 40
3.0
  9
$AUNITS
 70
     1
  9
$AUPREC
 70
     3
  9
$MENU
  1
ACAD
  9
$ELEVATION
 40
0.0
  9
$PELEVATION
 40
0.0
  9
$THICKNESS
 40
50.0
  9
$LIMCHECK
 70
     0
  9
$CHAMFERA
 40
0.0
  9
$CHAMFERB
 40
0.0
  9
$SKPOLY
 70
     0
  9
$TDCREATE
 40
2453019.62301037
  9
$TDUPDATE
 40
2459017.50653404
  9
$TDINDWG
 40
1.7148316898
  9
$TDUSRTIMER
 40
1.7148316898
  9
$USRTIMER
 70
     1
  9
$ANGBASE
 50
0.0
  9
$ANGDIR
 70
     0
  9
$PDMODE
 70
     3
  9
$PDSIZE
 40
-2.0
  9
$PLINEWID
 40
0.0
  9
$SPLFRAME
 70
     0
  9
$SPLINETYPE
 70
     6
  9
$SPLINESEGS
 70
     8
  9
$SURFTAB1
 70
     6
  9
$SURFTAB2
 70
     6
  9
$SURFTYPE
 70
     6
  9
$SURFU
 70
     6
  9
$SURFV
 70
     6
  9
$UCSNAME
  2

  9
$UCSORG
 10
0.0
 20
0.0
 30
0.0
  9
$UCSXDIR
 10
1.0
 20
0.0
 30
0.0
  9
$UCSYDIR
 10
0.0
 20
1.0
 30
0.0
  9
$PUCSNAME
  2

  9
$PUCSORG
 10
0.0
 20
0.0
 30
0.0
  9
$PUCSXDIR
 10
1.0
 20
0.0
 30
0.0
  9
$PUCSYDIR
 10
0.0
 20
1.0
 30
0.0
  9
$USERI1
 70
     0
  9
$USERI2
 70
     0
  9
$USERI3
 70
     0
  9
$USERI4
 70
     0
  9
$USERI5
 70
     0
  9
$USERR1
 40
20.0
  9
$USERR2
 40
0.0
  9
$USERR3
 40
0.0
  9
$USERR4
 40
0.0
  9
$USERR5
 40
0.0
  9
$WORLDVIEW
 70
     1
  9
$SHADEDGE
 70
     3
  9
$SHADEDIF
 70
    70
  9
$TILEMODE
 70
     1
  9
$MAXACTVP
 70
    48
  9
$PINSBASE
 10
0.0
 20
0.0
 30
0.0
  9
$PLIMCHECK
 70
     0
  9
$PEXTMIN
 10
-100000000000000000000.0
 20
-100000000000000000000.0
 30
-100000000000000000000.0
  9
$PEXTMAX
 10
100000000000000000000.0
 20
100000000000000000000.0
 30
100000000000000000000.0
  9
$PLIMMIN
 10
0.0
 20
0.0
  9
$PLIMMAX
 10
12.0
 20
9.0
  9
$UNITMODE
 70
     0
  9
$VISRETAIN
 70
     0
  9
$PLINEGEN
 70
     0
  9
$PSLTSCALE
 70
     0
  9
$TREEDEPTH
 70
  3020
  9
$ATTDIA
 70
     0
  9
$ATTREQ
 70
     1
  9
$BLIPMODE
 70
     1
  9
$COORDS
 70
     1
  9
$DRAGMODE
 70
     2
  9
$OSMODE
 70
     0
  9
$HANDLING
 70
     0
  9
$HANDSEED
  5
EA9A
  0
ENDSEC
  0
SECTION
  2
TABLES
  0
TABLE
  2
LTYPE
 70
     2
  0
LTYPE
  2
CONTINUOUS
 70
     0
  3
実線
 72
    65
 73
     0
 40
0.0
  0
LTYPE
  2
DASHDOT
 70
     0
  3
____ _ ____ _ ____ _ ____ _ ____ _ ____ _ ____
 72
    65
 73
     4
 40
5.5
 49
4.0
 49
-0.6
 49
0.3
 49
-0.6
  0
ENDTAB
  0
TABLE
  2
LAYER
 70
    12
  0
LAYER
  2
0
 70
     0
 62
     7
  6
CONTINUOUS
  0
LAYER
  2
BASIS
 70
     0
 62
     6
  6
DASHDOT
  0
LAYER
  2
OUTLINE
 70
     0
 62
     3
  6
CONTINUOUS
  0
LAYER
  2
DETAIL
 70
     0
 62
     5
  6
CONTINUOUS
  0
LAYER
  2
SIZE
 70
     0
 62
    30
  6
CONTINUOUS
  0
LAYER
  2
ARRANGE
 70
     0
 62
     1
  6
CONTINUOUS
  0
LAYER
  2
ETC
 70
     0
 62
    61
  6
CONTINUOUS
  0
LAYER
  2
FIX
 70
     0
 62
    11
  6
CONTINUOUS
  0
LAYER
  2
NOTE
 70
     0
 62
     4
  6
CONTINUOUS
  0
LAYER
  2
DEFPOINTS
 70
    64
 62
     7
  6
CONTINUOUS
  0
LAYER
  2
SERVICESPACE
 70
    64
 62
     2
  6
DASHDOT
  0
LAYER
  2
SYMBOLLINE
 70
    64
 62
    15
  6
CONTINUOUS
  0
ENDTAB
  0
TABLE
  2
STYLE
 70
     1
  0
STYLE
  2
STANDARD
 70
     0
 40
64.0
 41
0.9
 50
0.0
 71
     0
 42
64.0
  3
SIMPLEX.shx
  4
BIGFONT.shx
  0
ENDTAB
  0
TABLE
  2
APPID
 70
    17
  0
APPID
  2
ACAD
 70
     0
  0
APPID
  2
AUTOCAD_POSTSCRIPT_FIGURE
 70
     0
  0
APPID
  2
ACAD_EXEMPT_FROM_CAD_STANDARDS
 70
     0
  0
APPID
  2
ACAD_PSEXT
 70
     0
  0
APPID
  2
ACAUTHENVIRON
 70
     0
  0
APPID
  2
GENIUS_GENOENT_13
 70
     0
  0
APPID
  2
GENIUS_GENCFG_13
 70
     0
  0
APPID
  2
GENIUS_GENCFG0_13
 70
     0
  0
APPID
  2
GENIUS_GENCFG1_13
 70
     0
  0
APPID
  2
GENIUS_GENCFG2_13
 70
     0
  0
APPID
  2
GENIUS_GENCFG3_13
 70
     0
  0
APPID
  2
GENIUS_GENCFG4_13
 70
     0
  0
APPID
  2
GENIUS_GEVCFG0_13
 70
     0
  0
APPID
  2
CONTENTBLOCKICON
 70
     0
  0
APPID
  2
CONTENTBLOCKDESCRIPTION
 70
     0
  0
APPID
  2
ACAD_NAV_VCDISPLAY
 70
     0
  0
APPID
  2
ACAD_MLEADERVER
 70
     0
  0
ENDTAB
  0
TABLE
  2
DIMSTYLE
 70
     1
  0
DIMSTYLE
  2
STANDARD
 70
     0
  3

  4

  5
_ORIGIN
  6

  7

 40
1.0
 41
12.0
 42
20.0
 43
200.0
 44
20.0
 45
0.0
 46
0.0
 47
0.0
 48
0.0
140
64.0
141
0.09
142
0.0
143
25.399999999999999
144
1.0
145
0.0
146
1.0
147
25.0
 71
     0
 72
     0
 73
     0
 74
     0
 75
     0
 76
     0
 77
     1
 78
     8
170
     0
171
     2
172
     1
173
     0
174
     1
175
     0
176
     7
177
     7
178
     7
  0
ENDTAB
  0
TABLE
  2
VIEW
 70
     1
  0
VIEW
  2
ALL
 70
     0
 40
4282.6198079999986
 10
0.0
 20
41.309904000000003
 41
5940.0
 11
0.0
 21
0.0
 31
1.0
 12
0.0
 22
0.0
 32
0.0
 42
50.0
 43
0.0
 44
0.0
 50
0.0
 71
     0
  0
ENDTAB
  0
TABLE
  2
UCS
 70
     0
  0
ENDTAB
  0
TABLE
  2
VPORT
 70
     1
  0
VPORT
  2
*ACTIVE
 70
     0
 10
0.0
 20
0.0
 11
1.0
 21
1.0
 12
326.52055254033701
 22
96.61103284057566
 13
0.0
 23
0.0
 14
1.0
 24
1.0
 15
0.0
 25
0.0
 16
0.0
 26
0.0
 36
1.0
 17
0.0
 27
0.0
 37
0.0
 40
708.20862659591296
 41
2.1592039800995031
 42
50.0
 43
0.0
 44
0.0
 50
0.0
 51
0.0
 71
     0
 72
  1000
 73
     1
 74
     3
 75
     0
 76
     0
 77
     0
 78
     0
  0
ENDTAB
  0
ENDSEC
  0
SECTION
  2
BLOCKS
  0
BLOCK
  8
0
  2
_ORIGIN
 70
     0
 10
0.0
 20
0.0
 30
0.0
  3
_ORIGIN
  1
_ORIGIN
  0
CIRCLE
  8
0
  6
CONTINUOUS
 62
     7
 10
0.0
 20
0.0
 30
0.0
 40
0.5
  0
LINE
  8
0
  6
CONTINUOUS
 62
     7
 10
0.0
 20
0.0
 30
0.0
 11
-1.0
 21
0.0
 31
0.0
  0
ENDBLK
  8
0
  0
ENDSEC
  0
SECTION
  2
ENTITIES
  0
CIRCLE
  8
ARRANGE
  6
CONTINUOUS
 62
     1
 10
0.0
 20
0.0
 30
0.0
 40
40.0
  0
POINT
  8
ARRANGE
  6
CONTINUOUS
 62
     1
 10
0.0
 20
0.0
 30
0.0
  0
LINE
  8
BASIS
  6
DASHDOT
 62
     6
 10
0.0
 20
200.40224599999991
 30
0.0
 11
0.0
 21
-232.92935700000001
 31
0.0
  0
LINE
  8
DETAIL
  6
CONTINUOUS
 62
     5
 10
-142.0
 20
148.0
 30
0.0
 11
142.0
 21
148.0
 31
0.0
  0
LINE
  8
DETAIL
  6
CONTINUOUS
 62
     5
 10
148.0
 20
110.0
 30
0.0
 11
148.0
 21
-110.0
 31
0.0
  0
LINE
  8
DETAIL
  6
CONTINUOUS
 62
     5
 10
148.0
 20
142.0
 30
0.0
 11
148.0
 21
-166.0
 31
0.0
  0
LINE
  8
DETAIL
  6
CONTINUOUS
 62
     5
 10
148.0
 20
142.0
 30
0.0
 11
148.0
 21
-166.0
 31
0.0
  0
LINE
  8
DETAIL
  6
CONTINUOUS
 62
     5
 10
148.0
 20
110.0
 30
0.0
 11
148.0
 21
-110.0
 31
0.0
  0
ARC
  8
DETAIL
  6
CONTINUOUS
 62
     5
 10
142.0
 20
142.0
 30
0.0
 40
6.0
 50
0.0
 51
90.0
  0
LINE
  8
DETAIL
  6
CONTINUOUS
 62
     5
 10
-148.0
 20
142.0
 30
0.0
 11
-148.0
 21
-166.0
 31
0.0
  0
ARC
  8
DETAIL
  6
CONTINUOUS
 62
     5
 10
-142.0
 20
142.0
 30
0.0
 40
6.0
 50
90.0
 51
180.0
  0
LINE
  8
SIZE
  6
CONTINUOUS
 62
    30
 10
148.0
 20
162.0
 30
0.0
 11
148.0
 21
400.03999599999997
 31
0.0
  0
LINE
  8
SIZE
  6
CONTINUOUS
 62
    30
 10
-148.0
 20
162.0
 30
0.0
 11
-148.0
 21
400.03999599999997
 31
0.0
  0
LINE
  8
SIZE
  6
CONTINUOUS
 62
    30
 10
136.0
 20
380.03999599999997
 30
0.0
 11
-136.0
 21
380.03999599999997
 31
0.0
  0
CIRCLE
  8
SIZE
  6
CONTINUOUS
 62
    30
 10
148.0
 20
380.03999599999997
 30
0.0
 40
6.0
  0
LINE
  8
SIZE
  6
CONTINUOUS
 62
    30
 10
148.0
 20
380.03999599999997
 30
0.0
 11
136.0
 21
380.03999599999997
 31
0.0
  0
CIRCLE
  8
SIZE
  6
CONTINUOUS
 62
    30
 10
-148.0
 20
380.03999599999997
 30
0.0
 40
6.0
  0
LINE
  8
SIZE
  6
CONTINUOUS
 62
    30
 10
-148.0
 20
380.03999599999997
 30
0.0
 11
-136.0
 21
380.03999599999997
 31
0.0
  0
TEXT
  8
SIZE
  6
CONTINUOUS
 62
    30
 10
-72.685714285714297
 20
405.03999599999997
 30
0.0
 40
64.0
  1
296
 41
0.9
 72
     1
 11
0.0
 21
405.03999599999997
 31
0.0
  0
LINE
  8
SIZE
  6
CONTINUOUS
 62
    30
 10
-162.0
 20
148.0
 30
0.0
 11
-508.26018530257522
 21
148.0
 31
0.0
  0
LINE
  8
SIZE
  6
CONTINUOUS
 62
    30
 10
-154.68341849526999
 20
-172.0
 30
0.0
 11
-508.26018530257522
 21
-172.0
 31
0.0
  0
LINE
  8
SIZE
  6
CONTINUOUS
 62
    30
 10
-488.26018530257522
 20
136.0
 30
0.0
 11
-488.26018530257522
 21
-160.0
 31
0.0
  0
CIRCLE
  8
SIZE
  6
CONTINUOUS
 62
    30
 10
-488.26018530257522
 20
148.0
 30
0.0
 40
6.0
  0
LINE
  8
SIZE
  6
CONTINUOUS
 62
    30
 10
-488.26018530257522
 20
148.0
 30
0.0
 11
-488.26018530257522
 21
136.0
 31
0.0
  0
CIRCLE
  8
SIZE
  6
CONTINUOUS
 62
    30
 10
-488.26018530257522
 20
-172.0
 30
0.0
 40
6.0
  0
LINE
  8
SIZE
  6
CONTINUOUS
 62
    30
 10
-488.26018530257522
 20
-172.0
 30
0.0
 11
-488.26018530257522
 21
-160.0
 31
0.0
  0
TEXT
  8
SIZE
  6
CONTINUOUS
 62
    30
 10
-513.26018530257534
 20
-86.05714285714285
 30
0.0
 40
64.0
  1
320
 50
90.0
 41
0.9
 72
     1
 11
-513.26018530257534
 21
-12.0
 31
0.0
  0
LINE
  8
NOTE
  6
CONTINUOUS
 62
     4
 10
204.02251993186769
 20
-237.94463994353899
 30
0.0
 11
152.39502369076391
 21
-111.16618855105111
 31
0.0
  0
LINE
  8
NOTE
  6
CONTINUOUS
 62
     4
 10
323.82909893186769
 20
-237.94463994353899
 30
0.0
 11
204.02251993186769
 21
-237.94463994353899
 31
0.0
  0
TEXT
  8
NOTE
  6
CONTINUOUS
 62
     4
 10
221.7892849318678
 20
-216.65439394353919
 30
0.0
 40
64.0
  1
EL
 41
0.9
  0
LINE
  8
NOTE
  6
CONTINUOUS
 62
     4
 10
148.0
 20
-120.0
 30
0.0
 11
148.0
 21
-80.0
 31
0.0
  0
LINE
  8
OUTLINE
  6
CONTINUOUS
 62
     3
 10
-142.0
 20
148.0
 30
0.0
 11
142.0
 21
148.0
 31
0.0
  0
LINE
  8
OUTLINE
  6
CONTINUOUS
 62
     3
 10
148.0
 20
110.0
 30
0.0
 11
148.0
 21
-110.0
 31
0.0
  0
LINE
  8
OUTLINE
  6
CONTINUOUS
 62
     3
 10
148.0
 20
142.0
 30
0.0
 11
148.0
 21
-166.0
 31
0.0
  0
LINE
  8
OUTLINE
  6
CONTINUOUS
 62
     3
 10
148.0
 20
142.0
 30
0.0
 11
148.0
 21
-166.0
 31
0.0
  0
LINE
  8
OUTLINE
  6
CONTINUOUS
 62
     3
 10
148.0
 20
110.0
 30
0.0
 11
148.0
 21
-110.0
 31
0.0
  0
ARC
  8
OUTLINE
  6
CONTINUOUS
 62
     3
 10
142.0
 20
142.0
 30
0.0
 40
6.0
 50
0.0
 51
90.0
  0
LINE
  8
OUTLINE
  6
CONTINUOUS
 62
     3
 10
-148.0
 20
142.0
 30
0.0
 11
-148.0
 21
-166.0
 31
0.0
  0
ARC
  8
OUTLINE
  6
CONTINUOUS
 62
     3
 10
-142.0
 20
142.0
 30
0.0
 40
6.0
 50
90.0
 51
180.0
  0
LINE
  8
DETAIL
  6
CONTINUOUS
 62
     5
 10
120.0
 20
120.0
 30
0.0
 11
-120.0
 21
120.0
 31
0.0
  0
LINE
  8
DETAIL
  6
CONTINUOUS
 62
     5
 10
120.0
 20
-120.0
 30
0.0
 11
-120.0
 21
-120.0
 31
0.0
  0
LINE
  8
DETAIL
  6
CONTINUOUS
 62
     5
 10
-120.0
 20
120.0
 30
0.0
 11
-120.0
 21
-120.0
 31
0.0
  0
LINE
  8
DETAIL
  6
CONTINUOUS
 62
     5
 10
120.0
 20
120.0
 30
0.0
 11
120.0
 21
-120.0
 31
0.0
  0
LINE
  8
DETAIL
  6
CONTINUOUS
 62
     5
 10
120.0
 20
100.0
 30
0.0
 11
-120.0
 21
100.0
 31
0.0
  0
LINE
  8
DETAIL
  6
CONTINUOUS
 62
     5
 10
120.0
 20
26.700000000000049
 30
0.0
 11
-120.0
 21
26.700000000000049
 31
0.0
  0
LINE
  8
DETAIL
  6
CONTINUOUS
 62
     5
 10
120.0
 20
-46.599999999999909
 30
0.0
 11
-120.0
 21
-46.599999999999909
 31
0.0
  0
CIRCLE
  8
FIX
  6
CONTINUOUS
 62
    11
 10
-60.0
 20
132.5
 30
0.0
 40
2.5
  0
CIRCLE
  8
DETAIL
  6
CONTINUOUS
 62
     5
 10
-60.0
 20
132.5
 30
0.0
 40
2.5
  0
LINE
  8
BASIS
  6
DASHDOT
 62
     6
 10
-60.0
 20
152.5
 30
0.0
 11
-60.0
 21
112.5
 31
0.0
  0
LINE
  8
BASIS
  6
DASHDOT
 62
     6
 10
-80.0
 20
132.5
 30
0.0
 11
-40.0
 21
132.5
 31
0.0
  0
CIRCLE
  8
FIX
  6
CONTINUOUS
 62
    11
 10
60.0
 20
132.5
 30
0.0
 40
2.5
  0
LINE
  8
BASIS
  6
DASHDOT
 62
     6
 10
60.0
 20
152.5
 30
0.0
 11
60.0
 21
112.5
 31
0.0
  0
LINE
  8
BASIS
  6
DASHDOT
 62
     6
 10
80.0
 20
132.5
 30
0.0
 11
40.0
 21
132.5
 31
0.0
  0
CIRCLE
  8
DETAIL
  6
CONTINUOUS
 62
     5
 10
60.0
 20
132.5
 30
0.0
 40
2.5
  0
CIRCLE
  8
FIX
  6
CONTINUOUS
 62
    11
 10
-60.0
 20
-132.4999999999998
 30
0.0
 40
2.5
  0
LINE
  8
BASIS
  6
DASHDOT
 62
     6
 10
-60.0
 20
-152.5
 30
0.0
 11
-60.0
 21
-112.5
 31
0.0
  0
LINE
  8
BASIS
  6
DASHDOT
 62
     6
 10
-80.0
 20
-132.4999999999998
 30
0.0
 11
-40.0
 21
-132.4999999999998
 31
0.0
  0
CIRCLE
  8
DETAIL
  6
CONTINUOUS
 62
     5
 10
-60.0
 20
-132.4999999999998
 30
0.0
 40
2.5
  0
CIRCLE
  8
FIX
  6
CONTINUOUS
 62
    11
 10
60.0
 20
-132.4999999999998
 30
0.0
 40
2.5
  0
CIRCLE
  8
DETAIL
  6
CONTINUOUS
 62
     5
 10
60.0
 20
-132.4999999999998
 30
0.0
 40
2.5
  0
LINE
  8
BASIS
  6
DASHDOT
 62
     6
 10
60.0
 20
-152.5
 30
0.0
 11
60.0
 21
-112.5
 31
0.0
  0
LINE
  8
BASIS
  6
DASHDOT
 62
     6
 10
80.0
 20
-132.4999999999998
 30
0.0
 11
40.0
 21
-132.4999999999998
 31
0.0
  0
LINE
  8
SIZE
  6
CONTINUOUS
 62
    30
 10
247.78437999999991
 20
0.0
 30
0.0
 11
483.49506310041193
 21
0.0
 31
0.0
  0
LINE
  8
SIZE
  6
CONTINUOUS
 62
    30
 10
197.7413989470997
 20
-100.0
 30
0.0
 11
483.49506310041193
 21
-100.0
 31
0.0
  0
LINE
  8
SIZE
  6
CONTINUOUS
 62
    30
 10
463.49506310041193
 20
-12.0
 30
0.0
 11
463.49506310041193
 21
-88.0
 31
0.0
  0
LINE
  8
SIZE
  6
CONTINUOUS
 62
    30
 10
463.49506310041193
 20
-318.39196900000002
 30
0.0
 11
463.49506310041193
 21
-100.0
 31
0.0
  0
TEXT
  8
SIZE
  6
CONTINUOUS
 62
    30
 10
438.49506310041193
 20
-293.39196957142849
 30
0.0
 40
64.0
  1
100
 50
90.0
 41
0.9
 72
     1
 11
438.49506310041193
 21
-224.82054099999999
 31
0.0
  0
CIRCLE
  8
SIZE
  6
CONTINUOUS
 62
    30
 10
463.49506310041193
 20
0.0
 30
0.0
 40
6.0
  0
LINE
  8
SIZE
  6
CONTINUOUS
 62
    30
 10
463.49506310041193
 20
0.0
 30
0.0
 11
463.49506310041193
 21
-12.0
 31
0.0
  0
CIRCLE
  8
SIZE
  6
CONTINUOUS
 62
    30
 10
463.49506310041193
 20
-100.0
 30
0.0
 40
6.0
  0
LINE
  8
SIZE
  6
CONTINUOUS
 62
    30
 10
463.49506310041193
 20
-100.0
 30
0.0
 11
463.49506310041193
 21
-88.0
 31
0.0
  0
LINE
  8
SIZE
  6
CONTINUOUS
 62
    30
 10
-100.0
 20
132.5
 30
0.0
 11
-389.22204677579782
 21
132.5
 31
0.0
  0
LINE
  8
SIZE
  6
CONTINUOUS
 62
    30
 10
-100.0
 20
-132.4999999999998
 30
0.0
 11
-389.22204677579782
 21
-132.4999999999998
 31
0.0
  0
LINE
  8
SIZE
  6
CONTINUOUS
 62
    30
 10
-369.22204677579782
 20
120.5
 30
0.0
 11
-369.22204677579782
 21
-120.5
 31
0.0
  0
CIRCLE
  8
SIZE
  6
CONTINUOUS
 62
    30
 10
-369.22204677579782
 20
132.5
 30
0.0
 40
6.0
  0
LINE
  8
SIZE
  6
CONTINUOUS
 62
    30
 10
-369.22204677579782
 20
132.5
 30
0.0
 11
-369.22204677579782
 21
120.5
 31
0.0
  0
CIRCLE
  8
SIZE
  6
CONTINUOUS
 62
    30
 10
-369.22204677579782
 20
-132.4999999999998
 30
0.0
 40
6.0
  0
LINE
  8
SIZE
  6
CONTINUOUS
 62
    30
 10
-369.22204677579782
 20
-132.4999999999998
 30
0.0
 11
-369.22204677579782
 21
-120.5
 31
0.0
  0
TEXT
  8
SIZE
  6
CONTINUOUS
 62
    30
 10
-394.22204677579782
 20
-74.05714285714285
 30
0.0
 40
64.0
  1
265
 50
90.0
 41
0.9
 72
     1
 11
-394.22204677579782
 21
0.0
 31
0.0
  0
LINE
  8
SIZE
  6
CONTINUOUS
 62
    30
 10
60.0
 20
168.0
 30
0.0
 11
60.0
 21
282.45992100000012
 31
0.0
  0
LINE
  8
SIZE
  6
CONTINUOUS
 62
    30
 10
-60.0
 20
168.0
 30
0.0
 11
-60.0
 21
282.45992100000012
 31
0.0
  0
LINE
  8
SIZE
  6
CONTINUOUS
 62
    30
 10
72.0
 20
262.45992099999989
 30
0.0
 11
84.0
 21
262.45992099999989
 31
0.0
  0
LINE
  8
SIZE
  6
CONTINUOUS
 62
    30
 10
-72.0
 20
262.45992099999989
 30
0.0
 11
-84.0
 21
262.45992099999989
 31
0.0
  0
LINE
  8
SIZE
  6
CONTINUOUS
 62
    30
 10
60.0
 20
262.45992099999989
 30
0.0
 11
-60.0
 21
262.45992099999989
 31
0.0
  0
CIRCLE
  8
SIZE
  6
CONTINUOUS
 62
    30
 10
60.0
 20
262.45992099999989
 30
0.0
 40
6.0
  0
LINE
  8
SIZE
  6
CONTINUOUS
 62
    30
 10
60.0
 20
262.45992099999989
 30
0.0
 11
72.0
 21
262.45992099999989
 31
0.0
  0
CIRCLE
  8
SIZE
  6
CONTINUOUS
 62
    30
 10
-60.0
 20
262.45992099999989
 30
0.0
 40
6.0
  0
LINE
  8
SIZE
  6
CONTINUOUS
 62
    30
 10
-60.0
 20
262.45992099999989
 30
0.0
 11
-72.0
 21
262.45992099999989
 31
0.0
  0
TEXT
  8
SIZE
  6
CONTINUOUS
 62
    30
 10
-68.571428571428569
 20
287.45992099999989
 30
0.0
 40
64.0
  1
120
 41
0.9
 72
     1
 11
0.0
 21
287.45992099999989
 31
0.0
  0
LINE
  8
NOTE
  6
CONTINUOUS
 62
     4
 10
-596.91018573930978
 20
216.180443
 30
0.0
 11
-203.33979099999999
 21
216.180443
 31
0.0
  0
TEXT
  8
NOTE
  6
CONTINUOUS
 62
     4
 10
-581.14387757142856
 20
240.12415999999999
 30
0.0
 40
64.0
  1
4-φ5×8
 41
0.9
  0
LINE
  8
NOTE
  6
CONTINUOUS
 62
     4
 10
-203.33979099999999
 20
216.180443
 30
0.0
 11
-70.330620665075799
 21
138.60558669993199
 31
0.0
  0
LINE
  8
NOTE
  6
CONTINUOUS
 62
     4
 10
-80.0
 20
120.0
 30
0.0
 11
-80.0
 21
123.29489709404019
 31
0.0
  0
LINE
  8
DETAIL
  6
CONTINUOUS
 62
     5
 10
-81.996907329720898
 20
124.2933507589005
 30
0.0
 11
-80.0
 21
124.2933507589005
 31
0.0
  0
LINE
  8
DETAIL
  6
CONTINUOUS
 62
     5
 10
-82.995360994581006
 20
123.29489709404019
 30
0.0
 11
-80.0
 21
123.29489709404019
 31
0.0
  0
LINE
  8
DETAIL
  6
CONTINUOUS
 62
     5
 10
-82.995360994581006
 20
120.0
 30
0.0
 11
-82.995360994581006
 21
123.29489709404019
 31
0.0
  0
LINE
  8
DETAIL
  6
CONTINUOUS
 62
     5
 10
-81.996907329720898
 20
120.0
 30
0.0
 11
-81.996907329720898
 21
124.2933507589005
 31
0.0
  0
LINE
  8
DETAIL
  6
CONTINUOUS
 62
     5
 10
-81.996941141601155
 20
124.29331486034199
 30
0.0
 11
-82.995288137322405
 21
123.294967864621
 31
0.0
  0
LINE
  8
DETAIL
  6
CONTINUOUS
 62
     5
 10
-78.003092670279102
 20
124.2933507589005
 30
0.0
 11
-80.0
 21
124.2933507589005
 31
0.0
  0
LINE
  8
DETAIL
  6
CONTINUOUS
 62
     5
 10
-77.004639005418767
 20
123.29489709404019
 30
0.0
 11
-80.0
 21
123.29489709404019
 31
0.0
  0
LINE
  8
DETAIL
  6
CONTINUOUS
 62
     5
 10
-77.004639005418767
 20
120.0
 30
0.0
 11
-77.004639005418767
 21
123.29489709404019
 31
0.0
  0
LINE
  8
DETAIL
  6
CONTINUOUS
 62
     5
 10
-78.003092670279102
 20
120.0
 30
0.0
 11
-78.003092670279102
 21
124.2933507589005
 31
0.0
  0
LINE
  8
DETAIL
  6
CONTINUOUS
 62
     5
 10
-78.003057604915739
 20
124.29316403962051
 30
0.0
 11
-77.00471060919449
 21
123.294817043899
 31
0.0
  0
LINE
  8
DETAIL
  6
CONTINUOUS
 62
     5
 10
174.62926089044001
 20
-214.79985154007591
 30
0.0
 11
174.62926089044001
 21
-202.8184075617514
 31
0.0
  0
LINE
  8
DETAIL
  6
CONTINUOUS
 62
     5
 10
187.40946780065269
 20
-212.5002909842965
 30
0.0
 11
187.40946780065269
 21
-205.11796811753081
 31
0.0
  0
LINE
  8
DETAIL
  6
CONTINUOUS
 62
     5
 10
185.91159286234691
 20
-203.5235533099958
 30
0.0
 11
174.62926089044001
 21
-202.8184075617514
 31
0.0
  0
LINE
  8
DETAIL
  6
CONTINUOUS
 62
     5
 10
161.7638951808826
 20
-206.2930263154658
 30
0.0
 11
174.62926089044001
 21
-206.2930263154658
 31
0.0
  0
ARC
  8
DETAIL
  6
CONTINUOUS
 62
     5
 10
185.81194193687591
 20
-205.11796811753081
 30
0.0
 40
1.5975258637765479
 50
0.0
 51
86.423665624995337
  0
LINE
  8
DETAIL
  6
CONTINUOUS
 62
     5
 10
185.81194193687591
 20
-202.85872537473679
 30
0.0
 11
185.81194193687591
 21
-200.4221187660869
 31
0.0
  0
LINE
  8
DETAIL
  6
CONTINUOUS
 62
     5
 10
177.8243126179932
 20
-202.16785411629189
 30
0.0
 11
177.8243126179932
 21
-200.42211876608641
 31
0.0
  0
LINE
  8
DETAIL
  6
CONTINUOUS
 62
     5
 10
179.77698828047369
 20
-186.84314892398561
 30
0.0
 11
183.8592662743954
 21
-186.84314892398561
 31
0.0
  0
LINE
  8
DETAIL
  6
CONTINUOUS
 62
     5
 10
185.81194193687591
 20
-200.4221187660869
 30
0.0
 11
184.25591221865309
 21
-187.19586616119389
 31
0.0
  0
LINE
  8
DETAIL
  6
CONTINUOUS
 62
     5
 10
177.8243126179932
 20
-200.42211876608641
 30
0.0
 11
179.38034233621559
 21
-187.19586616119389
 31
0.0
  0
ARC
  8
DETAIL
  6
CONTINUOUS
 62
     5
 10
186.61070486876409
 20
-202.85872537473679
 30
0.0
 40
0.7987629318882462
 50
180.0
 51
250.528779365514
  0
ARC
  8
DETAIL
  6
CONTINUOUS
 62
     5
 10
177.02554968610499
 20
-202.16785411629189
 30
0.0
 40
0.7987629318882143
 50
266.42366562499529
 51
0.0
  0
ARC
  8
DETAIL
  6
CONTINUOUS
 62
     5
 10
183.8592662743954
 20
-187.2425303899299
 30
0.0
 40
0.3993814659441091
 50
6.7098368077460409
 51
90.0
  0
ARC
  8
DETAIL
  6
CONTINUOUS
 62
     5
 10
179.77698828047369
 20
-187.2425303899299
 30
0.0
 40
0.3993814659442887
 50
90.0
 51
173.29016319225391
  0
LINE
  8
DETAIL
  6
CONTINUOUS
 62
     5
 10
179.23389426250151
 20
-188.44067478776239
 30
0.0
 11
181.8181272774344
 21
-188.44067478776239
 31
0.0
  0
LINE
  8
DETAIL
  6
CONTINUOUS
 62
     5
 10
179.09293609805081
 20
-189.63881918559451
 30
0.0
 11
181.8181272774344
 21
-189.63881918559451
 31
0.0
  0
LINE
  8
DETAIL
  6
CONTINUOUS
 62
     5
 10
181.8181272774344
 20
-190.83696358342701
 30
0.0
 11
184.68427662126899
 21
-190.83696358342701
 31
0.0
  0
LINE
  8
DETAIL
  6
CONTINUOUS
 62
     5
 10
181.8181272774344
 20
-192.03510798125939
 30
0.0
 11
184.82523478571969
 21
-192.03510798125939
 31
0.0
  0
LINE
  8
DETAIL
  6
CONTINUOUS
 62
     5
 10
178.6700616046983
 20
-193.23325237909191
 30
0.0
 11
181.8181272774344
 21
-193.23325237909191
 31
0.0
  0
LINE
  8
DETAIL
  6
CONTINUOUS
 62
     5
 10
178.52910344024761
 20
-194.4313967769244
 30
0.0
 11
181.8181272774344
 21
-194.4313967769244
 31
0.0
  0
LINE
  8
DETAIL
  6
CONTINUOUS
 62
     5
 10
181.8181272774344
 20
-195.62954117475741
 30
0.0
 11
185.24810927907279
 21
-195.62954117475741
 31
0.0
  0
LINE
  8
DETAIL
  6
CONTINUOUS
 62
     5
 10
181.8181272774344
 20
-196.82768557258939
 30
0.0
 11
185.3890674435238
 21
-196.82768557258939
 31
0.0
  0
LINE
  8
DETAIL
  6
CONTINUOUS
 62
     5
 10
178.10622894689459
 20
-198.02582997042191
 30
0.0
 11
181.8181272774344
 21
-198.02582997042191
 31
0.0
  0
LINE
  8
DETAIL
  6
CONTINUOUS
 62
     5
 10
177.96527078244389
 20
-199.22397436825389
 30
0.0
 11
181.8181272774344
 21
-199.22397436825389
 31
0.0
  0
LINE
  8
DETAIL
  6
CONTINUOUS
 62
     5
 10
182.6168902093232
 20
-196.82768557258939
 30
0.0
 11
182.6168902093232
 21
-195.62954117475741
 31
0.0
  0
LINE
  8
DETAIL
  6
CONTINUOUS
 62
     5
 10
181.01936434554639
 20
-199.22397436825389
 30
0.0
 11
181.01936434554639
 21
-198.02582997042191
 31
0.0
  0
LINE
  8
DETAIL
  6
CONTINUOUS
 62
     5
 10
182.6168902093232
 20
-192.03510798125939
 30
0.0
 11
182.6168902093232
 21
-190.83696358342701
 31
0.0
  0
LINE
  8
DETAIL
  6
CONTINUOUS
 62
     5
 10
181.01936434554639
 20
-189.63881918559451
 30
0.0
 11
181.01936434554639
 21
-188.44067478776239
 31
0.0
  0
LINE
  8
DETAIL
  6
CONTINUOUS
 62
     5
 10
181.01936434554639
 20
-194.4313967769244
 30
0.0
 11
181.01936434554639
 21
-193.23325237909191
 31
0.0
  0
LINE
  8
DETAIL
  6
CONTINUOUS
 62
     5
 10
174.62926089044001
 20
-205.21469635741639
 30
0.0
 11
183.4156531412109
 21
-205.21469635741639
 31
0.0
  0
LINE
  8
DETAIL
  6
CONTINUOUS
 62
     5
 10
183.4156531412109
 20
-212.40356274441089
 30
0.0
 11
183.4156531412109
 21
-205.21469635741639
 31
0.0
  0
LINE
  8
DETAIL
  6
CONTINUOUS
 62
     5
 10
183.01627167526701
 20
-186.84314892398561
 30
0.0
 11
183.01627167526701
 21
-186.75277685922771
 31
0.0
  0
LINE
  8
DETAIL
  6
CONTINUOUS
 62
     5
 10
180.61998287960199
 20
-186.84314892398561
 30
0.0
 11
180.61998287960199
 21
-186.75277685922771
 31
0.0
  0
LINE
  8
DETAIL
  6
CONTINUOUS
 62
     5
 10
174.62926089044001
 20
-214.79985154007591
 30
0.0
 11
185.91159286234691
 21
-214.0947057918315
 31
0.0
  0
LINE
  8
DETAIL
  6
CONTINUOUS
 62
     5
 10
161.7638951808826
 20
-211.32523278636151
 30
0.0
 11
174.62926089044001
 21
-211.32523278636151
 31
0.0
  0
CIRCLE
  8
DETAIL
  6
CONTINUOUS
 62
     5
 10
165.2837345873468
 20
-208.80912955091341
 30
0.0
 40
1.238082544426836
  0
CIRCLE
  8
DETAIL
  6
CONTINUOUS
 62
     5
 10
165.2837345873468
 20
-208.80912955091341
 30
0.0
 40
1.5575877171821439
  0
ARC
  8
DETAIL
  6
CONTINUOUS
 62
     5
 10
185.81194193687591
 20
-212.5002909842965
 30
0.0
 40
1.5975258637766561
 50
273.57633437500471
 51
0.0
  0
LINE
  8
DETAIL
  6
CONTINUOUS
 62
     5
 10
174.62926089044001
 20
-212.40356274441089
 30
0.0
 11
183.4156531412109
 21
-212.40356274441089
 31
0.0
  0
LINE
  8
DETAIL
  6
CONTINUOUS
 62
     5
 10
180.61998287960199
 20
-186.84314892398561
 30
0.0
 11
180.61998287960199
 21
-172.30098249730139
 31
0.0
  0
LINE
  8
DETAIL
  6
CONTINUOUS
 62
     5
 10
183.01627167526701
 20
-186.84314892398561
 30
0.0
 11
183.01627167526701
 21
-173.02655219856069
 31
0.0
  0
ARC
  8
DETAIL
  6
CONTINUOUS
 62
     5
 10
165.84286863966921
 20
-208.80912955091341
 30
0.0
 40
4.7925775913297004
 50
148.33175674645881
 51
211.66824325354119
  0
LINE
  8
DETAIL
  6
CONTINUOUS
 62
     5
 10
161.7638951808826
 20
-211.32523278636151
 30
0.0
 11
161.7638951808826
 21
-206.2930263154658
 31
0.0
  0
LINE
  8
DETAIL
  6
CONTINUOUS
 62
     5
 10
178.44859238040999
 20
-170.3355781033606
 30
0.0
 11
179.80875431268529
 21
-169.99240649245669
 31
0.0
  0
LINE
  8
DETAIL
  6
CONTINUOUS
 62
     5
 10
179.80875431268529
 20
-169.99240649245669
 30
0.0
 11
181.0536907405685
 21
-169.93479374026489
 31
0.0
  0
LINE
  8
DETAIL
  6
CONTINUOUS
 62
     5
 10
181.0536907405685
 20
-169.93479374026489
 30
0.0
 11
181.0536907405685
 21
-169.93479374026489
 31
0.0
  0
LINE
  8
DETAIL
  6
CONTINUOUS
 62
     5
 10
181.0536907405685
 20
-169.93479374026489
 30
0.0
 11
182.10825459597751
 21
-170.30050947160001
 31
0.0
  0
LINE
  8
DETAIL
  6
CONTINUOUS
 62
     5
 10
182.10825459597751
 20
-170.30050947160001
 30
0.0
 11
183.05761255607101
 21
-170.63616637570021
 31
0.0
  0
LINE
  8
DETAIL
  6
CONTINUOUS
 62
     5
 10
183.05761255607101
 20
-170.63616637570021
 30
0.0
 11
183.05761255607101
 21
-170.63616637570021
 31
0.0
  0
LINE
  8
DETAIL
  6
CONTINUOUS
 62
     5
 10
183.05761255607101
 20
-170.63616637570021
 30
0.0
 11
184.0044656138939
 21
-170.4933869463398
 31
0.0
  0
LINE
  8
DETAIL
  6
CONTINUOUS
 62
     5
 10
184.0044656138939
 20
-170.4933869463398
 30
0.0
 11
184.96133828079431
 21
-170.03498983103279
 31
0.0
  0
LINE
  8
DETAIL
  6
CONTINUOUS
 62
     5
 10
178.44859238040999
 20
-172.73186689902559
 30
0.0
 11
179.80875431268529
 21
-172.38869528812171
 31
0.0
  0
LINE
  8
DETAIL
  6
CONTINUOUS
 62
     5
 10
179.80875431268529
 20
-172.38869528812171
 30
0.0
 11
181.0536907405685
 21
-172.33108253592951
 31
0.0
  0
LINE
  8
DETAIL
  6
CONTINUOUS
 62
     5
 10
181.0536907405685
 20
-172.33108253592951
 30
0.0
 11
181.0536907405685
 21
-172.33108253592951
 31
0.0
  0
LINE
  8
DETAIL
  6
CONTINUOUS
 62
     5
 10
181.0536907405685
 20
-172.33108253592951
 30
0.0
 11
182.10825459597751
 21
-172.696798267265
 31
0.0
  0
LINE
  8
DETAIL
  6
CONTINUOUS
 62
     5
 10
182.10825459597751
 20
-172.696798267265
 30
0.0
 11
183.05761255607101
 21
-173.03245517136469
 31
0.0
  0
LINE
  8
DETAIL
  6
CONTINUOUS
 62
     5
 10
183.05761255607101
 20
-173.03245517136469
 30
0.0
 11
183.05761255607101
 21
-173.03245517136469
 31
0.0
  0
LINE
  8
DETAIL
  6
CONTINUOUS
 62
     5
 10
183.05761255607101
 20
-173.03245517136469
 30
0.0
 11
184.0044656138939
 21
-172.88967574200481
 31
0.0
  0
LINE
  8
DETAIL
  6
CONTINUOUS
 62
     5
 10
184.0044656138939
 20
-172.88967574200481
 30
0.0
 11
184.96133828079431
 21
-172.4312786266978
 31
0.0
  0
LINE
  8
DETAIL
  6
CONTINUOUS
 62
     5
 10
165.57639241808829
 20
-102.6440408694598
 30
0.0
 11
147.99453309890811
 21
-102.6440408694598
 31
0.0
  0
LINE
  8
DETAIL
  6
CONTINUOUS
 62
     5
 10
165.57639241808829
 20
-97.700624144566973
 30
0.0
 11
148.0
 21
-97.700624144566973
 31
0.0
  0
LINE
  8
DETAIL
  6
CONTINUOUS
 62
     5
 10
165.57639241808829
 20
-97.700624144566973
 30
0.0
 11
165.57639241808829
 21
-102.6440408694598
 31
0.0
  0
LINE
  8
NOTE
  6
DASHDOT
 62
     4
 10
138.75076995315979
 20
-100.0
 30
0.0
 11
188.58608101972689
 21
-100.0
 31
0.0
  0
ARC
  8
DETAIL
  6
CONTINUOUS
 62
     5
 10
172.87198244028559
 20
-108.94614483714891
 30
0.0
 40
9.9046603554147516
 50
0.0
 51
90.0
  0
ARC
  8
DETAIL
  6
CONTINUOUS
 62
     5
 10
172.87198274498951
 20
-108.94614483714891
 30
0.0
 40
7.987629318882874
 50
0.0
 51
90.0
  0
LINE
  8
DETAIL
  6
CONTINUOUS
 62
     5
 10
182.77664279570081
 20
-170.57446868748781
 30
0.0
 11
182.77664279570081
 21
-108.94614483714891
 31
0.0
  0
LINE
  8
DETAIL
  6
CONTINUOUS
 62
     5
 10
180.85961206387219
 20
-169.91248582956359
 30
0.0
 11
180.85961206387219
 21
-108.94614483714891
 31
0.0
  0
LINE
  8
DETAIL
  6
CONTINUOUS
 62
     5
 10
172.87198274498951
 20
-100.9585155182663
 30
0.0
 11
165.57639241808829
 21
-100.9585155182663
 31
0.0
  0
LINE
  8
DETAIL
  6
CONTINUOUS
 62
     5
 10
172.87198244028559
 20
-99.041484481734187
 30
0.0
 11
165.57639241808829
 21
-99.041484481734187
 31
0.0
  0
LINE
  8
DETAIL
  6
CONTINUOUS
 62
     5
 10
-142.0
 20
-172.0
 30
0.0
 11
142.0
 21
-172.0
 31
0.0
  0
ARC
  8
DETAIL
  6
CONTINUOUS
 62
     5
 10
142.0
 20
-166.0
 30
0.0
 40
6.0
 50
270.0
 51
0.0
  0
ARC
  8
DETAIL
  6
CONTINUOUS
 62
     5
 10
-142.0
 20
-166.0
 30
0.0
 40
6.0
 50
180.0
 51
270.0
  0
LINE
  8
OUTLINE
  6
CONTINUOUS
 62
     3
 10
-142.0
 20
-172.0
 30
0.0
 11
142.0
 21
-172.0
 31
0.0
  0
ARC
  8
OUTLINE
  6
CONTINUOUS
 62
     3
 10
142.0
 20
-166.0
 30
0.0
 40
6.0
 50
270.0
 51
0.0
  0
ARC
  8
OUTLINE
  6
CONTINUOUS
 62
     3
 10
-142.0
 20
-166.0
 30
0.0
 40
6.0
 50
180.0
 51
270.0
  0
LINE
  8
NOTE
  6
CONTINUOUS
 62
     4
 10
148.70152173425481
 20
-106.17191757449559
 30
0.0
 11
148.0
 21
-100.0
 31
0.0
  0
LINE
  8
NOTE
  6
CONTINUOUS
 62
     4
 10
148.0
 20
-100.0
 30
0.0
 11
151.69350195650901
 21
-104.9942709765554
 31
0.0
  0
LINE
  8
NOTE
  6
CONTINUOUS
 62
     4
 10
148.0
 20
-100.0
 30
0.0
 11
152.39502369076391
 21
-111.16618855105111
 31
0.0
  0
LINE
  8
NOTE
  6
CONTINUOUS
 62
     4
 10
-64.34731240307076
 20
136.93683820725181
 30
0.0
 11
-59.999996381903429
 21
132.4999989378955
 31
0.0
  0
LINE
  8
NOTE
  6
CONTINUOUS
 62
     4
 10
-59.999996381903429
 20
132.4999989378955
 30
0.0
 11
-65.983304643908468
 21
134.16874743057571
 31
0.0
  0
LINE
  8
NOTE
  6
CONTINUOUS
 62
     4
 10
-59.999996381903429
 20
132.4999989378955
 30
0.0
 11
-70.330620665075799
 21
138.60558669993191
 31
0.0
  0
LINE
  8
NOTE
  6
CONTINUOUS
 62
     4
 10
80.0
 20
120.0
 30
0.0
 11
80.0
 21
123.29489709404019
 31
0.0
  0
LINE
  8
DETAIL
  6
CONTINUOUS
 62
     5
 10
81.996907329720898
 20
124.2933507589005
 30
0.0
 11
80.0
 21
124.2933507589005
 31
0.0
  0
LINE
  8
DETAIL
  6
CONTINUOUS
 62
     5
 10
82.995360994581006
 20
123.29489709404019
 30
0.0
 11
80.0
 21
123.29489709404019
 31
0.0
  0
LINE
  8
DETAIL
  6
CONTINUOUS
 62
     5
 10
82.995360994581006
 20
120.0
 30
0.0
 11
82.995360994581006
 21
123.29489709404019
 31
0.0
  0
LINE
  8
DETAIL
  6
CONTINUOUS
 62
     5
 10
81.996907329720898
 20
120.0
 30
0.0
 11
81.996907329720898
 21
124.2933507589005
 31
0.0
  0
LINE
  8
DETAIL
  6
CONTINUOUS
 62
     5
 10
81.996941141601155
 20
124.29331486034199
 30
0.0
 11
82.995288137322405
 21
123.294967864621
 31
0.0
  0
LINE
  8
DETAIL
  6
CONTINUOUS
 62
     5
 10
78.003092670279102
 20
124.2933507589005
 30
0.0
 11
80.0
 21
124.2933507589005
 31
0.0
  0
LINE
  8
DETAIL
  6
CONTINUOUS
 62
     5
 10
77.004639005418767
 20
123.29489709404019
 30
0.0
 11
80.0
 21
123.29489709404019
 31
0.0
  0
LINE
  8
DETAIL
  6
CONTINUOUS
 62
     5
 10
77.004639005418767
 20
120.0
 30
0.0
 11
77.004639005418767
 21
123.29489709404019
 31
0.0
  0
LINE
  8
DETAIL
  6
CONTINUOUS
 62
     5
 10
78.003092670279102
 20
120.0
 30
0.0
 11
78.003092670279102
 21
124.2933507589005
 31
0.0
  0
LINE
  8
DETAIL
  6
CONTINUOUS
 62
     5
 10
78.003057604915739
 20
124.29316403962051
 30
0.0
 11
77.00471060919449
 21
123.294817043899
 31
0.0
  0
LINE
  8
BASIS
  6
DASHDOT
 62
     6
 10
166.17024457307301
 20
0.0
 30
0.0
 11
-166.17024457307301
 21
0.0
 31
0.0
  0
LINE
  8
SIZE
  6
CONTINUOUS
 62
    30
 10
162.0
 20
148.0
 30
0.0
 11
483.49506310041221
 21
147.99999999999989
 31
0.0
  0
LINE
  8
SIZE
  6
CONTINUOUS
 62
    30
 10
186.17024457307301
 20
0.0
 30
0.0
 11
483.49506310041193
 21
-0.0000000000001137
 31
0.0
  0
LINE
  8
SIZE
  6
CONTINUOUS
 62
    30
 10
463.49506310041193
 20
11.99999999999994
 30
0.0
 11
463.49506310041221
 21
135.99999999999989
 31
0.0
  0
LINE
  8
SIZE
  6
CONTINUOUS
 62
    30
 10
463.49506310041221
 20
147.99999999999989
 30
0.0
 11
463.49506310041221
 21
347.14285714285711
 31
0.0
  0
CIRCLE
  8
SIZE
  6
CONTINUOUS
 62
    30
 10
463.49506310041193
 20
-0.0000000000000568
 30
0.0
 40
6.0
  0
LINE
  8
SIZE
  6
CONTINUOUS
 62
    30
 10
463.49506310041193
 20
-0.0000000000000568
 30
0.0
 11
463.49506310041193
 21
11.99999999999989
 31
0.0
  0
CIRCLE
  8
SIZE
  6
CONTINUOUS
 62
    30
 10
463.49506310041221
 20
147.99999999999989
 30
0.0
 40
6.0
  0
LINE
  8
SIZE
  6
CONTINUOUS
 62
    30
 10
463.49506310041221
 20
147.99999999999989
 30
0.0
 11
463.49506310041221
 21
135.99999999999989
 31
0.0
  0
TEXT
  8
SIZE
  6
CONTINUOUS
 62
    30
 10
438.49506310041193
 20
185.00000000000011
 30
0.0
 40
64.0
  1
148
 50
90.0
 41
0.9
 72
     1
 11
438.49506310041193
 21
253.5714285714287
 31
0.0
  0
LINE
  8
BASIS
  6
DASHDOT
 62
     6
 10
166.240839716583
 20
5.0
 30
0.0
 11
-166.25165509588459
 21
5.0
 31
0.0
  0
LINE
  8
SIZE
  6
CONTINUOUS
 62
    30
 10
250.98047509679421
 20
0.0
 30
0.0
 11
331.11888258059992
 21
0.0
 31
0.0
  0
LINE
  8
SIZE
  6
CONTINUOUS
 62
    30
 10
186.240839716583
 20
5.0
 30
0.0
 11
331.11888258059992
 21
4.9999999999999432
 31
0.0
  0
LINE
  8
SIZE
  6
CONTINUOUS
 62
    30
 10
311.11888258059992
 20
-12.0
 30
0.0
 11
311.11888258059992
 21
-24.0
 31
0.0
  0
LINE
  8
SIZE
  6
CONTINUOUS
 62
    30
 10
311.11888258059992
 20
16.99999999999994
 30
0.0
 11
311.11888258059992
 21
117.40000000000001
 31
0.0
  0
LINE
  8
SIZE
  6
CONTINUOUS
 62
    30
 10
311.11888258059992
 20
0.0
 30
0.0
 11
311.11888258059992
 21
4.9999999999999432
 31
0.0
  0
CIRCLE
  8
SIZE
  6
CONTINUOUS
 62
    30
 10
311.11888258059992
 20
0.0
 30
0.0
 40
6.0
  0
LINE
  8
SIZE
  6
CONTINUOUS
 62
    30
 10
311.11888258059992
 20
0.0
 30
0.0
 11
311.11888258059992
 21
-12.0
 31
0.0
  0
CIRCLE
  8
SIZE
  6
CONTINUOUS
 62
    30
 10
311.11888258059992
 20
4.9999999999999432
 30
0.0
 40
6.0
  0
LINE
  8
SIZE
  6
CONTINUOUS
 62
    30
 10
311.11888258059992
 20
4.9999999999999432
 30
0.0
 11
311.11888258059992
 21
16.99999999999994
 31
0.0
  0
TEXT
  8
SIZE
  6
CONTINUOUS
 62
    30
 10
286.11888258059992
 20
54.000000000000057
 30
0.0
 40
64.0
  1
5
 50
90.0
 41
0.9
 72
     1
 11
286.11888258059992
 21
73.200000000000045
 31
0.0
  0
LINE
  8
NOTE
  6
CONTINUOUS
 62
     4
 10
156.61698906561949
 20
11.175641641142141
 30
0.0
 11
157.28493338230399
 21
5.0
 31
0.0
  0
LINE
  8
NOTE
  6
CONTINUOUS
 62
     4
 10
157.28493338230399
 20
5.0
 30
0.0
 11
159.79430601911801
 21
10.68223092276344
 31
0.0
  0
LINE
  8
NOTE
  6
CONTINUOUS
 62
     4
 10
157.28493338230399
 20
5.0
 30
0.0
 11
159.12636170243351
 21
16.85787256390557
 31
0.0
  0
LINE
  8
NOTE
  6
CONTINUOUS
 62
     4
 10
159.1263617024338
 20
16.85787256390552
 30
0.0
 11
213.92906354199039
 21
369.75971917249939
 31
0.0
  0
LINE
  8
NOTE
  6
CONTINUOUS
 62
     4
 10
213.92906354199039
 20
369.75971917249939
 30
0.0
 11
602.32906354199076
 21
369.75971917249939
 31
0.0
  0
TEXT
  8
NOTE
  6
CONTINUOUS
 62
     4
 10
258.70450533877153
 20
399.78486357997332
 30
0.0
 40
64.0
  1
羽根中心線
 41
0.9
  0
LINE
  8
SIZE
  6
CONTINUOUS
 62
    30
 10
-140.0
 20
120.0
 30
0.0
 11
-269.31912372039278
 21
120.0
 31
0.0
  0
LINE
  8
SIZE
  6
CONTINUOUS
 62
    30
 10
-140.0
 20
-120.0
 30
0.0
 11
-269.31912372039278
 21
-120.0
 31
0.0
  0
LINE
  8
SIZE
  6
CONTINUOUS
 62
    30
 10
-249.31912372039281
 20
108.0
 30
0.0
 11
-249.31912372039281
 21
-108.0
 31
0.0
  0
CIRCLE
  8
SIZE
  6
CONTINUOUS
 62
    30
 10
-249.31912372039281
 20
120.0
 30
0.0
 40
6.0
  0
LINE
  8
SIZE
  6
CONTINUOUS
 62
    30
 10
-249.31912372039281
 20
120.0
 30
0.0
 11
-249.31912372039281
 21
108.0
 31
0.0
  0
CIRCLE
  8
SIZE
  6
CONTINUOUS
 62
    30
 10
-249.31912372039281
 20
-120.0
 30
0.0
 40
6.0
  0
LINE
  8
SIZE
  6
CONTINUOUS
 62
    30
 10
-249.31912372039281
 20
-120.0
 30
0.0
 11
-249.31912372039281
 21
-108.0
 31
0.0
  0
TEXT
  8
SIZE
  6
CONTINUOUS
 62
    30
 10
-274.31912372039278
 20
-110.5371428571429
 30
0.0
 40
64.0
  1
□240
 50
90.0
 41
0.9
 72
     1
 11
-274.31912372039278
 21
0.0
 31
0.0
  0
TEXT
  8
ETC
  6
CONTINUOUS
 62
    61
 10
690.53370253864796
 20
447.5104208495693
 30
0.0
 40
64.0
  1
EX-20EH9_3
 41
0.9
  0
TEXT
  8
ETC
  6
CONTINUOUS
 62
    61
 10
686.34770853864757
 20
329.55511083473812
 30
0.0
 40
64.0
  1
換気扇
 41
0.9
  0
TEXT
  8
ETC
  6
CONTINUOUS
 62
    61
 10
737.04910678720353
 20
221.40633794851283
 30
0.0
 40
40.0
  1
EX-20EH9
 50
0.0
 41
0.9
 51
0.0
  7
STANDARD
 71
     0
 11
0.0
 21
0.0
 31
0.0
210
0.0
220
0.0
230
1.0
  0
TEXT
  8
ETC
  6
CONTINUOUS
 62
    61
 10
737.04910678720353
 20
155.40633794851283
 30
0.0
 40
40.0
  1
EX-20LH9
 50
0.0
 41
0.9
 51
0.0
  7
STANDARD
 71
     0
 11
0.0
 21
0.0
 31
0.0
210
0.0
220
0.0
230
1.0
  0
TEXT
  8
ETC
  6
CONTINUOUS
 62
    61
 10
737.04910678720353
 20
89.406337948512828
 30
0.0
 40
40.0
  1
EX-20RH9
 50
0.0
 41
0.9
 51
0.0
  7
STANDARD
 71
     0
 11
0.0
 21
0.0
 31
0.0
210
0.0
220
0.0
230
1.0
  0
TEXT
  8
ETC
  6
CONTINUOUS
 62
    61
 10
737.04910678720353
 20
23.406337948512828
 30
0.0
 40
40.0
  1
EX-20KJ8-BL
 50
0.0
 41
0.9
 51
0.0
  7
STANDARD
 71
     0
 11
0.0
 21
0.0
 31
0.0
210
0.0
220
0.0
230
1.0
  0
ENDSEC
  0
EOF
