  0
SECTION
  2
HEADER
  9
$ACADVER
  1
AC1009
  9
$INSBASE
 10
0.0
 20
0.0
 30
0.0
  9
$EXTMIN
 10
-380.764521
 20
-242.001847
 30
0.0
  9
$EXTMAX
 10
978.45780374445235
 20
531.85693653471412
 30
50.0
  9
$LIMMIN
 10
-2970.0
 20
-2100.0
  9
$LIMMAX
 10
2970.0
 20
2100.0
  9
$ORTHOMODE
 70
     1
  9
$REGENMODE
 70
     0
  9
$FILLMODE
 70
     1
  9
$QTEXTMODE
 70
     0
  9
$MIRRTEXT
 70
     0
  9
$DRAGMODE
 70
     2
  9
$LTSCALE
 40
20.0
  9
$OSMODE
 70
   171
  9
$ATTMODE
 70
     1
  9
$TEXTSIZE
 40
64.0
  9
$TRACEWID
 40
0.05
  9
$TEXTSTYLE
  7
STANDARD
  9
$CLAYER
  8
SIZE
  9
$CELTYPE
  6
CONTINUOUS
  9
$CECOLOR
 62
     8
  9
$DIMSCALE
 40
1.0
  9
$DIMASZ
 40
12.0
  9
$DIMEXO
 40
20.0
  9
$DIMDLI
 40
200.0
  9
$DIMRND
 40
0.0
  9
$DIMDLE
 40
0.0
  9
$DIMEXE
 40
20.0
  9
$DIMTP
 40
0.0
  9
$DIMTM
 40
0.0
  9
$DIMTXT
 40
64.0
  9
$DIMCEN
 40
0.09
  9
$DIMTSZ
 40
0.0
  9
$DIMTOL
 70
     0
  9
$DIMLIM
 70
     0
  9
$DIMTIH
 70
     0
  9
$DIMTOH
 70
     0
  9
$DIMSE1
 70
     0
  9
$DIMSE2
 70
     0
  9
$DIMTAD
 70
     1
  9
$DIMZIN
 70
     8
  9
$DIMBLK
  1
DOT1
  9
$DIMASO
 70
     1
  9
$DIMSHO
 70
     0
  9
$DIMPOST
  1

  9
$DIMAPOST
  1

  9
$DIMALT
 70
     0
  9
$DIMALTD
 70
     2
  9
$DIMALTF
 40
25.399999999999999
  9
$DIMLFAC
 40
1.0
  9
$DIMTOFL
 70
     1
  9
$DIMTVP
 40
0.0
  9
$DIMTIX
 70
     1
  9
$DIMSOXD
 70
     0
  9
$DIMSAH
 70
     1
  9
$DIMBLK1
  1
ORIGIN
  9
$DIMBLK2
  1
ORIGIN
  9
$DIMSTYLE
  2
STANDARD
  9
$DIMCLRD
 70
     0
  9
$DIMCLRE
 70
     0
  9
$DIMCLRT
 70
     0
  9
$DIMTFAC
 40
1.0
  9
$DIMGAP
 40
0.09
  9
$LUNITS
 70
     2
  9
$LUPREC
 70
     4
  9
$SKETCHINC
 40
0.1
  9
$FILLETRAD
 40
6.0
  9
$AUNITS
 70
     1
  9
$AUPREC
 70
     3
  9
$MENU
  1
ACAD
  9
$ELEVATION
 40
0.0
  9
$PELEVATION
 40
0.0
  9
$THICKNESS
 40
50.0
  9
$LIMCHECK
 70
     0
  9
$BLIPMODE
 70
     0
  9
$CHAMFERA
 40
0.0
  9
$CHAMFERB
 40
0.0
  9
$SKPOLY
 70
     0
  9
$TDCREATE
 40
2451453.4938508091
  9
$TDUPDATE
 40
2453761.5761702429
  9
$TDINDWG
 40
0.7789607176
  9
$TDUSRTIMER
 40
0.7789607176
  9
$USRTIMER
 70
     1
  9
$ANGBASE
 50
0.0
  9
$ANGDIR
 70
     0
  9
$PDMODE
 70
     3
  9
$PDSIZE
 40
-2.0
  9
$PLINEWID
 40
0.0
  9
$COORDS
 70
     2
  9
$SPLFRAME
 70
     0
  9
$SPLINETYPE
 70
     6
  9
$SPLINESEGS
 70
     8
  9
$ATTDIA
 70
     0
  9
$ATTREQ
 70
     1
  9
$HANDLING
 70
 22529
  9
$HANDSEED
  5
2C4
  9
$SURFTAB1
 70
     6
  9
$SURFTAB2
 70
     6
  9
$SURFTYPE
 70
     6
  9
$SURFU
 70
     6
  9
$SURFV
 70
     6
  9
$UCSNAME
  2

  9
$UCSORG
 10
0.0
 20
0.0
 30
0.0
  9
$UCSXDIR
 10
1.0
 20
0.0
 30
0.0
  9
$UCSYDIR
 10
0.0
 20
1.0
 30
0.0
  9
$PUCSNAME
  2

  9
$PUCSORG
 10
0.0
 20
0.0
 30
0.0
  9
$PUCSXDIR
 10
1.0
 20
0.0
 30
0.0
  9
$PUCSYDIR
 10
0.0
 20
1.0
 30
0.0
  9
$USERI1
 70
     0
  9
$USERI2
 70
     0
  9
$USERI3
 70
     0
  9
$USERI4
 70
     0
  9
$USERI5
 70
     0
  9
$USERR1
 40
20.0
  9
$USERR2
 40
0.0
  9
$USERR3
 40
0.0
  9
$USERR4
 40
0.0
  9
$USERR5
 40
0.0
  9
$WORLDVIEW
 70
     1
  9
$SHADEDGE
 70
     3
  9
$SHADEDIF
 70
    70
  9
$TILEMODE
 70
     1
  9
$MAXACTVP
 70
    64
  9
$PLIMCHECK
 70
     0
  9
$PEXTMIN
 10
1.0000000000000000E+020
 20
1.0000000000000000E+020
 30
1.0000000000000000E+020
  9
$PEXTMAX
 10
-1.0000000000000000E+020
 20
-1.0000000000000000E+020
 30
-1.0000000000000000E+020
  9
$PLIMMIN
 10
0.0
 20
0.0
  9
$PLIMMAX
 10
12.0
 20
9.0
  9
$UNITMODE
 70
     0
  9
$VISRETAIN
 70
     1
  9
$PLINEGEN
 70
     0
  9
$PSLTSCALE
 70
     1
  0
ENDSEC
  0
SECTION
  2
TABLES
  0
TABLE
  2
VPORT
 70
    13
  0
VPORT
  2
*ACTIVE
 70
     0
 10
0.0
 20
0.0
 11
1.0
 21
1.0
 12
125.5325460000001
 22
185.96860606657339
 13
0.0
 23
0.0
 14
1.0
 24
1.0
 15
0.0
 25
0.0
 16
0.0
 26
0.0
 36
1.0
 17
0.0
 27
0.0
 37
0.0
 40
1729.2796022662931
 41
1.4423558897243101
 42
50.0
 43
0.0
 44
0.0
 50
0.0
 51
0.0
 71
     0
 72
   100
 73
     1
 74
     0
 75
     0
 76
     0
 77
     0
 78
     0
  0
ENDTAB
  0
TABLE
  2
LTYPE
 70
     2
  0
LTYPE
  2
CONTINUOUS
 70
     0
  3
実線
 72
    65
 73
     0
 40
0.0
  0
LTYPE
  2
DASHDOT
 70
     0
  3
____ _ ____ _ ____ _ ____ _ ____ _ ____ _ ____
 72
    65
 73
     4
 40
5.5
 49
4.0
 49
-0.6
 49
0.3
 49
-0.6
  0
ENDTAB
  0
TABLE
  2
LAYER
 70
    12
  0
LAYER
  2
0
 70
     0
 62
     7
  6
CONTINUOUS
  0
LAYER
  2
SIZE
 70
     0
 62
    30
  6
CONTINUOUS
  0
LAYER
  2
BASIS
 70
     0
 62
     6
  6
DASHDOT
  0
LAYER
  2
OUTLINE
 70
     0
 62
     3
  6
CONTINUOUS
  0
LAYER
  2
DETAIL
 70
     0
 62
     5
  6
CONTINUOUS
  0
LAYER
  2
ARRANGE
 70
     0
 62
     1
  6
CONTINUOUS
  0
LAYER
  2
DEFPOINTS
 70
     0
 62
     7
  6
CONTINUOUS
  0
LAYER
  2
ETC
 70
     0
 62
    61
  6
CONTINUOUS
  0
LAYER
  2
NOTE
 70
     0
 62
     4
  6
CONTINUOUS
  0
LAYER
  2
FIX
 70
     0
 62
    11
  6
CONTINUOUS
  0
LAYER
  2
SERVICESPACE
 70
     0
 62
     2
  6
DASHDOT
  0
LAYER
  2
SYMBOLLINE
 70
     0
 62
    15
  6
CONTINUOUS
  0
ENDTAB
  0
TABLE
  2
STYLE
 70
     1
  0
STYLE
  2
STANDARD
 70
     0
 40
64.0
 41
0.9
 50
0.0
 71
     0
 42
64.0
  3
SIMPLEX.shx
  4
BIGFONT.shx
  0
ENDTAB
  0
TABLE
  2
VIEW
 70
     1
  0
VIEW
  2
ALL
 70
     0
 40
4282.6198079999986
 10
0.0
 20
41.309903999999989
 41
5940.0
 11
0.0
 21
0.0
 31
1.0
 12
0.0
 22
0.0
 32
0.0
 42
50.0
 43
0.0
 44
0.0
 50
0.0
 71
     0
  0
ENDTAB
  0
TABLE
  2
UCS
 70
     0
  0
ENDTAB
  0
TABLE
  2
APPID
 70
     1
  0
APPID
  2
ACAD
 70
     0
  0
ENDTAB
  0
TABLE
  2
DIMSTYLE
 70
     1
  0
DIMSTYLE
  2
STANDARD
 70
     0
  3

  4

  5

  6

  7

 40
1.0
 41
0.18
 42
0.0625
 43
0.38
 44
0.18
 45
0.0
 46
0.0
 47
0.0
 48
0.0
140
0.18
141
0.09
142
0.0
143
25.399999999999999
144
1.0
145
0.0
146
1.0
147
0.09
 71
     0
 72
     0
 73
     1
 74
     1
 75
     0
 76
     0
 77
     0
 78
     0
170
     0
171
     2
172
     0
173
     0
174
     0
175
     0
176
     0
177
     0
178
     0
  0
ENDTAB
  0
ENDSEC
  0
SECTION
  2
BLOCKS
  0
BLOCK
  8
0
  2
$MODEL_SPACE
 70
     0
 10
0.0
 20
0.0
 30
0.0
  3
$MODEL_SPACE
  1

  0
ENDBLK
  5
20
  8
0
  0
BLOCK
 67
     1
  8
0
  2
$PAPER_SPACE
 70
     0
 10
0.0
 20
0.0
 30
0.0
  3
$PAPER_SPACE
  1

  0
ENDBLK
  5
1C
 67
     1
  8
0
  0
BLOCK
  8
0
  2
DOT1
 70
     0
 10
0.0
 20
0.0
 30
0.0
  3
DOT1
  1

  0
CIRCLE
  5
34
  8
SIZE
  6
CONTINUOUS
 62
     7
 10
0.0
 20
0.0
 30
0.0
 40
3.0
  0
ENDBLK
  5
35
  8
0
  0
BLOCK
  8
0
  2
_ORIGIN
 70
     0
 10
0.0
 20
0.0
 30
0.0
  3
_ORIGIN
  1

  0
CIRCLE
  5
38
  8
0
  6
CONTINUOUS
 62
     7
 10
0.0
 20
0.0
 30
0.0
 40
0.5
  0
LINE
  5
39
  8
0
  6
CONTINUOUS
 62
     7
 10
0.0
 20
0.0
 30
0.0
 11
-1.0
 21
0.0
 31
0.0
  0
ENDBLK
  5
3A
  8
0
  0
ENDSEC
  0
SECTION
  2
ENTITIES
  0
LINE
  5
3D
  8
BASIS
  6
DASHDOT
 62
     6
 10
0.0
 20
200.40224599999991
 30
0.0
 11
0.0
 21
-232.9293569999999
 31
0.0
  0
LINE
  5
3E
  8
BASIS
  6
DASHDOT
 62
     6
 10
-227.78437999999991
 20
0.0
 30
0.0
 11
230.686418
 21
0.0
 31
0.0
  0
CIRCLE
  5
3F
  8
ARRANGE
  6
CONTINUOUS
 62
     1
 39
50.0
 10
0.0
 20
0.0
 30
0.0
 40
40.0
  0
POINT
  5
40
  8
ARRANGE
  6
CONTINUOUS
 62
     1
 10
0.0
 20
0.0
 30
0.0
 39
50.0
  0
LINE
  5
41
  8
NOTE
  6
CONTINUOUS
 62
     4
 10
-241.94706699999989
 20
-242.001847
 30
0.0
 11
-148.0
 21
-100.0
 31
0.0
  0
LINE
  5
42
  8
NOTE
  6
CONTINUOUS
 62
     4
 10
-360.51283299999989
 20
-242.001847
 30
0.0
 11
-241.94706699999989
 21
-242.001847
 31
0.0
  0
TEXT
  5
43
  8
NOTE
  6
CONTINUOUS
 62
     4
 10
-337.36017399999997
 20
-214.574895
 30
0.0
 40
64.0
  1
EL
 41
0.9
  0
LINE
  5
44
  8
NOTE
  6
CONTINUOUS
 62
     4
 10
-161.286978
 20
-137.7287189999999
 30
0.0
 11
-148.0
 21
-100.0
 31
0.0
  0
LINE
  5
45
  8
NOTE
  6
CONTINUOUS
 62
     4
 10
-148.0
 20
-100.0
 30
0.0
 11
-178.37121999999999
 21
-126.03053899999991
 31
0.0
  0
LINE
  5
46
  8
NOTE
  6
CONTINUOUS
 62
     4
 10
-148.0
 20
-120.0
 30
0.0
 11
-148.0
 21
-80.0
 31
0.0
  0
LINE
  5
47
  8
NOTE
  6
CONTINUOUS
 62
     4
 10
-128.0
 20
-100.0
 30
0.0
 11
-168.0
 21
-100.0
 31
0.0
  0
LINE
  5
48
  8
DETAIL
  6
CONTINUOUS
 62
     5
 10
-142.0
 20
148.0
 30
0.0
 11
142.0
 21
148.0
 31
0.0
  0
LINE
  5
49
  8
DETAIL
  6
CONTINUOUS
 62
     5
 10
-142.0
 20
-148.0
 30
0.0
 11
142.0
 21
-148.0
 31
0.0
  0
LINE
  5
4A
  8
DETAIL
  6
CONTINUOUS
 62
     5
 10
-148.0
 20
142.0
 30
0.0
 11
-148.0
 21
-142.0
 31
0.0
  0
LINE
  5
4B
  8
DETAIL
  6
CONTINUOUS
 62
     5
 10
148.0
 20
142.0
 30
0.0
 11
148.0
 21
-142.0
 31
0.0
  0
LINE
  5
4C
  8
DETAIL
  6
CONTINUOUS
 62
     5
 10
-29.0
 20
-154.0
 30
0.0
 11
29.0
 21
-154.0
 31
0.0
  0
LINE
  5
4D
  8
DETAIL
  6
CONTINUOUS
 62
     5
 10
-29.0
 20
-154.0
 30
0.0
 11
-29.0
 21
-148.0
 31
0.0
  0
LINE
  5
4E
  8
DETAIL
  6
CONTINUOUS
 62
     5
 10
29.0
 20
-154.0
 30
0.0
 11
29.0
 21
-148.0
 31
0.0
  0
LINE
  5
4F
  8
OUTLINE
  6
CONTINUOUS
 62
     3
 10
-148.0
 20
142.0
 30
0.0
 11
-148.0
 21
-142.0
 31
0.0
  0
LINE
  5
50
  8
OUTLINE
  6
CONTINUOUS
 62
     3
 10
-142.0
 20
-148.0
 30
0.0
 11
142.0
 21
-148.0
 31
0.0
  0
LINE
  5
51
  8
OUTLINE
  6
CONTINUOUS
 62
     3
 10
-142.0
 20
148.0
 30
0.0
 11
142.0
 21
148.0
 31
0.0
  0
LINE
  5
52
  8
OUTLINE
  6
CONTINUOUS
 62
     3
 10
148.0
 20
142.0
 30
0.0
 11
148.0
 21
-142.0
 31
0.0
  0
LINE
  5
53
  8
SIZE
  6
CONTINUOUS
 62
    30
 10
148.0
 20
162.0
 30
0.0
 11
148.0
 21
286.735568
 31
0.0
  0
LINE
  5
54
  8
SIZE
  6
CONTINUOUS
 62
    30
 10
-148.0
 20
162.0
 30
0.0
 11
-148.0
 21
286.735568
 31
0.0
  0
LINE
  5
55
  8
SIZE
  6
CONTINUOUS
 62
    30
 10
136.0
 20
266.735568
 30
0.0
 11
-136.0
 21
266.735568
 31
0.0
  0
CIRCLE
  5
56
  8
SIZE
  6
CONTINUOUS
 62
    30
 10
148.0
 20
266.735568
 30
0.0
 40
6.0
  0
LINE
  5
57
  8
SIZE
  6
CONTINUOUS
 62
    30
 10
148.0
 20
266.735568
 30
0.0
 11
136.0
 21
266.735568
 31
0.0
  0
CIRCLE
  5
58
  8
SIZE
  6
CONTINUOUS
 62
    30
 10
-148.0
 20
266.735568
 30
0.0
 40
6.0
  0
LINE
  5
59
  8
SIZE
  6
CONTINUOUS
 62
    30
 10
-148.0
 20
266.735568
 30
0.0
 11
-136.0
 21
266.735568
 31
0.0
  0
TEXT
  5
5A
  8
SIZE
  6
CONTINUOUS
 62
    30
 10
-109.1657142857142
 20
291.735568
 30
0.0
 40
64.0
  1
□296
 41
0.9
 72
     1
 11
0.0
 21
291.735568
 31
0.0
  0
POINT
  5
5B
  8
DEFPOINTS
  6
CONTINUOUS
 62
    30
 10
148.0
 20
142.0
 30
0.0
  0
POINT
  5
5C
  8
DEFPOINTS
  6
CONTINUOUS
 62
    30
 10
-148.0
 20
142.0
 30
0.0
  0
POINT
  5
5D
  8
DEFPOINTS
  6
CONTINUOUS
 62
    30
 10
-148.0
 20
266.735568
 30
0.0
  0
LINE
  5
5E
  8
SIZE
  6
CONTINUOUS
 62
    30
 10
-247.78437999999991
 20
0.0
 30
0.0
 11
-311.764521
 21
0.0
 31
0.0
  0
LINE
  5
5F
  8
SIZE
  6
CONTINUOUS
 62
    30
 10
-188.0
 20
-100.0
 30
0.0
 11
-311.764521
 21
-100.0
 31
0.0
  0
LINE
  5
60
  8
SIZE
  6
CONTINUOUS
 62
    30
 10
-291.76452099999989
 20
12.0
 30
0.0
 11
-291.76452099999989
 21
24.0
 31
0.0
  0
LINE
  5
61
  8
SIZE
  6
CONTINUOUS
 62
    30
 10
-291.76452099999989
 20
-112.0
 30
0.0
 11
-291.76452099999989
 21
-124.0
 31
0.0
  0
LINE
  5
62
  8
SIZE
  6
CONTINUOUS
 62
    30
 10
-291.76452099999989
 20
0.0
 30
0.0
 11
-291.76452099999989
 21
-100.0
 31
0.0
  0
CIRCLE
  5
63
  8
SIZE
  6
CONTINUOUS
 62
    30
 10
-291.76452099999989
 20
0.0
 30
0.0
 40
6.0
  0
LINE
  5
64
  8
SIZE
  6
CONTINUOUS
 62
    30
 10
-291.76452099999989
 20
0.0
 30
0.0
 11
-291.76452099999989
 21
12.0
 31
0.0
  0
CIRCLE
  5
65
  8
SIZE
  6
CONTINUOUS
 62
    30
 10
-291.76452099999989
 20
-100.0
 30
0.0
 40
6.0
  0
LINE
  5
66
  8
SIZE
  6
CONTINUOUS
 62
    30
 10
-291.76452099999989
 20
-100.0
 30
0.0
 11
-291.76452099999989
 21
-112.0
 31
0.0
  0
TEXT
  5
67
  8
SIZE
  6
CONTINUOUS
 62
    30
 10
-316.76452099999989
 20
-118.5714285714285
 30
0.0
 40
64.0
  1
100
 50
90.0
 41
0.9
 72
     1
 11
-316.76452099999989
 21
-50.0
 31
0.0
  0
POINT
  5
68
  8
DEFPOINTS
  6
CONTINUOUS
 62
    30
 10
-227.78437999999991
 20
0.0
 30
0.0
  0
POINT
  5
69
  8
DEFPOINTS
  6
CONTINUOUS
 62
    30
 10
-168.0
 20
-100.0
 30
0.0
  0
POINT
  5
6A
  8
DEFPOINTS
  6
CONTINUOUS
 62
    30
 10
-291.76452099999989
 20
-100.0
 30
0.0
  0
ARC
  5
6B
  8
DETAIL
  6
CONTINUOUS
 62
     5
 10
-55.390818000000003
 20
-42.132609000000002
 30
0.0
 40
81.447013999999996
 50
337.29332699999992
 51
337.959675
  0
LINE
  5
6C
  8
DETAIL
  6
CONTINUOUS
 62
     5
 10
-122.763006
 20
107.36416199999999
 30
0.0
 11
-122.763006
 21
-107.36416199999999
 31
0.0
  0
LINE
  5
6D
  8
DETAIL
  6
CONTINUOUS
 62
     5
 10
122.763006
 20
107.36416199999999
 30
0.0
 11
122.763006
 21
-107.36416199999999
 31
0.0
  0
LINE
  5
6E
  8
DETAIL
  6
CONTINUOUS
 62
     5
 10
107.36416199999999
 20
122.763006
 30
0.0
 11
-107.36416199999999
 21
122.763006
 31
0.0
  0
LINE
  5
6F
  8
DETAIL
  6
CONTINUOUS
 62
     5
 10
-107.36416199999999
 20
-122.763006
 30
0.0
 11
107.36416199999999
 21
-122.763006
 31
0.0
  0
ARC
  5
70
  8
DETAIL
  6
CONTINUOUS
 62
     5
 10
107.36416199999999
 20
-107.36416199999999
 30
0.0
 40
15.398844
 50
270.0
 51
0.0
  0
ARC
  5
71
  8
DETAIL
  6
CONTINUOUS
 62
     5
 10
-107.36416199999999
 20
-107.36416199999999
 30
0.0
 40
15.398844
 50
180.0
 51
270.0
  0
ARC
  5
72
  8
DETAIL
  6
CONTINUOUS
 62
     5
 10
-107.36416199999999
 20
107.36416199999999
 30
0.0
 40
15.398844
 50
90.0
 51
180.0
  0
LINE
  5
73
  8
DETAIL
  6
CONTINUOUS
 62
     5
 10
2.994219999999999
 20
-122.763006
 30
0.0
 11
2.994219999999999
 21
122.763006
 31
0.0
  0
LINE
  5
74
  8
DETAIL
  6
CONTINUOUS
 62
     5
 10
11.549132999999999
 20
-122.763006
 30
0.0
 11
11.549132999999999
 21
122.763006
 31
0.0
  0
LINE
  5
75
  8
DETAIL
  6
CONTINUOUS
 62
     5
 10
20.104046
 20
-122.763006
 30
0.0
 11
20.104046
 21
122.763006
 31
0.0
  0
LINE
  5
76
  8
DETAIL
  6
CONTINUOUS
 62
     5
 10
28.65895999999999
 20
-122.763006
 30
0.0
 11
28.65895999999999
 21
122.763006
 31
0.0
  0
LINE
  5
77
  8
DETAIL
  6
CONTINUOUS
 62
     5
 10
37.213872999999992
 20
-122.763006
 30
0.0
 11
37.213872999999992
 21
122.763006
 31
0.0
  0
LINE
  5
78
  8
DETAIL
  6
CONTINUOUS
 62
     5
 10
45.768785999999992
 20
-122.763006
 30
0.0
 11
45.768785999999992
 21
122.763006
 31
0.0
  0
LINE
  5
79
  8
DETAIL
  6
CONTINUOUS
 62
     5
 10
54.323698999999998
 20
-122.763006
 30
0.0
 11
54.323698999999998
 21
122.763006
 31
0.0
  0
LINE
  5
7A
  8
DETAIL
  6
CONTINUOUS
 62
     5
 10
62.878613000000001
 20
-122.763006
 30
0.0
 11
62.878613000000001
 21
122.763006
 31
0.0
  0
LINE
  5
7B
  8
DETAIL
  6
CONTINUOUS
 62
     5
 10
71.433526000000001
 20
-122.763006
 30
0.0
 11
71.433526000000001
 21
122.763006
 31
0.0
  0
LINE
  5
7C
  8
DETAIL
  6
CONTINUOUS
 62
     5
 10
79.988439
 20
-122.763006
 30
0.0
 11
79.988439
 21
122.763006
 31
0.0
  0
LINE
  5
7D
  8
DETAIL
  6
CONTINUOUS
 62
     5
 10
88.543352999999996
 20
-122.763006
 30
0.0
 11
88.543352999999996
 21
122.763006
 31
0.0
  0
LINE
  5
7E
  8
DETAIL
  6
CONTINUOUS
 62
     5
 10
97.09826600000001
 20
-122.763006
 30
0.0
 11
97.09826600000001
 21
122.763006
 31
0.0
  0
LINE
  5
7F
  8
DETAIL
  6
CONTINUOUS
 62
     5
 10
105.65317899999999
 20
-122.763006
 30
0.0
 11
105.65317899999999
 21
122.763006
 31
0.0
  0
LINE
  5
80
  8
DETAIL
  6
CONTINUOUS
 62
     5
 10
114.20809199999989
 20
-121.1585449999999
 30
0.0
 11
114.20809199999989
 21
121.1585449999999
 31
0.0
  0
LINE
  5
81
  8
DETAIL
  6
CONTINUOUS
 62
     5
 10
-5.5606939999999989
 20
-122.763006
 30
0.0
 11
-5.5606939999999989
 21
122.763006
 31
0.0
  0
LINE
  5
82
  8
DETAIL
  6
CONTINUOUS
 62
     5
 10
-14.115607000000001
 20
-122.763006
 30
0.0
 11
-14.115607000000001
 21
122.763006
 31
0.0
  0
LINE
  5
83
  8
DETAIL
  6
CONTINUOUS
 62
     5
 10
-22.67052
 20
-122.763006
 30
0.0
 11
-22.67052
 21
122.763006
 31
0.0
  0
LINE
  5
84
  8
DETAIL
  6
CONTINUOUS
 62
     5
 10
-31.225434
 20
-122.763006
 30
0.0
 11
-31.225434
 21
122.763006
 31
0.0
  0
LINE
  5
85
  8
DETAIL
  6
CONTINUOUS
 62
     5
 10
-39.780346999999999
 20
-122.763006
 30
0.0
 11
-39.780346999999999
 21
122.763006
 31
0.0
  0
LINE
  5
86
  8
DETAIL
  6
CONTINUOUS
 62
     5
 10
-48.335259999999991
 20
-122.763006
 30
0.0
 11
-48.335259999999991
 21
122.763006
 31
0.0
  0
LINE
  5
87
  8
DETAIL
  6
CONTINUOUS
 62
     5
 10
-56.89017299999999
 20
-122.763006
 30
0.0
 11
-56.89017299999999
 21
122.763006
 31
0.0
  0
LINE
  5
88
  8
DETAIL
  6
CONTINUOUS
 62
     5
 10
-65.445087000000001
 20
-122.763006
 30
0.0
 11
-65.445087000000001
 21
122.763006
 31
0.0
  0
LINE
  5
89
  8
DETAIL
  6
CONTINUOUS
 62
     5
 10
-74.0
 20
-122.763006
 30
0.0
 11
-74.0
 21
122.763006
 31
0.0
  0
LINE
  5
8A
  8
DETAIL
  6
CONTINUOUS
 62
     5
 10
-82.554912999999999
 20
-122.763006
 30
0.0
 11
-82.554912999999999
 21
122.763006
 31
0.0
  0
LINE
  5
8B
  8
DETAIL
  6
CONTINUOUS
 62
     5
 10
-91.109826999999996
 20
-122.763006
 30
0.0
 11
-91.109826999999996
 21
122.763006
 31
0.0
  0
LINE
  5
8C
  8
DETAIL
  6
CONTINUOUS
 62
     5
 10
-99.664740000000009
 20
-122.763006
 30
0.0
 11
-99.664740000000009
 21
122.763006
 31
0.0
  0
LINE
  5
8D
  8
DETAIL
  6
CONTINUOUS
 62
     5
 10
-108.21965299999999
 20
-122.763006
 30
0.0
 11
-108.21965299999999
 21
122.763006
 31
0.0
  0
LINE
  5
8E
  8
DETAIL
  6
CONTINUOUS
 62
     5
 10
-116.77456599999999
 20
-119.553037
 30
0.0
 11
-116.77456599999999
 21
119.553037
 31
0.0
  0
LINE
  5
8F
  8
DETAIL
  6
CONTINUOUS
 62
     5
 10
-114.20809199999989
 20
-121.1585449999999
 30
0.0
 11
-114.20809199999989
 21
121.1585449999999
 31
0.0
  0
LINE
  5
90
  8
DETAIL
  6
CONTINUOUS
 62
     5
 10
-105.65317899999999
 20
-122.763006
 30
0.0
 11
-105.65317899999999
 21
122.763006
 31
0.0
  0
LINE
  5
91
  8
DETAIL
  6
CONTINUOUS
 62
     5
 10
-97.09826600000001
 20
-122.763006
 30
0.0
 11
-97.09826600000001
 21
122.763006
 31
0.0
  0
LINE
  5
92
  8
DETAIL
  6
CONTINUOUS
 62
     5
 10
-88.543352999999996
 20
-122.763006
 30
0.0
 11
-88.543352999999996
 21
122.763006
 31
0.0
  0
LINE
  5
93
  8
DETAIL
  6
CONTINUOUS
 62
     5
 10
-79.988439
 20
-122.763006
 30
0.0
 11
-79.988439
 21
122.763006
 31
0.0
  0
LINE
  5
94
  8
DETAIL
  6
CONTINUOUS
 62
     5
 10
-71.433526000000001
 20
-122.763006
 30
0.0
 11
-71.433526000000001
 21
122.763006
 31
0.0
  0
LINE
  5
95
  8
DETAIL
  6
CONTINUOUS
 62
     5
 10
-62.878613000000001
 20
-122.763006
 30
0.0
 11
-62.878613000000001
 21
122.763006
 31
0.0
  0
LINE
  5
96
  8
DETAIL
  6
CONTINUOUS
 62
     5
 10
-54.323698999999998
 20
-122.763006
 30
0.0
 11
-54.323698999999998
 21
122.763006
 31
0.0
  0
LINE
  5
97
  8
DETAIL
  6
CONTINUOUS
 62
     5
 10
-45.768785999999992
 20
-122.763006
 30
0.0
 11
-45.768785999999992
 21
122.763006
 31
0.0
  0
LINE
  5
98
  8
DETAIL
  6
CONTINUOUS
 62
     5
 10
-37.213872999999992
 20
-122.763006
 30
0.0
 11
-37.213872999999992
 21
122.763006
 31
0.0
  0
LINE
  5
99
  8
DETAIL
  6
CONTINUOUS
 62
     5
 10
-28.65895999999999
 20
-122.763006
 30
0.0
 11
-28.65895999999999
 21
122.763006
 31
0.0
  0
LINE
  5
9A
  8
DETAIL
  6
CONTINUOUS
 62
     5
 10
-20.104046
 20
-122.763006
 30
0.0
 11
-20.104046
 21
122.763006
 31
0.0
  0
LINE
  5
9B
  8
DETAIL
  6
CONTINUOUS
 62
     5
 10
-11.549132999999999
 20
-122.763006
 30
0.0
 11
-11.549132999999999
 21
122.763006
 31
0.0
  0
LINE
  5
9C
  8
DETAIL
  6
CONTINUOUS
 62
     5
 10
-2.994219999999999
 20
-122.763006
 30
0.0
 11
-2.994219999999999
 21
122.763006
 31
0.0
  0
LINE
  5
9D
  8
DETAIL
  6
CONTINUOUS
 62
     5
 10
5.5606939999999989
 20
-122.763006
 30
0.0
 11
5.5606939999999989
 21
122.763006
 31
0.0
  0
LINE
  5
9E
  8
DETAIL
  6
CONTINUOUS
 62
     5
 10
14.115607000000001
 20
-122.763006
 30
0.0
 11
14.115607000000001
 21
122.763006
 31
0.0
  0
LINE
  5
9F
  8
DETAIL
  6
CONTINUOUS
 62
     5
 10
22.67052
 20
-122.763006
 30
0.0
 11
22.67052
 21
122.763006
 31
0.0
  0
LINE
  5
A0
  8
DETAIL
  6
CONTINUOUS
 62
     5
 10
31.225434
 20
-122.763006
 30
0.0
 11
31.225434
 21
122.763006
 31
0.0
  0
LINE
  5
A1
  8
DETAIL
  6
CONTINUOUS
 62
     5
 10
39.780346999999999
 20
-122.763006
 30
0.0
 11
39.780346999999999
 21
122.763006
 31
0.0
  0
LINE
  5
A2
  8
DETAIL
  6
CONTINUOUS
 62
     5
 10
48.335259999999991
 20
-122.763006
 30
0.0
 11
48.335259999999991
 21
122.763006
 31
0.0
  0
LINE
  5
A3
  8
DETAIL
  6
CONTINUOUS
 62
     5
 10
56.89017299999999
 20
-122.763006
 30
0.0
 11
56.89017299999999
 21
122.763006
 31
0.0
  0
LINE
  5
A4
  8
DETAIL
  6
CONTINUOUS
 62
     5
 10
65.445087000000001
 20
-122.763006
 30
0.0
 11
65.445087000000001
 21
122.763006
 31
0.0
  0
LINE
  5
A5
  8
DETAIL
  6
CONTINUOUS
 62
     5
 10
74.0
 20
-122.763006
 30
0.0
 11
74.0
 21
122.763006
 31
0.0
  0
LINE
  5
A6
  8
DETAIL
  6
CONTINUOUS
 62
     5
 10
82.554912999999999
 20
-122.763006
 30
0.0
 11
82.554912999999999
 21
122.763006
 31
0.0
  0
LINE
  5
A7
  8
DETAIL
  6
CONTINUOUS
 62
     5
 10
91.109826999999996
 20
-122.763006
 30
0.0
 11
91.109826999999996
 21
122.763006
 31
0.0
  0
LINE
  5
A8
  8
DETAIL
  6
CONTINUOUS
 62
     5
 10
99.664740000000009
 20
-122.763006
 30
0.0
 11
99.664740000000009
 21
122.763006
 31
0.0
  0
LINE
  5
A9
  8
DETAIL
  6
CONTINUOUS
 62
     5
 10
108.21965299999999
 20
-122.763006
 30
0.0
 11
108.21965299999999
 21
122.73922399999989
 31
0.0
  0
LINE
  5
AA
  8
DETAIL
  6
CONTINUOUS
 62
     5
 10
116.77456599999999
 20
-119.553037
 30
0.0
 11
116.77456599999999
 21
119.553037
 31
0.0
  0
LINE
  5
AB
  8
DETAIL
  6
CONTINUOUS
 62
     5
 10
116.77456599999999
 20
75.283237
 30
0.0
 11
122.763006
 21
75.283237
 31
0.0
  0
LINE
  5
AC
  8
DETAIL
  6
CONTINUOUS
 62
     5
 10
116.77456599999999
 20
73.572254000000001
 30
0.0
 11
122.763006
 21
73.572254000000001
 31
0.0
  0
LINE
  5
AD
  8
DETAIL
  6
CONTINUOUS
 62
     5
 10
108.21965299999999
 20
73.572254000000001
 30
0.0
 11
114.20809199999989
 21
73.572254000000001
 31
0.0
  0
LINE
  5
AE
  8
DETAIL
  6
CONTINUOUS
 62
     5
 10
108.21965299999999
 20
75.283237
 30
0.0
 11
114.20809199999989
 21
75.283237
 31
0.0
  0
LINE
  5
AF
  8
DETAIL
  6
CONTINUOUS
 62
     5
 10
99.664740000000009
 20
73.572254000000001
 30
0.0
 11
105.65317899999999
 21
73.572254000000001
 31
0.0
  0
LINE
  5
B0
  8
DETAIL
  6
CONTINUOUS
 62
     5
 10
99.664740000000009
 20
75.283237
 30
0.0
 11
105.65317899999999
 21
75.283237
 31
0.0
  0
LINE
  5
B1
  8
DETAIL
  6
CONTINUOUS
 62
     5
 10
91.109826999999996
 20
73.572254000000001
 30
0.0
 11
97.09826600000001
 21
73.572254000000001
 31
0.0
  0
LINE
  5
B2
  8
DETAIL
  6
CONTINUOUS
 62
     5
 10
91.109826999999996
 20
75.283237
 30
0.0
 11
97.09826600000001
 21
75.283237
 31
0.0
  0
LINE
  5
B3
  8
DETAIL
  6
CONTINUOUS
 62
     5
 10
82.554912999999999
 20
73.572254000000001
 30
0.0
 11
88.543352999999996
 21
73.572254000000001
 31
0.0
  0
LINE
  5
B4
  8
DETAIL
  6
CONTINUOUS
 62
     5
 10
82.554912999999999
 20
75.283237
 30
0.0
 11
88.543352999999996
 21
75.283237
 31
0.0
  0
LINE
  5
B5
  8
DETAIL
  6
CONTINUOUS
 62
     5
 10
74.0
 20
73.572254000000001
 30
0.0
 11
79.988439
 21
73.572254000000001
 31
0.0
  0
LINE
  5
B6
  8
DETAIL
  6
CONTINUOUS
 62
     5
 10
74.0
 20
75.283237
 30
0.0
 11
79.988439
 21
75.283237
 31
0.0
  0
LINE
  5
B7
  8
DETAIL
  6
CONTINUOUS
 62
     5
 10
65.445087000000001
 20
73.572254000000001
 30
0.0
 11
71.433526000000001
 21
73.572254000000001
 31
0.0
  0
LINE
  5
B8
  8
DETAIL
  6
CONTINUOUS
 62
     5
 10
65.445087000000001
 20
75.283237
 30
0.0
 11
71.433526000000001
 21
75.283237
 31
0.0
  0
LINE
  5
B9
  8
DETAIL
  6
CONTINUOUS
 62
     5
 10
56.89017299999999
 20
73.572254000000001
 30
0.0
 11
62.878613000000001
 21
73.572254000000001
 31
0.0
  0
LINE
  5
BA
  8
DETAIL
  6
CONTINUOUS
 62
     5
 10
56.89017299999999
 20
75.283237
 30
0.0
 11
62.878613000000001
 21
75.283237
 31
0.0
  0
LINE
  5
BB
  8
DETAIL
  6
CONTINUOUS
 62
     5
 10
48.335259999999991
 20
73.572254000000001
 30
0.0
 11
54.323698999999998
 21
73.572254000000001
 31
0.0
  0
LINE
  5
BC
  8
DETAIL
  6
CONTINUOUS
 62
     5
 10
48.335259999999991
 20
75.283237
 30
0.0
 11
54.323698999999998
 21
75.283237
 31
0.0
  0
LINE
  5
BD
  8
DETAIL
  6
CONTINUOUS
 62
     5
 10
39.780346999999999
 20
73.572254000000001
 30
0.0
 11
45.768785999999992
 21
73.572254000000001
 31
0.0
  0
LINE
  5
BE
  8
DETAIL
  6
CONTINUOUS
 62
     5
 10
39.780346999999999
 20
75.283237
 30
0.0
 11
45.768785999999992
 21
75.283237
 31
0.0
  0
LINE
  5
BF
  8
DETAIL
  6
CONTINUOUS
 62
     5
 10
31.225434
 20
73.572254000000001
 30
0.0
 11
37.213872999999992
 21
73.572254000000001
 31
0.0
  0
LINE
  5
C0
  8
DETAIL
  6
CONTINUOUS
 62
     5
 10
31.225434
 20
75.283237
 30
0.0
 11
37.213872999999992
 21
75.283237
 31
0.0
  0
LINE
  5
C1
  8
DETAIL
  6
CONTINUOUS
 62
     5
 10
22.67052
 20
73.572254000000001
 30
0.0
 11
28.65895999999999
 21
73.572254000000001
 31
0.0
  0
LINE
  5
C2
  8
DETAIL
  6
CONTINUOUS
 62
     5
 10
22.67052
 20
75.283237
 30
0.0
 11
28.65895999999999
 21
75.283237
 31
0.0
  0
LINE
  5
C3
  8
DETAIL
  6
CONTINUOUS
 62
     5
 10
14.115607000000001
 20
73.572254000000001
 30
0.0
 11
20.104046
 21
73.572254000000001
 31
0.0
  0
LINE
  5
C4
  8
DETAIL
  6
CONTINUOUS
 62
     5
 10
14.115607000000001
 20
75.283237
 30
0.0
 11
20.104046
 21
75.283237
 31
0.0
  0
LINE
  5
C5
  8
DETAIL
  6
CONTINUOUS
 62
     5
 10
5.5606939999999989
 20
73.572254000000001
 30
0.0
 11
11.549132999999999
 21
73.572254000000001
 31
0.0
  0
LINE
  5
C6
  8
DETAIL
  6
CONTINUOUS
 62
     5
 10
5.5606939999999989
 20
75.283237
 30
0.0
 11
11.549132999999999
 21
75.283237
 31
0.0
  0
LINE
  5
C7
  8
DETAIL
  6
CONTINUOUS
 62
     5
 10
-2.994219999999999
 20
73.572254000000001
 30
0.0
 11
2.994219999999999
 21
73.572254000000001
 31
0.0
  0
LINE
  5
C8
  8
DETAIL
  6
CONTINUOUS
 62
     5
 10
-2.994219999999999
 20
75.283237
 30
0.0
 11
2.994219999999999
 21
75.283237
 31
0.0
  0
LINE
  5
C9
  8
DETAIL
  6
CONTINUOUS
 62
     5
 10
-11.549132999999999
 20
73.572254000000001
 30
0.0
 11
-5.5606939999999989
 21
73.572254000000001
 31
0.0
  0
LINE
  5
CA
  8
DETAIL
  6
CONTINUOUS
 62
     5
 10
-11.549132999999999
 20
75.283237
 30
0.0
 11
-5.5606939999999989
 21
75.283237
 31
0.0
  0
LINE
  5
CB
  8
DETAIL
  6
CONTINUOUS
 62
     5
 10
-20.104046
 20
73.572254000000001
 30
0.0
 11
-14.115607000000001
 21
73.572254000000001
 31
0.0
  0
LINE
  5
CC
  8
DETAIL
  6
CONTINUOUS
 62
     5
 10
-20.104046
 20
75.283237
 30
0.0
 11
-14.115607000000001
 21
75.283237
 31
0.0
  0
LINE
  5
CD
  8
DETAIL
  6
CONTINUOUS
 62
     5
 10
-28.65895999999999
 20
73.572254000000001
 30
0.0
 11
-22.67052
 21
73.572254000000001
 31
0.0
  0
LINE
  5
CE
  8
DETAIL
  6
CONTINUOUS
 62
     5
 10
-28.65895999999999
 20
75.283237
 30
0.0
 11
-22.67052
 21
75.283237
 31
0.0
  0
LINE
  5
CF
  8
DETAIL
  6
CONTINUOUS
 62
     5
 10
-37.213872999999992
 20
73.572254000000001
 30
0.0
 11
-31.225434
 21
73.572254000000001
 31
0.0
  0
LINE
  5
D0
  8
DETAIL
  6
CONTINUOUS
 62
     5
 10
-37.213872999999992
 20
75.283237
 30
0.0
 11
-31.225434
 21
75.283237
 31
0.0
  0
LINE
  5
D1
  8
DETAIL
  6
CONTINUOUS
 62
     5
 10
-45.768785999999992
 20
73.572254000000001
 30
0.0
 11
-39.780346999999999
 21
73.572254000000001
 31
0.0
  0
LINE
  5
D2
  8
DETAIL
  6
CONTINUOUS
 62
     5
 10
-45.768785999999992
 20
75.283237
 30
0.0
 11
-39.780346999999999
 21
75.283237
 31
0.0
  0
LINE
  5
D3
  8
DETAIL
  6
CONTINUOUS
 62
     5
 10
-54.323698999999998
 20
73.572254000000001
 30
0.0
 11
-48.335259999999991
 21
73.572254000000001
 31
0.0
  0
LINE
  5
D4
  8
DETAIL
  6
CONTINUOUS
 62
     5
 10
-54.323698999999998
 20
75.283237
 30
0.0
 11
-48.335259999999991
 21
75.283237
 31
0.0
  0
LINE
  5
D5
  8
DETAIL
  6
CONTINUOUS
 62
     5
 10
-62.878613000000001
 20
73.572254000000001
 30
0.0
 11
-56.89017299999999
 21
73.572254000000001
 31
0.0
  0
LINE
  5
D6
  8
DETAIL
  6
CONTINUOUS
 62
     5
 10
-62.878613000000001
 20
75.283237
 30
0.0
 11
-56.89017299999999
 21
75.283237
 31
0.0
  0
LINE
  5
D7
  8
DETAIL
  6
CONTINUOUS
 62
     5
 10
-71.433526000000001
 20
73.572254000000001
 30
0.0
 11
-65.445087000000001
 21
73.572254000000001
 31
0.0
  0
LINE
  5
D8
  8
DETAIL
  6
CONTINUOUS
 62
     5
 10
-71.433526000000001
 20
75.283237
 30
0.0
 11
-65.445087000000001
 21
75.283237
 31
0.0
  0
LINE
  5
D9
  8
DETAIL
  6
CONTINUOUS
 62
     5
 10
-79.988439
 20
73.572254000000001
 30
0.0
 11
-74.0
 21
73.572254000000001
 31
0.0
  0
LINE
  5
DA
  8
DETAIL
  6
CONTINUOUS
 62
     5
 10
-79.988439
 20
75.283237
 30
0.0
 11
-74.0
 21
75.283237
 31
0.0
  0
LINE
  5
DB
  8
DETAIL
  6
CONTINUOUS
 62
     5
 10
-88.543352999999996
 20
73.572254000000001
 30
0.0
 11
-82.554912999999999
 21
73.572254000000001
 31
0.0
  0
LINE
  5
DC
  8
DETAIL
  6
CONTINUOUS
 62
     5
 10
-88.543352999999996
 20
75.283237
 30
0.0
 11
-82.554912999999999
 21
75.283237
 31
0.0
  0
LINE
  5
DD
  8
DETAIL
  6
CONTINUOUS
 62
     5
 10
-97.09826600000001
 20
73.572254000000001
 30
0.0
 11
-91.109826999999996
 21
73.572254000000001
 31
0.0
  0
LINE
  5
DE
  8
DETAIL
  6
CONTINUOUS
 62
     5
 10
-97.09826600000001
 20
75.283237
 30
0.0
 11
-91.109826999999996
 21
75.283237
 31
0.0
  0
LINE
  5
DF
  8
DETAIL
  6
CONTINUOUS
 62
     5
 10
-105.65317899999999
 20
73.572254000000001
 30
0.0
 11
-99.664740000000009
 21
73.572254000000001
 31
0.0
  0
LINE
  5
E0
  8
DETAIL
  6
CONTINUOUS
 62
     5
 10
-105.65317899999999
 20
75.283237
 30
0.0
 11
-99.664740000000009
 21
75.283237
 31
0.0
  0
LINE
  5
E1
  8
DETAIL
  6
CONTINUOUS
 62
     5
 10
-114.20809199999989
 20
73.572254000000001
 30
0.0
 11
-108.21965299999999
 21
73.572254000000001
 31
0.0
  0
LINE
  5
E2
  8
DETAIL
  6
CONTINUOUS
 62
     5
 10
-114.20809199999989
 20
75.283237
 30
0.0
 11
-108.21965299999999
 21
75.283237
 31
0.0
  0
LINE
  5
E3
  8
DETAIL
  6
CONTINUOUS
 62
     5
 10
-122.763006
 20
73.572254000000001
 30
0.0
 11
-116.77456599999999
 21
73.572254000000001
 31
0.0
  0
LINE
  5
E4
  8
DETAIL
  6
CONTINUOUS
 62
     5
 10
-122.763006
 20
75.283237
 30
0.0
 11
-116.77456599999999
 21
75.283237
 31
0.0
  0
LINE
  5
E5
  8
DETAIL
  6
CONTINUOUS
 62
     5
 10
116.77456599999999
 20
-75.283237
 30
0.0
 11
122.763006
 21
-75.283237
 31
0.0
  0
LINE
  5
E6
  8
DETAIL
  6
CONTINUOUS
 62
     5
 10
116.77456599999999
 20
-73.572254000000001
 30
0.0
 11
122.763006
 21
-73.572254000000001
 31
0.0
  0
LINE
  5
E7
  8
DETAIL
  6
CONTINUOUS
 62
     5
 10
108.21965299999999
 20
-73.572254000000001
 30
0.0
 11
114.20809199999989
 21
-73.572254000000001
 31
0.0
  0
LINE
  5
E8
  8
DETAIL
  6
CONTINUOUS
 62
     5
 10
108.21965299999999
 20
-75.283237
 30
0.0
 11
114.20809199999989
 21
-75.283237
 31
0.0
  0
LINE
  5
E9
  8
DETAIL
  6
CONTINUOUS
 62
     5
 10
99.664740000000009
 20
-73.572254000000001
 30
0.0
 11
105.65317899999999
 21
-73.572254000000001
 31
0.0
  0
LINE
  5
EA
  8
DETAIL
  6
CONTINUOUS
 62
     5
 10
99.664740000000009
 20
-75.283237
 30
0.0
 11
105.65317899999999
 21
-75.283237
 31
0.0
  0
LINE
  5
EB
  8
DETAIL
  6
CONTINUOUS
 62
     5
 10
91.109826999999996
 20
-73.572254000000001
 30
0.0
 11
97.09826600000001
 21
-73.572254000000001
 31
0.0
  0
LINE
  5
EC
  8
DETAIL
  6
CONTINUOUS
 62
     5
 10
91.109826999999996
 20
-75.283237
 30
0.0
 11
97.09826600000001
 21
-75.283237
 31
0.0
  0
LINE
  5
ED
  8
DETAIL
  6
CONTINUOUS
 62
     5
 10
82.554912999999999
 20
-73.572254000000001
 30
0.0
 11
88.543352999999996
 21
-73.572254000000001
 31
0.0
  0
LINE
  5
EE
  8
DETAIL
  6
CONTINUOUS
 62
     5
 10
82.554912999999999
 20
-75.283237
 30
0.0
 11
88.543352999999996
 21
-75.283237
 31
0.0
  0
LINE
  5
EF
  8
DETAIL
  6
CONTINUOUS
 62
     5
 10
74.0
 20
-73.572254000000001
 30
0.0
 11
79.988439
 21
-73.572254000000001
 31
0.0
  0
LINE
  5
F0
  8
DETAIL
  6
CONTINUOUS
 62
     5
 10
74.0
 20
-75.283237
 30
0.0
 11
79.988439
 21
-75.283237
 31
0.0
  0
LINE
  5
F1
  8
DETAIL
  6
CONTINUOUS
 62
     5
 10
65.445087000000001
 20
-73.572254000000001
 30
0.0
 11
71.433526000000001
 21
-73.572254000000001
 31
0.0
  0
LINE
  5
F2
  8
DETAIL
  6
CONTINUOUS
 62
     5
 10
65.445087000000001
 20
-75.283237
 30
0.0
 11
71.433526000000001
 21
-75.283237
 31
0.0
  0
LINE
  5
F3
  8
DETAIL
  6
CONTINUOUS
 62
     5
 10
56.89017299999999
 20
-73.572254000000001
 30
0.0
 11
62.878613000000001
 21
-73.572254000000001
 31
0.0
  0
LINE
  5
F4
  8
DETAIL
  6
CONTINUOUS
 62
     5
 10
56.89017299999999
 20
-75.283237
 30
0.0
 11
62.878613000000001
 21
-75.283237
 31
0.0
  0
LINE
  5
F5
  8
DETAIL
  6
CONTINUOUS
 62
     5
 10
48.335259999999991
 20
-73.572254000000001
 30
0.0
 11
54.323698999999998
 21
-73.572254000000001
 31
0.0
  0
LINE
  5
F6
  8
DETAIL
  6
CONTINUOUS
 62
     5
 10
48.335259999999991
 20
-75.283237
 30
0.0
 11
54.323698999999998
 21
-75.283237
 31
0.0
  0
LINE
  5
F7
  8
DETAIL
  6
CONTINUOUS
 62
     5
 10
39.780346999999999
 20
-73.572254000000001
 30
0.0
 11
45.768785999999992
 21
-73.572254000000001
 31
0.0
  0
LINE
  5
F8
  8
DETAIL
  6
CONTINUOUS
 62
     5
 10
39.780346999999999
 20
-75.283237
 30
0.0
 11
45.768785999999992
 21
-75.283237
 31
0.0
  0
LINE
  5
F9
  8
DETAIL
  6
CONTINUOUS
 62
     5
 10
31.225434
 20
-73.572254000000001
 30
0.0
 11
37.213872999999992
 21
-73.572254000000001
 31
0.0
  0
LINE
  5
FA
  8
DETAIL
  6
CONTINUOUS
 62
     5
 10
31.225434
 20
-75.283237
 30
0.0
 11
37.213872999999992
 21
-75.283237
 31
0.0
  0
LINE
  5
FB
  8
DETAIL
  6
CONTINUOUS
 62
     5
 10
22.67052
 20
-73.572254000000001
 30
0.0
 11
28.65895999999999
 21
-73.572254000000001
 31
0.0
  0
LINE
  5
FC
  8
DETAIL
  6
CONTINUOUS
 62
     5
 10
22.67052
 20
-75.283237
 30
0.0
 11
28.65895999999999
 21
-75.283237
 31
0.0
  0
LINE
  5
FD
  8
DETAIL
  6
CONTINUOUS
 62
     5
 10
14.115607000000001
 20
-73.572254000000001
 30
0.0
 11
20.104046
 21
-73.572254000000001
 31
0.0
  0
LINE
  5
FE
  8
DETAIL
  6
CONTINUOUS
 62
     5
 10
14.115607000000001
 20
-75.283237
 30
0.0
 11
20.104046
 21
-75.283237
 31
0.0
  0
LINE
  5
FF
  8
DETAIL
  6
CONTINUOUS
 62
     5
 10
5.5606939999999989
 20
-73.572254000000001
 30
0.0
 11
11.549132999999999
 21
-73.572254000000001
 31
0.0
  0
LINE
  5
100
  8
DETAIL
  6
CONTINUOUS
 62
     5
 10
5.5606939999999989
 20
-75.283237
 30
0.0
 11
11.549132999999999
 21
-75.283237
 31
0.0
  0
LINE
  5
101
  8
DETAIL
  6
CONTINUOUS
 62
     5
 10
-2.994219999999999
 20
-73.572254000000001
 30
0.0
 11
2.994219999999999
 21
-73.572254000000001
 31
0.0
  0
LINE
  5
102
  8
DETAIL
  6
CONTINUOUS
 62
     5
 10
-2.994219999999999
 20
-75.283237
 30
0.0
 11
2.994219999999999
 21
-75.283237
 31
0.0
  0
LINE
  5
103
  8
DETAIL
  6
CONTINUOUS
 62
     5
 10
-11.549132999999999
 20
-73.572254000000001
 30
0.0
 11
-5.5606939999999989
 21
-73.572254000000001
 31
0.0
  0
LINE
  5
104
  8
DETAIL
  6
CONTINUOUS
 62
     5
 10
-11.549132999999999
 20
-75.283237
 30
0.0
 11
-5.5606939999999989
 21
-75.283237
 31
0.0
  0
LINE
  5
105
  8
DETAIL
  6
CONTINUOUS
 62
     5
 10
-20.104046
 20
-73.572254000000001
 30
0.0
 11
-14.115607000000001
 21
-73.572254000000001
 31
0.0
  0
LINE
  5
106
  8
DETAIL
  6
CONTINUOUS
 62
     5
 10
-20.104046
 20
-75.283237
 30
0.0
 11
-14.115607000000001
 21
-75.283237
 31
0.0
  0
LINE
  5
107
  8
DETAIL
  6
CONTINUOUS
 62
     5
 10
-28.65895999999999
 20
-73.572254000000001
 30
0.0
 11
-22.67052
 21
-73.572254000000001
 31
0.0
  0
LINE
  5
108
  8
DETAIL
  6
CONTINUOUS
 62
     5
 10
-28.65895999999999
 20
-75.283237
 30
0.0
 11
-22.67052
 21
-75.283237
 31
0.0
  0
LINE
  5
109
  8
DETAIL
  6
CONTINUOUS
 62
     5
 10
-37.213872999999992
 20
-73.572254000000001
 30
0.0
 11
-31.225434
 21
-73.572254000000001
 31
0.0
  0
LINE
  5
10A
  8
DETAIL
  6
CONTINUOUS
 62
     5
 10
-37.213872999999992
 20
-75.283237
 30
0.0
 11
-31.225434
 21
-75.283237
 31
0.0
  0
LINE
  5
10B
  8
DETAIL
  6
CONTINUOUS
 62
     5
 10
-45.768785999999992
 20
-73.572254000000001
 30
0.0
 11
-39.780346999999999
 21
-73.572254000000001
 31
0.0
  0
LINE
  5
10C
  8
DETAIL
  6
CONTINUOUS
 62
     5
 10
-45.768785999999992
 20
-75.283237
 30
0.0
 11
-39.780346999999999
 21
-75.283237
 31
0.0
  0
LINE
  5
10D
  8
DETAIL
  6
CONTINUOUS
 62
     5
 10
-54.323698999999998
 20
-73.572254000000001
 30
0.0
 11
-48.335259999999991
 21
-73.572254000000001
 31
0.0
  0
LINE
  5
10E
  8
DETAIL
  6
CONTINUOUS
 62
     5
 10
-54.323698999999998
 20
-75.283237
 30
0.0
 11
-48.335259999999991
 21
-75.283237
 31
0.0
  0
LINE
  5
10F
  8
DETAIL
  6
CONTINUOUS
 62
     5
 10
-62.878613000000001
 20
-73.572254000000001
 30
0.0
 11
-56.89017299999999
 21
-73.572254000000001
 31
0.0
  0
LINE
  5
110
  8
DETAIL
  6
CONTINUOUS
 62
     5
 10
-62.878613000000001
 20
-75.283237
 30
0.0
 11
-56.89017299999999
 21
-75.283237
 31
0.0
  0
LINE
  5
111
  8
DETAIL
  6
CONTINUOUS
 62
     5
 10
-71.433526000000001
 20
-73.572254000000001
 30
0.0
 11
-65.445087000000001
 21
-73.572254000000001
 31
0.0
  0
LINE
  5
112
  8
DETAIL
  6
CONTINUOUS
 62
     5
 10
-71.433526000000001
 20
-75.283237
 30
0.0
 11
-65.445087000000001
 21
-75.283237
 31
0.0
  0
LINE
  5
113
  8
DETAIL
  6
CONTINUOUS
 62
     5
 10
-79.988439
 20
-73.572254000000001
 30
0.0
 11
-74.0
 21
-73.572254000000001
 31
0.0
  0
LINE
  5
114
  8
DETAIL
  6
CONTINUOUS
 62
     5
 10
-79.988439
 20
-75.283237
 30
0.0
 11
-74.0
 21
-75.283237
 31
0.0
  0
LINE
  5
115
  8
DETAIL
  6
CONTINUOUS
 62
     5
 10
-88.543352999999996
 20
-73.572254000000001
 30
0.0
 11
-82.554912999999999
 21
-73.572254000000001
 31
0.0
  0
LINE
  5
116
  8
DETAIL
  6
CONTINUOUS
 62
     5
 10
-88.543352999999996
 20
-75.283237
 30
0.0
 11
-82.554912999999999
 21
-75.283237
 31
0.0
  0
LINE
  5
117
  8
DETAIL
  6
CONTINUOUS
 62
     5
 10
-97.09826600000001
 20
-73.572254000000001
 30
0.0
 11
-91.109826999999996
 21
-73.572254000000001
 31
0.0
  0
LINE
  5
118
  8
DETAIL
  6
CONTINUOUS
 62
     5
 10
-97.09826600000001
 20
-75.283237
 30
0.0
 11
-91.109826999999996
 21
-75.283237
 31
0.0
  0
LINE
  5
119
  8
DETAIL
  6
CONTINUOUS
 62
     5
 10
-105.65317899999999
 20
-73.572254000000001
 30
0.0
 11
-99.664740000000009
 21
-73.572254000000001
 31
0.0
  0
LINE
  5
11A
  8
DETAIL
  6
CONTINUOUS
 62
     5
 10
-105.65317899999999
 20
-75.283237
 30
0.0
 11
-99.664740000000009
 21
-75.283237
 31
0.0
  0
LINE
  5
11B
  8
DETAIL
  6
CONTINUOUS
 62
     5
 10
-114.20809199999989
 20
-73.572254000000001
 30
0.0
 11
-108.21965299999999
 21
-73.572254000000001
 31
0.0
  0
LINE
  5
11C
  8
DETAIL
  6
CONTINUOUS
 62
     5
 10
-114.20809199999989
 20
-75.283237
 30
0.0
 11
-108.21965299999999
 21
-75.283237
 31
0.0
  0
LINE
  5
11D
  8
DETAIL
  6
CONTINUOUS
 62
     5
 10
-122.763006
 20
-73.572254000000001
 30
0.0
 11
-116.77456599999999
 21
-73.572254000000001
 31
0.0
  0
LINE
  5
11E
  8
DETAIL
  6
CONTINUOUS
 62
     5
 10
-122.763006
 20
-75.283237
 30
0.0
 11
-116.77456599999999
 21
-75.283237
 31
0.0
  0
ARC
  5
11F
  8
DETAIL
  6
CONTINUOUS
 62
     5
 10
0.0
 20
0.0
 30
0.0
 40
114.63583799999989
 50
140.07449700000001
 51
140.5688219999999
  0
ARC
  5
120
  8
DETAIL
  6
CONTINUOUS
 62
     5
 10
0.0
 20
0.0
 30
0.0
 40
114.63583799999989
 50
39.431178000000003
 51
39.925502999999999
  0
ARC
  5
121
  8
DETAIL
  6
CONTINUOUS
 62
     5
 10
107.36416199999999
 20
107.36416199999999
 30
0.0
 40
15.398844
 50
0.0
 51
90.0
  0
LINE
  5
122
  8
DETAIL
  6
CONTINUOUS
 62
     5
 10
-140.5
 20
145.5
 30
0.0
 11
140.5
 21
145.5
 31
0.0
  0
LINE
  5
123
  8
DETAIL
  6
CONTINUOUS
 62
     5
 10
-145.5
 20
140.5
 30
0.0
 11
-145.5
 21
-140.5
 31
0.0
  0
LINE
  5
124
  8
DETAIL
  6
CONTINUOUS
 62
     5
 10
-140.5
 20
-145.5
 30
0.0
 11
140.5
 21
-145.5
 31
0.0
  0
LINE
  5
125
  8
DETAIL
  6
CONTINUOUS
 62
     5
 10
145.5
 20
140.5
 30
0.0
 11
145.5
 21
-140.5
 31
0.0
  0
ARC
  5
126
  8
DETAIL
  6
CONTINUOUS
 62
     5
 10
-140.5
 20
140.5
 30
0.0
 40
5.0
 50
90.0
 51
180.0
  0
ARC
  5
127
  8
DETAIL
  6
CONTINUOUS
 62
     5
 10
-140.5
 20
-140.5
 30
0.0
 40
5.0
 50
180.0
 51
270.0
  0
ARC
  5
128
  8
DETAIL
  6
CONTINUOUS
 62
     5
 10
140.5
 20
-140.5
 30
0.0
 40
5.0
 50
270.0
 51
0.0
  0
ARC
  5
129
  8
DETAIL
  6
CONTINUOUS
 62
     5
 10
140.5
 20
140.5
 30
0.0
 40
5.0
 50
0.0
 51
90.0
  0
ARC
  5
12A
  8
DETAIL
  6
CONTINUOUS
 62
     5
 10
-142.0
 20
142.0
 30
0.0
 40
6.0
 50
90.0
 51
180.0
  0
ARC
  5
12B
  8
DETAIL
  6
CONTINUOUS
 62
     5
 10
-142.0
 20
-142.0
 30
0.0
 40
6.0
 50
180.0
 51
270.0
  0
ARC
  5
12C
  8
DETAIL
  6
CONTINUOUS
 62
     5
 10
142.0
 20
-142.0
 30
0.0
 40
6.0
 50
270.0
 51
0.0
  0
ARC
  5
12D
  8
DETAIL
  6
CONTINUOUS
 62
     5
 10
142.0
 20
142.0
 30
0.0
 40
6.0
 50
0.0
 51
90.0
  0
ARC
  5
12E
  8
OUTLINE
  6
CONTINUOUS
 62
     3
 10
-142.0
 20
142.0
 30
0.0
 40
6.0
 50
90.0
 51
180.0
  0
ARC
  5
12F
  8
OUTLINE
  6
CONTINUOUS
 62
     3
 10
-142.0
 20
-142.0
 30
0.0
 40
6.0
 50
180.0
 51
270.0
  0
ARC
  5
130
  8
OUTLINE
  6
CONTINUOUS
 62
     3
 10
142.0
 20
-142.0
 30
0.0
 40
6.0
 50
270.0
 51
0.0
  0
ARC
  5
131
  8
OUTLINE
  6
CONTINUOUS
 62
     3
 10
142.0
 20
142.0
 30
0.0
 40
6.0
 50
0.0
 51
90.0
  0
TEXT
  5
140
  8
ETC
  6
CONTINUOUS
 62
    61
 10
433.94354468257421
 20
-110.5411640179404
 30
0.0
 40
50.0
  1
EX-20SK5-C
 41
0.9
  0
TEXT
  5
141
  8
ETC
  6
CONTINUOUS
 62
    61
 10
429.28591826938242
 20
-26.73606282075184
 30
0.0
 40
50.0
  1
EX-20RK5-C
 41
0.9
  0
TEXT
  5
142
  8
ETC
  6
CONTINUOUS
 62
    61
 10
426.95710506278698
 20
52.413198097777922
 30
0.0
 40
50.0
  1
EX-20LK5-M
 41
0.9
  0
TEXT
  5
143
  8
ETC
  6
CONTINUOUS
 62
    61
 10
429.28591826938242
 20
131.5624590163072
 30
0.0
 40
50.0
  1
EX-20LK5-C
 41
0.9
  0
TEXT
  5
144
  8
ETC
  6
CONTINUOUS
 62
    61
 10
424.62829185619108
 20
210.71172210017059
 30
0.0
 40
50.0
  1
EX-20EK5-M
 41
0.9
  0
TEXT
  5
145
  8
ETC
  6
CONTINUOUS
 62
    61
 10
292.74351803016691
 20
467.85693653471412
 30
0.0
 40
64.0
  1
EX-20EK5-C_2
 41
0.9
  0
TEXT
  5
146
  8
ETC
  6
CONTINUOUS
 62
    61
 10
422.2994786495957
 20
288.9724642451954
 30
0.0
 40
50.0
  1
EX-20EK5-C
 41
0.9
  0
TEXT
  5
147
  8
ETC
  6
CONTINUOUS
 62
    61
 10
284.67004003016689
 20
369.83821153471411
 30
0.0
 40
64.0
  1
換気扇
 41
0.9
  0
ENDSEC
  0
EOF
