  0
SECTION
  2
HEADER
  9
$ACADVER
  1
AC1009
  9
$DWGCODEPAGE
  3
dos932
  9
$INSBASE
 10
0.0
 20
0.0
 30
0.0
  9
$EXTMIN
 10
-433.07686741436368
 20
-262.09314485552522
 30
0.0
  9
$EXTMAX
 10
1128.9484749103119
 20
587.84706455563355
 30
0.0
  9
$LIMMIN
 10
-2970.0
 20
-2100.0
  9
$LIMMAX
 10
2970.0
 20
2100.0
  9
$ORTHOMODE
 70
     1
  9
$REGENMODE
 70
     1
  9
$FILLMODE
 70
     1
  9
$QTEXTMODE
 70
     0
  9
$MIRRTEXT
 70
     0
  9
$LTSCALE
 40
20.0
  9
$ATTMODE
 70
     1
  9
$TEXTSIZE
 40
64.0
  9
$TRACEWID
 40
0.05
  9
$TEXTSTYLE
  7
STANDARD
  9
$CLAYER
  8
NOTE
  9
$CELTYPE
  6
CONTINUOUS
  9
$CECOLOR
 62
     7
  9
$DIMSCALE
 40
1.0
  9
$DIMASZ
 40
12.0
  9
$DIMEXO
 40
20.0
  9
$DIMDLI
 40
200.0
  9
$DIMRND
 40
0.0
  9
$DIMDLE
 40
0.0
  9
$DIMEXE
 40
20.0
  9
$DIMTP
 40
0.0
  9
$DIMTM
 40
0.0
  9
$DIMTXT
 40
64.0
  9
$DIMCEN
 40
0.09
  9
$DIMTSZ
 40
0.0
  9
$DIMTOL
 70
     0
  9
$DIMLIM
 70
     0
  9
$DIMTIH
 70
     0
  9
$DIMTOH
 70
     0
  9
$DIMSE1
 70
     0
  9
$DIMSE2
 70
     0
  9
$DIMTAD
 70
     1
  9
$DIMZIN
 70
     8
  9
$DIMBLK
  1

  9
$DIMASO
 70
     1
  9
$DIMSHO
 70
     0
  9
$DIMPOST
  1

  9
$DIMAPOST
  1

  9
$DIMALT
 70
     0
  9
$DIMALTD
 70
     2
  9
$DIMALTF
 40
25.399999999999999
  9
$DIMLFAC
 40
1.0
  9
$DIMTOFL
 70
     1
  9
$DIMTVP
 40
0.0
  9
$DIMTIX
 70
     1
  9
$DIMSOXD
 70
     0
  9
$DIMSAH
 70
     0
  9
$DIMBLK1
  1

  9
$DIMBLK2
  1

  9
$DIMSTYLE
  2
STANDARD
  9
$DIMCLRD
 70
     7
  9
$DIMCLRE
 70
     7
  9
$DIMCLRT
 70
     7
  9
$DIMTFAC
 40
1.0
  9
$DIMGAP
 40
25.0
  9
$LUNITS
 70
     2
  9
$LUPREC
 70
     4
  9
$SKETCHINC
 40
0.1
  9
$FILLETRAD
 40
3.0
  9
$AUNITS
 70
     1
  9
$AUPREC
 70
     3
  9
$MENU
  1
ACAD
  9
$ELEVATION
 40
0.0
  9
$PELEVATION
 40
0.0
  9
$THICKNESS
 40
50.0
  9
$LIMCHECK
 70
     0
  9
$CHAMFERA
 40
0.0
  9
$CHAMFERB
 40
0.0
  9
$SKPOLY
 70
     0
  9
$TDCREATE
 40
2453019.62301037
  9
$TDUPDATE
 40
2459017.506844248
  9
$TDINDWG
 40
1.7133360995
  9
$TDUSRTIMER
 40
1.7133360995
  9
$USRTIMER
 70
     1
  9
$ANGBASE
 50
0.0
  9
$ANGDIR
 70
     0
  9
$PDMODE
 70
     3
  9
$PDSIZE
 40
-2.0
  9
$PLINEWID
 40
0.0
  9
$SPLFRAME
 70
     0
  9
$SPLINETYPE
 70
     6
  9
$SPLINESEGS
 70
     8
  9
$SURFTAB1
 70
     6
  9
$SURFTAB2
 70
     6
  9
$SURFTYPE
 70
     6
  9
$SURFU
 70
     6
  9
$SURFV
 70
     6
  9
$UCSNAME
  2

  9
$UCSORG
 10
0.0
 20
0.0
 30
0.0
  9
$UCSXDIR
 10
1.0
 20
0.0
 30
0.0
  9
$UCSYDIR
 10
0.0
 20
1.0
 30
0.0
  9
$PUCSNAME
  2

  9
$PUCSORG
 10
0.0
 20
0.0
 30
0.0
  9
$PUCSXDIR
 10
1.0
 20
0.0
 30
0.0
  9
$PUCSYDIR
 10
0.0
 20
1.0
 30
0.0
  9
$USERI1
 70
     0
  9
$USERI2
 70
     0
  9
$USERI3
 70
     0
  9
$USERI4
 70
     0
  9
$USERI5
 70
     0
  9
$USERR1
 40
20.0
  9
$USERR2
 40
0.0
  9
$USERR3
 40
0.0
  9
$USERR4
 40
0.0
  9
$USERR5
 40
0.0
  9
$WORLDVIEW
 70
     1
  9
$SHADEDGE
 70
     3
  9
$SHADEDIF
 70
    70
  9
$TILEMODE
 70
     1
  9
$MAXACTVP
 70
    48
  9
$PINSBASE
 10
0.0
 20
0.0
 30
0.0
  9
$PLIMCHECK
 70
     0
  9
$PEXTMIN
 10
-100000000000000000000.0
 20
-100000000000000000000.0
 30
-100000000000000000000.0
  9
$PEXTMAX
 10
100000000000000000000.0
 20
100000000000000000000.0
 30
100000000000000000000.0
  9
$PLIMMIN
 10
0.0
 20
0.0
  9
$PLIMMAX
 10
12.0
 20
9.0
  9
$UNITMODE
 70
     0
  9
$VISRETAIN
 70
     0
  9
$PLINEGEN
 70
     0
  9
$PSLTSCALE
 70
     0
  9
$TREEDEPTH
 70
  3020
  9
$ATTDIA
 70
     0
  9
$ATTREQ
 70
     1
  9
$BLIPMODE
 70
     1
  9
$COORDS
 70
     1
  9
$DRAGMODE
 70
     2
  9
$OSMODE
 70
     0
  9
$HANDLING
 70
     0
  9
$HANDSEED
  5
E679
  0
ENDSEC
  0
SECTION
  2
TABLES
  0
TABLE
  2
LTYPE
 70
     2
  0
LTYPE
  2
CONTINUOUS
 70
     0
  3
実線
 72
    65
 73
     0
 40
0.0
  0
LTYPE
  2
DASHDOT
 70
     0
  3
____ _ ____ _ ____ _ ____ _ ____ _ ____ _ ____
 72
    65
 73
     4
 40
5.5
 49
4.0
 49
-0.6
 49
0.3
 49
-0.6
  0
ENDTAB
  0
TABLE
  2
LAYER
 70
    12
  0
LAYER
  2
0
 70
     0
 62
     7
  6
CONTINUOUS
  0
LAYER
  2
BASIS
 70
     0
 62
     6
  6
DASHDOT
  0
LAYER
  2
OUTLINE
 70
     0
 62
     3
  6
CONTINUOUS
  0
LAYER
  2
DETAIL
 70
     0
 62
     5
  6
CONTINUOUS
  0
LAYER
  2
SIZE
 70
     0
 62
    30
  6
CONTINUOUS
  0
LAYER
  2
ARRANGE
 70
     0
 62
     1
  6
CONTINUOUS
  0
LAYER
  2
ETC
 70
     0
 62
    61
  6
CONTINUOUS
  0
LAYER
  2
FIX
 70
     0
 62
    11
  6
CONTINUOUS
  0
LAYER
  2
NOTE
 70
     0
 62
     4
  6
CONTINUOUS
  0
LAYER
  2
DEFPOINTS
 70
    64
 62
     7
  6
CONTINUOUS
  0
LAYER
  2
SERVICESPACE
 70
    64
 62
     2
  6
DASHDOT
  0
LAYER
  2
SYMBOLLINE
 70
    64
 62
    15
  6
CONTINUOUS
  0
ENDTAB
  0
TABLE
  2
STYLE
 70
     1
  0
STYLE
  2
STANDARD
 70
     0
 40
64.0
 41
0.9
 50
0.0
 71
     0
 42
64.0
  3
SIMPLEX.shx
  4
BIGFONT.shx
  0
ENDTAB
  0
TABLE
  2
APPID
 70
    17
  0
APPID
  2
ACAD
 70
     0
  0
APPID
  2
AUTOCAD_POSTSCRIPT_FIGURE
 70
     0
  0
APPID
  2
ACAD_EXEMPT_FROM_CAD_STANDARDS
 70
     0
  0
APPID
  2
ACAD_PSEXT
 70
     0
  0
APPID
  2
ACAUTHENVIRON
 70
     0
  0
APPID
  2
GENIUS_GENOENT_13
 70
     0
  0
APPID
  2
GENIUS_GENCFG_13
 70
     0
  0
APPID
  2
GENIUS_GENCFG0_13
 70
     0
  0
APPID
  2
GENIUS_GENCFG1_13
 70
     0
  0
APPID
  2
GENIUS_GENCFG2_13
 70
     0
  0
APPID
  2
GENIUS_GENCFG3_13
 70
     0
  0
APPID
  2
GENIUS_GENCFG4_13
 70
     0
  0
APPID
  2
GENIUS_GEVCFG0_13
 70
     0
  0
APPID
  2
CONTENTBLOCKICON
 70
     0
  0
APPID
  2
CONTENTBLOCKDESCRIPTION
 70
     0
  0
APPID
  2
ACAD_NAV_VCDISPLAY
 70
     0
  0
APPID
  2
ACAD_MLEADERVER
 70
     0
  0
ENDTAB
  0
TABLE
  2
DIMSTYLE
 70
     1
  0
DIMSTYLE
  2
STANDARD
 70
     0
  3

  4

  5
_ORIGIN
  6

  7

 40
1.0
 41
12.0
 42
20.0
 43
200.0
 44
20.0
 45
0.0
 46
0.0
 47
0.0
 48
0.0
140
64.0
141
0.09
142
0.0
143
25.399999999999999
144
1.0
145
0.0
146
1.0
147
25.0
 71
     0
 72
     0
 73
     0
 74
     0
 75
     0
 76
     0
 77
     1
 78
     8
170
     0
171
     2
172
     1
173
     0
174
     1
175
     0
176
     7
177
     7
178
     7
  0
ENDTAB
  0
TABLE
  2
VIEW
 70
     1
  0
VIEW
  2
ALL
 70
     0
 40
4282.6198079999986
 10
0.0
 20
41.309904000000003
 41
5940.0
 11
0.0
 21
0.0
 31
1.0
 12
0.0
 22
0.0
 32
0.0
 42
50.0
 43
0.0
 44
0.0
 50
0.0
 71
     0
  0
ENDTAB
  0
TABLE
  2
UCS
 70
     0
  0
ENDTAB
  0
TABLE
  2
VPORT
 70
     1
  0
VPORT
  2
*ACTIVE
 70
     0
 10
0.0
 20
0.0
 11
1.0
 21
1.0
 12
347.93580374797392
 22
162.87695985005419
 13
0.0
 23
0.0
 14
1.0
 24
1.0
 15
0.0
 25
0.0
 16
0.0
 26
0.0
 36
1.0
 17
0.0
 27
0.0
 37
0.0
 40
897.10587270063468
 41
1.747787610619469
 42
50.0
 43
0.0
 44
0.0
 50
0.0
 51
0.0
 71
     0
 72
  1000
 73
     1
 74
     3
 75
     0
 76
     0
 77
     0
 78
     0
  0
ENDTAB
  0
ENDSEC
  0
SECTION
  2
BLOCKS
  0
BLOCK
  8
0
  2
_ORIGIN
 70
     0
 10
0.0
 20
0.0
 30
0.0
  3
_ORIGIN
  1
_ORIGIN
  0
CIRCLE
  8
0
  6
CONTINUOUS
 62
     7
 10
0.0
 20
0.0
 30
0.0
 40
0.5
  0
LINE
  8
0
  6
CONTINUOUS
 62
     7
 10
0.0
 20
0.0
 30
0.0
 11
-1.0
 21
0.0
 31
0.0
  0
ENDBLK
  8
0
  0
ENDSEC
  0
SECTION
  2
ENTITIES
  0
CIRCLE
  8
ARRANGE
  6
CONTINUOUS
 62
     1
 10
0.0
 20
0.0
 30
0.0
 40
40.0
  0
POINT
  8
ARRANGE
  6
CONTINUOUS
 62
     1
 10
0.0
 20
0.0
 30
0.0
  0
LINE
  8
BASIS
  6
DASHDOT
 62
     6
 10
0.0
 20
-109.2854010143142
 30
0.0
 11
0.0
 21
167.7480771621872
 31
0.0
  0
LINE
  8
DETAIL
  6
CONTINUOUS
 62
     5
 10
-38.743976294564391
 20
-36.02624371842694
 30
0.0
 11
-36.035064722697371
 21
-38.057927397252797
 31
0.0
  0
LINE
  8
DETAIL
  6
CONTINUOUS
 62
     5
 10
-31.055351250431389
 20
-41.792712501377309
 30
0.0
 11
-24.88050654499466
 21
-46.423846030492307
 31
0.0
  0
LINE
  8
DETAIL
  6
CONTINUOUS
 62
     5
 10
-31.055351250431389
 20
-41.41923399096504
 30
0.0
 11
-35.537093375381119
 21
-38.057927397252797
 31
0.0
  0
LINE
  8
DETAIL
  6
CONTINUOUS
 62
     5
 10
24.51825109894617
 20
-46.423846030492307
 30
0.0
 11
-24.88050654499466
 21
-46.423846030492307
 31
0.0
  0
LINE
  8
DETAIL
  6
CONTINUOUS
 62
     5
 10
-31.055351250431389
 20
-41.792712501377309
 30
0.0
 11
30.693095804382889
 21
-41.792712501377309
 31
0.0
  0
LINE
  8
DETAIL
  6
CONTINUOUS
 62
     5
 10
30.693095804382889
 20
-41.41923399096504
 30
0.0
 11
-31.055351250431389
 21
-41.41923399096504
 31
0.0
  0
LINE
  8
DETAIL
  6
CONTINUOUS
 62
     5
 10
-36.035064722697371
 20
-38.057927397252797
 30
0.0
 11
35.672809276499493
 21
-38.057927397252797
 31
0.0
  0
LINE
  8
DETAIL
  6
CONTINUOUS
 62
     5
 10
38.381720848515897
 20
-36.02624371842694
 30
0.0
 11
35.672809276499493
 21
-38.057927397252797
 31
0.0
  0
LINE
  8
DETAIL
  6
CONTINUOUS
 62
     5
 10
30.693095804382889
 20
-41.792712501377309
 30
0.0
 11
24.51825109894617
 21
-46.423846030492307
 31
0.0
  0
LINE
  8
DETAIL
  6
CONTINUOUS
 62
     5
 10
30.693095804382889
 20
-41.41923399096504
 30
0.0
 11
35.174837929332632
 21
-38.057927397252797
 31
0.0
  0
LINE
  8
DETAIL
  6
CONTINUOUS
 62
     5
 10
30.693095804382889
 20
-41.792712501377309
 30
0.0
 11
30.693095804382889
 21
-41.41923399096504
 31
0.0
  0
LINE
  8
DETAIL
  6
CONTINUOUS
 62
     5
 10
-31.055351250431389
 20
-41.792712501377309
 30
0.0
 11
-31.055351250431389
 21
-41.41923399096504
 31
0.0
  0
LINE
  8
DETAIL
  6
CONTINUOUS
 62
     5
 10
134.8409853836599
 20
0.0
 30
0.0
 11
-117.7175281505629
 21
0.0
 31
0.0
  0
ARC
  8
DETAIL
  6
CONTINUOUS
 62
     5
 10
120.2635815583992
 20
0.4526868995774294
 30
0.0
 40
0.4493035425592903
 50
180.0
 51
270.0
  0
LINE
  8
DETAIL
  6
CONTINUOUS
 62
     5
 10
119.81427801584
 20
0.4526868995774294
 30
0.0
 11
119.81427801584
 21
1.501061832216237
 31
0.0
  0
LINE
  8
DETAIL
  6
CONTINUOUS
 62
     5
 10
119.81427801584
 20
1.4976784751982
 30
0.0
 11
119.81427801584
 21
25.36407220370393
 31
0.0
  0
LINE
  8
DETAIL
  6
CONTINUOUS
 62
     5
 10
119.81427801584
 20
73.888854800119589
 30
0.0
 11
119.81427801584
 21
89.864091868898186
 31
0.0
  0
LINE
  8
DETAIL
  6
CONTINUOUS
 62
     5
 10
119.81427801584
 20
49.276245710914282
 30
0.0
 11
119.81427801584
 21
72.391176324921616
 31
0.0
  0
LINE
  8
DETAIL
  6
CONTINUOUS
 62
     5
 10
119.81427801584
 20
25.460534078366209
 30
0.0
 11
119.81427801584
 21
49.326927806871943
 31
0.0
  0
LINE
  8
DETAIL
  6
CONTINUOUS
 62
     5
 10
119.360622871621
 20
89.86070851187992
 30
0.0
 11
-119.71443278416019
 21
89.86070851187992
 31
0.0
  0
ARC
  8
DETAIL
  6
CONTINUOUS
 62
     5
 10
-120.1637363267196
 20
0.4493035425593916
 30
0.0
 40
0.4493035425593462
 50
270.0
 51
0.0
  0
LINE
  8
DETAIL
  6
CONTINUOUS
 62
     5
 10
-120.1637363267196
 20
0.0
 30
0.0
 11
-139.8332469676532
 21
0.0
 31
0.0
  0
LINE
  8
DETAIL
  6
CONTINUOUS
 62
     5
 10
-119.71443278416019
 20
0.4493035425593916
 30
0.0
 11
-119.71443278416019
 21
1.996904633597524
 31
0.0
  0
LINE
  8
DETAIL
  6
CONTINUOUS
 62
     5
 10
147.39875092224881
 20
-34.948688460122177
 30
0.0
 11
147.9999201370035
 21
-0.5077272150113004
 31
0.0
  0
LINE
  8
DETAIL
  6
CONTINUOUS
 62
     5
 10
145.0746105811954
 20
-62.893704720122059
 30
0.0
 11
145.2054185110037
 21
-55.399723440011478
 31
0.0
  0
LINE
  8
DETAIL
  6
CONTINUOUS
 62
     5
 10
140.99527369357219
 20
-54.891996225000177
 30
0.0
 11
141.32626867180511
 21
-35.929306620000261
 31
0.0
  0
LINE
  8
DETAIL
  6
CONTINUOUS
 62
     5
 10
129.47256225142789
 20
-54.891996225000177
 30
0.0
 11
129.14156727309501
 21
-35.929306620000261
 31
0.0
  0
LINE
  8
DETAIL
  6
CONTINUOUS
 62
     5
 10
125.05394776350001
 20
-54.891996225000177
 30
0.0
 11
125.05394776350001
 21
-35.929306620000261
 31
0.0
  0
LINE
  8
DETAIL
  6
CONTINUOUS
 62
     5
 10
123.2574824325
 20
-54.891996225000177
 30
0.0
 11
123.2574824325
 21
-35.929306620000261
 31
0.0
  0
LINE
  8
DETAIL
  6
CONTINUOUS
 62
     5
 10
128.49545222894841
 20
-54.891996225000177
 30
0.0
 11
125.05394776350001
 21
-38.923415505000321
 31
0.0
  0
LINE
  8
DETAIL
  6
CONTINUOUS
 62
     5
 10
144.0767262919135
 20
-63.874322880000143
 30
0.0
 11
-144.07672629201329
 21
-63.874322880000143
 31
0.0
  0
LINE
  8
DETAIL
  6
CONTINUOUS
 62
     5
 10
-144.70647636636289
 20
-54.891996225000177
 30
0.0
 11
144.70647636636289
 21
-54.891996225000177
 31
0.0
  0
LINE
  8
DETAIL
  6
CONTINUOUS
 62
     5
 10
123.2574824325
 20
-36.927342915000281
 30
0.0
 11
125.05394776350001
 21
-36.927342915000281
 31
0.0
  0
LINE
  8
DETAIL
  6
CONTINUOUS
 62
     5
 10
-123.2574824325
 20
-36.927342915000281
 30
0.0
 11
-125.05394776350001
 21
-36.927342915000281
 31
0.0
  0
LINE
  8
DETAIL
  6
CONTINUOUS
 62
     5
 10
146.40086663296731
 20
-35.929306620000261
 30
0.0
 11
-146.4008666330669
 21
-35.929306620000261
 31
0.0
  0
LINE
  8
DETAIL
  6
CONTINUOUS
 62
     5
 10
-147.50097799236261
 20
-0.0000000000002274
 30
0.0
 11
91.819339140000011
 21
-0.0000000000002274
 31
0.0
  0
LINE
  8
DETAIL
  6
CONTINUOUS
 62
     5
 10
101.79970209
 20
-0.0000000000002274
 30
0.0
 11
147.50097799236281
 21
-0.0000000000002274
 31
0.0
  0
LINE
  8
DETAIL
  6
CONTINUOUS
 62
     5
 10
-123.2574824325
 20
-54.891996225000177
 30
0.0
 11
-123.2574824325
 21
-35.929306620000261
 31
0.0
  0
LINE
  8
DETAIL
  6
CONTINUOUS
 62
     5
 10
-128.4954522290482
 20
-54.891996225000177
 30
0.0
 11
-125.05394776350001
 21
-38.923415505000321
 31
0.0
  0
LINE
  8
DETAIL
  6
CONTINUOUS
 62
     5
 10
-125.05394776350001
 20
-54.891996225000177
 30
0.0
 11
-125.05394776350001
 21
-35.929306620000261
 31
0.0
  0
LINE
  8
DETAIL
  6
CONTINUOUS
 62
     5
 10
-129.47256225142749
 20
-54.891996225000177
 30
0.0
 11
-129.1415672731948
 21
-35.929306620000261
 31
0.0
  0
LINE
  8
DETAIL
  6
CONTINUOUS
 62
     5
 10
-140.99527369357219
 20
-54.891996225000177
 30
0.0
 11
-141.3262686719049
 21
-35.929306620000261
 31
0.0
  0
LINE
  8
DETAIL
  6
CONTINUOUS
 62
     5
 10
-145.0746105811954
 20
-62.893704720122059
 30
0.0
 11
-145.2054185110037
 21
-55.399723440011478
 31
0.0
  0
LINE
  8
DETAIL
  6
CONTINUOUS
 62
     5
 10
-147.39875092224881
 20
-34.948688460122177
 30
0.0
 11
-147.9999201370035
 21
-0.5077272150113004
 31
0.0
  0
ARC
  8
DETAIL
  6
CONTINUOUS
 62
     5
 10
-144.07672629201329
 20
-62.876286585000123
 30
0.0
 40
0.9980362950000121
 50
180.99999999998869
 51
270.02970728759459
  0
ARC
  8
DETAIL
  6
CONTINUOUS
 62
     5
 10
144.0767262919135
 20
-62.876286585000123
 30
0.0
 40
0.998036295
 50
270.0
 51
358.99999999999818
  0
ARC
  8
DETAIL
  6
CONTINUOUS
 62
     5
 10
-146.4008666330669
 20
-34.931270325000241
 30
0.0
 40
0.9980362950000121
 50
180.99999999998869
 51
270.0
  0
ARC
  8
DETAIL
  6
CONTINUOUS
 62
     5
 10
146.4008612657276
 20
-34.931270325000241
 30
0.0
 40
0.998036295000024
 50
270.0003081294962
 51
359.00000537740527
  0
ARC
  8
DETAIL
  6
CONTINUOUS
 62
     5
 10
-144.70647636636289
 20
-55.391014372500187
 30
0.0
 40
0.4990181475
 50
90.0
 51
181.00000000000179
  0
ARC
  8
DETAIL
  6
CONTINUOUS
 62
     5
 10
144.70647636636289
 20
-55.391014372500187
 30
0.0
 40
0.4990181475000079
 50
358.99999999999818
 51
90.0
  0
ARC
  8
DETAIL
  6
CONTINUOUS
 62
     5
 10
-147.50097124683501
 20
-0.4990181475002373
 30
0.0
 40
0.49901814749998
 50
90.000774500601679
 51
180.99998648360369
  0
ARC
  8
DETAIL
  6
CONTINUOUS
 62
     5
 10
147.50097799236281
 20
-0.4990181475002373
 30
0.0
 40
0.4990181475000079
 50
358.99999999999818
 51
90.0
  0
LINE
  8
DETAIL
  6
CONTINUOUS
 62
     5
 10
119.81427801584
 20
13.379261045101661
 30
0.0
 11
119.81427801584
 21
13.48248963380024
 31
0.0
  0
LINE
  8
DETAIL
  6
CONTINUOUS
 62
     5
 10
119.81427801584
 20
25.36407220370393
 30
0.0
 11
119.81427801584
 21
25.460534078366209
 31
0.0
  0
LINE
  8
DETAIL
  6
CONTINUOUS
 62
     5
 10
119.81427801584
 20
61.304972251437903
 30
0.0
 11
119.81427801584
 21
61.408200840136033
 31
0.0
  0
LINE
  8
DETAIL
  6
CONTINUOUS
 62
     5
 10
119.81427801584
 20
49.326927806871943
 30
0.0
 11
119.81427801584
 21
49.423389681533763
 31
0.0
  0
LINE
  8
DETAIL
  6
CONTINUOUS
 62
     5
 10
119.81427801584
 20
37.342116648269673
 30
0.0
 11
119.81427801584
 21
37.445345236968478
 31
0.0
  0
LINE
  8
DETAIL
  6
CONTINUOUS
 62
     5
 10
119.81427801584
 20
72.391176324921616
 30
0.0
 11
119.81427801584
 21
73.888854800119589
 31
0.0
  0
LINE
  8
DETAIL
  6
CONTINUOUS
 62
     5
 10
-119.71443278416019
 20
89.86070851187992
 30
0.0
 11
-119.71443278416019
 21
1.996904633597524
 31
0.0
  0
LINE
  8
DETAIL
  6
CONTINUOUS
 62
     5
 10
-119.71443278416019
 20
89.86070851187992
 30
0.0
 11
-119.71443278416019
 21
1.996904633597524
 31
0.0
  0
LINE
  8
DETAIL
  6
CONTINUOUS
 62
     5
 10
119.81427801584
 20
72.391176324921616
 30
0.0
 11
119.81427801584
 21
73.888854800119589
 31
0.0
  0
LINE
  8
DETAIL
  6
CONTINUOUS
 62
     5
 10
119.81427801584
 20
37.342116648269673
 30
0.0
 11
119.81427801584
 21
37.445345236968478
 31
0.0
  0
LINE
  8
DETAIL
  6
CONTINUOUS
 62
     5
 10
119.81427801584
 20
49.326927806871943
 30
0.0
 11
119.81427801584
 21
49.423389681533763
 31
0.0
  0
LINE
  8
DETAIL
  6
CONTINUOUS
 62
     5
 10
119.81427801584
 20
61.304972251437903
 30
0.0
 11
119.81427801584
 21
61.408200840136033
 31
0.0
  0
LINE
  8
DETAIL
  6
CONTINUOUS
 62
     5
 10
119.81427801584
 20
25.36407220370393
 30
0.0
 11
119.81427801584
 21
25.460534078366209
 31
0.0
  0
LINE
  8
DETAIL
  6
CONTINUOUS
 62
     5
 10
119.81427801584
 20
13.379261045101661
 30
0.0
 11
119.81427801584
 21
13.48248963380024
 31
0.0
  0
LINE
  8
DETAIL
  6
CONTINUOUS
 62
     5
 10
-118.71443278416019
 20
89.86070851187992
 30
0.0
 11
-118.71443278416019
 21
141.86070851187989
 31
0.0
  0
LINE
  8
DETAIL
  6
CONTINUOUS
 62
     5
 10
-118.71443278416019
 20
141.86070851187989
 30
0.0
 11
118.8142780158398
 21
141.86070851187981
 31
0.0
  0
LINE
  8
DETAIL
  6
CONTINUOUS
 62
     5
 10
118.8142780158398
 20
141.86070851187981
 30
0.0
 11
118.81427801584
 21
89.864091868898186
 31
0.0
  0
ARC
  8
OUTLINE
  6
CONTINUOUS
 62
     3
 10
120.2635815583992
 20
0.4526868995774294
 30
0.0
 40
0.4493035425592903
 50
180.0
 51
270.0
  0
LINE
  8
OUTLINE
  6
CONTINUOUS
 62
     3
 10
119.8142780158398
 20
0.4526868995774294
 30
0.0
 11
119.8142780158398
 21
1.501061832216237
 31
0.0
  0
LINE
  8
OUTLINE
  6
CONTINUOUS
 62
     3
 10
119.8142780158398
 20
1.4976784751982
 30
0.0
 11
119.8142780158398
 21
25.36407220370393
 31
0.0
  0
LINE
  8
OUTLINE
  6
CONTINUOUS
 62
     3
 10
119.8142780158398
 20
73.888854800119589
 30
0.0
 11
119.8142780158398
 21
89.864091868898186
 31
0.0
  0
LINE
  8
OUTLINE
  6
CONTINUOUS
 62
     3
 10
119.8142780158398
 20
49.276245710914282
 30
0.0
 11
119.8142780158398
 21
72.391176324921616
 31
0.0
  0
LINE
  8
OUTLINE
  6
CONTINUOUS
 62
     3
 10
119.8142780158398
 20
25.460534078366209
 30
0.0
 11
119.8142780158398
 21
49.326927806871943
 31
0.0
  0
LINE
  8
OUTLINE
  6
CONTINUOUS
 62
     3
 10
119.360622871621
 20
89.86070851187992
 30
0.0
 11
-119.71443278416019
 21
89.86070851187992
 31
0.0
  0
ARC
  8
OUTLINE
  6
CONTINUOUS
 62
     3
 10
-120.1637363267196
 20
0.4493035425593916
 30
0.0
 40
0.4493035425593462
 50
270.0
 51
0.0
  0
LINE
  8
OUTLINE
  6
CONTINUOUS
 62
     3
 10
-120.1637363267196
 20
0.0
 30
0.0
 11
-139.8332469676532
 21
0.0
 31
0.0
  0
LINE
  8
OUTLINE
  6
CONTINUOUS
 62
     3
 10
-119.71443278416019
 20
0.4493035425593916
 30
0.0
 11
-119.71443278416019
 21
1.996904633597524
 31
0.0
  0
LINE
  8
OUTLINE
  6
CONTINUOUS
 62
     3
 10
147.7736019059769
 20
-14.47152627750029
 30
0.0
 11
147.7648915118759
 21
-13.97250813000028
 31
0.0
  0
LINE
  8
OUTLINE
  6
CONTINUOUS
 62
     3
 10
147.39875092224881
 20
-34.948688460122177
 30
0.0
 11
147.99992013700381
 21
-0.5077272150113004
 31
0.0
  0
LINE
  8
OUTLINE
  6
CONTINUOUS
 62
     3
 10
145.0746105811952
 20
-62.893704720122059
 30
0.0
 11
145.2054185110037
 21
-55.399723440011478
 31
0.0
  0
LINE
  8
OUTLINE
  6
CONTINUOUS
 62
     3
 10
140.99527369357219
 20
-54.891996225000177
 30
0.0
 11
141.32626867180511
 21
-35.929306620000261
 31
0.0
  0
LINE
  8
OUTLINE
  6
CONTINUOUS
 62
     3
 10
144.0767262919137
 20
-63.874322880000143
 30
0.0
 11
-144.07672629201309
 21
-63.874322880000143
 31
0.0
  0
LINE
  8
OUTLINE
  6
CONTINUOUS
 62
     3
 10
-144.70647636636269
 20
-54.891996225000177
 30
0.0
 11
-140.99527369357219
 21
-54.891996225000177
 31
0.0
  0
LINE
  8
OUTLINE
  6
CONTINUOUS
 62
     3
 10
140.99527369357219
 20
-54.891996225000177
 30
0.0
 11
144.70647636636289
 21
-54.891996225000177
 31
0.0
  0
LINE
  8
OUTLINE
  6
CONTINUOUS
 62
     3
 10
146.40086663296711
 20
-35.929306620000261
 30
0.0
 11
141.32626867180511
 21
-35.929306620000261
 31
0.0
  0
LINE
  8
OUTLINE
  6
CONTINUOUS
 62
     3
 10
-141.3262686719049
 20
-35.929306620000261
 30
0.0
 11
-146.4008666330669
 21
-35.929306620000261
 31
0.0
  0
LINE
  8
OUTLINE
  6
CONTINUOUS
 62
     3
 10
-147.50097799236261
 20
-0.0000000000002274
 30
0.0
 11
-117.7175281505629
 21
0.0
 31
0.0
  0
LINE
  8
OUTLINE
  6
CONTINUOUS
 62
     3
 10
120.2635815583992
 20
0.0033833570181514
 30
0.0
 11
147.50097799236281
 21
-0.0000000000002274
 31
0.0
  0
LINE
  8
OUTLINE
  6
CONTINUOUS
 62
     3
 10
-140.99527369357219
 20
-54.891996225000177
 30
0.0
 11
-141.3262686719049
 21
-35.929306620000261
 31
0.0
  0
LINE
  8
OUTLINE
  6
CONTINUOUS
 62
     3
 10
-145.074610581195
 20
-62.893704720122059
 30
0.0
 11
-145.2054185110037
 21
-55.399723440011478
 31
0.0
  0
LINE
  8
OUTLINE
  6
CONTINUOUS
 62
     3
 10
-147.39875092224881
 20
-34.948688460122177
 30
0.0
 11
-147.9999201370035
 21
-0.5077272150113004
 31
0.0
  0
ARC
  8
OUTLINE
  6
CONTINUOUS
 62
     3
 10
-144.07672629201309
 20
-62.876286585000123
 30
0.0
 40
0.9980362950000121
 50
180.99999999998869
 51
270.02970728759459
  0
ARC
  8
OUTLINE
  6
CONTINUOUS
 62
     3
 10
144.0767262919137
 20
-62.876286585000123
 30
0.0
 40
0.998036295
 50
270.0
 51
358.99999999999818
  0
ARC
  8
OUTLINE
  6
CONTINUOUS
 62
     3
 10
-146.4008666330669
 20
-34.931270325000241
 30
0.0
 40
0.9980362950000121
 50
180.99999999998869
 51
270.0
  0
ARC
  8
OUTLINE
  6
CONTINUOUS
 62
     3
 10
146.4008612657276
 20
-34.931270325000241
 30
0.0
 40
0.998036295000024
 50
270.0003081294962
 51
359.00000537740527
  0
ARC
  8
OUTLINE
  6
CONTINUOUS
 62
     3
 10
-144.70647636636269
 20
-55.391014372500187
 30
0.0
 40
0.4990181475
 50
90.0
 51
181.00000000000179
  0
ARC
  8
OUTLINE
  6
CONTINUOUS
 62
     3
 10
144.70647636636289
 20
-55.391014372500187
 30
0.0
 40
0.4990181475000079
 50
358.99999999999818
 51
90.0
  0
ARC
  8
OUTLINE
  6
CONTINUOUS
 62
     3
 10
-147.50097124683501
 20
-0.4990181475002373
 30
0.0
 40
0.49901814749998
 50
90.000774500601679
 51
180.99998648360369
  0
ARC
  8
OUTLINE
  6
CONTINUOUS
 62
     3
 10
147.50097799236281
 20
-0.4990181475002373
 30
0.0
 40
0.4990181475000079
 50
358.99999999999818
 51
90.0
  0
LINE
  8
OUTLINE
  6
CONTINUOUS
 62
     3
 10
119.8142780158398
 20
13.379261045101661
 30
0.0
 11
119.8142780158398
 21
13.48248963380024
 31
0.0
  0
LINE
  8
OUTLINE
  6
CONTINUOUS
 62
     3
 10
119.8142780158398
 20
25.36407220370393
 30
0.0
 11
119.8142780158398
 21
25.460534078366209
 31
0.0
  0
LINE
  8
OUTLINE
  6
CONTINUOUS
 62
     3
 10
119.8142780158398
 20
61.304972251437903
 30
0.0
 11
119.8142780158398
 21
61.408200840136033
 31
0.0
  0
LINE
  8
OUTLINE
  6
CONTINUOUS
 62
     3
 10
119.8142780158398
 20
49.326927806871943
 30
0.0
 11
119.8142780158398
 21
49.423389681533763
 31
0.0
  0
LINE
  8
OUTLINE
  6
CONTINUOUS
 62
     3
 10
119.8142780158398
 20
37.342116648269673
 30
0.0
 11
119.8142780158398
 21
37.445345236968478
 31
0.0
  0
LINE
  8
OUTLINE
  6
CONTINUOUS
 62
     3
 10
119.8142780158398
 20
72.391176324921616
 30
0.0
 11
119.8142780158398
 21
73.888854800119589
 31
0.0
  0
LINE
  8
OUTLINE
  6
CONTINUOUS
 62
     3
 10
-119.71443278416019
 20
89.86070851187992
 30
0.0
 11
-119.71443278416019
 21
1.996904633597524
 31
0.0
  0
LINE
  8
OUTLINE
  6
CONTINUOUS
 62
     3
 10
-119.71443278416019
 20
89.86070851187992
 30
0.0
 11
-119.71443278416019
 21
1.996904633597524
 31
0.0
  0
LINE
  8
OUTLINE
  6
CONTINUOUS
 62
     3
 10
119.8142780158398
 20
72.391176324921616
 30
0.0
 11
119.8142780158398
 21
73.888854800119589
 31
0.0
  0
LINE
  8
OUTLINE
  6
CONTINUOUS
 62
     3
 10
119.8142780158398
 20
37.342116648269673
 30
0.0
 11
119.8142780158398
 21
37.445345236968478
 31
0.0
  0
LINE
  8
OUTLINE
  6
CONTINUOUS
 62
     3
 10
119.8142780158398
 20
49.326927806871943
 30
0.0
 11
119.8142780158398
 21
49.423389681533763
 31
0.0
  0
LINE
  8
OUTLINE
  6
CONTINUOUS
 62
     3
 10
119.8142780158398
 20
61.304972251437903
 30
0.0
 11
119.8142780158398
 21
61.408200840136033
 31
0.0
  0
LINE
  8
OUTLINE
  6
CONTINUOUS
 62
     3
 10
119.8142780158398
 20
25.36407220370393
 30
0.0
 11
119.8142780158398
 21
25.460534078366209
 31
0.0
  0
LINE
  8
OUTLINE
  6
CONTINUOUS
 62
     3
 10
119.8142780158398
 20
13.379261045101661
 30
0.0
 11
119.8142780158398
 21
13.48248963380024
 31
0.0
  0
CIRCLE
  8
FIX
  6
CONTINUOUS
 62
    11
 10
60.0
 20
0.0
 30
0.0
 40
5.0
  0
LINE
  8
BASIS
  6
DASHDOT
 62
     6
 10
60.0
 20
-10.0
 30
0.0
 11
60.0
 21
10.0
 31
0.0
  0
LINE
  8
BASIS
  6
DASHDOT
 62
     6
 10
50.0
 20
0.0
 30
0.0
 11
70.0
 21
0.0
 31
0.0
  0
CIRCLE
  8
FIX
  6
CONTINUOUS
 62
    11
 10
-59.761012443257641
 20
0.0
 30
0.0
 40
5.0
  0
LINE
  8
BASIS
  6
DASHDOT
 62
     6
 10
-59.761012443257641
 20
-10.0
 30
0.0
 11
-59.761012443257641
 21
10.0
 31
0.0
  0
LINE
  8
BASIS
  6
DASHDOT
 62
     6
 10
-49.761012443257641
 20
0.0
 30
0.0
 11
-69.761012443257641
 21
0.0
 31
0.0
  0
LINE
  8
SIZE
  6
CONTINUOUS
 62
    30
 10
-147.9999201370035
 20
-20.5077272150113
 30
0.0
 11
-147.9999201370035
 21
-262.09314485552522
 31
0.0
  0
LINE
  8
SIZE
  6
CONTINUOUS
 62
    30
 10
147.99992013700381
 20
-20.5077272150113
 30
0.0
 11
147.99992013700381
 21
-262.09314485552522
 31
0.0
  0
LINE
  8
SIZE
  6
CONTINUOUS
 62
    30
 10
-135.9999201370035
 20
-242.0931448555252
 30
0.0
 11
135.99992013700381
 21
-242.0931448555252
 31
0.0
  0
CIRCLE
  8
SIZE
  6
CONTINUOUS
 62
    30
 10
-147.9999201370035
 20
-242.0931448555252
 30
0.0
 40
6.0
  0
LINE
  8
SIZE
  6
CONTINUOUS
 62
    30
 10
-147.9999201370035
 20
-242.0931448555252
 30
0.0
 11
-135.9999201370035
 21
-242.0931448555252
 31
0.0
  0
CIRCLE
  8
SIZE
  6
CONTINUOUS
 62
    30
 10
147.99992013700381
 20
-242.0931448555252
 30
0.0
 40
6.0
  0
LINE
  8
SIZE
  6
CONTINUOUS
 62
    30
 10
147.99992013700381
 20
-242.0931448555252
 30
0.0
 11
135.99992013700381
 21
-242.0931448555252
 31
0.0
  0
TEXT
  8
SIZE
  6
CONTINUOUS
 62
    30
 10
-109.1657142857143
 20
-217.0931448555252
 30
0.0
 40
64.0
  1
□296
 41
0.9
 72
     1
 11
0.0
 21
-217.0931448555252
 31
0.0
  0
LINE
  8
SIZE
  6
CONTINUOUS
 62
    30
 10
-59.761012443257641
 20
30.0
 30
0.0
 11
-59.761012443257641
 21
236.1488123530676
 31
0.0
  0
LINE
  8
SIZE
  6
CONTINUOUS
 62
    30
 10
60.0
 20
30.0
 30
0.0
 11
60.0
 21
236.1488123530676
 31
0.0
  0
LINE
  8
SIZE
  6
CONTINUOUS
 62
    30
 10
-71.761012443257641
 20
216.1488123530676
 30
0.0
 11
-83.761012443257641
 21
216.1488123530676
 31
0.0
  0
LINE
  8
SIZE
  6
CONTINUOUS
 62
    30
 10
72.0
 20
216.1488123530676
 30
0.0
 11
84.0
 21
216.1488123530676
 31
0.0
  0
LINE
  8
SIZE
  6
CONTINUOUS
 62
    30
 10
-59.761012443257641
 20
216.1488123530676
 30
0.0
 11
60.0
 21
216.1488123530676
 31
0.0
  0
CIRCLE
  8
SIZE
  6
CONTINUOUS
 62
    30
 10
-59.761012443257641
 20
216.1488123530676
 30
0.0
 40
6.0
  0
LINE
  8
SIZE
  6
CONTINUOUS
 62
    30
 10
-59.761012443257641
 20
216.1488123530676
 30
0.0
 11
-71.761012443257641
 21
216.1488123530676
 31
0.0
  0
CIRCLE
  8
SIZE
  6
CONTINUOUS
 62
    30
 10
60.0
 20
216.1488123530676
 30
0.0
 40
6.0
  0
LINE
  8
SIZE
  6
CONTINUOUS
 62
    30
 10
60.0
 20
216.1488123530676
 30
0.0
 11
72.0
 21
216.1488123530676
 31
0.0
  0
TEXT
  8
SIZE
  6
CONTINUOUS
 62
    30
 10
-68.45193479305739
 20
241.1488123530676
 30
0.0
 40
64.0
  1
120
 41
0.9
 72
     1
 11
0.1194937783711794
 21
241.1488123530676
 31
0.0
  0
LINE
  8
SIZE
  6
CONTINUOUS
 62
    30
 10
119.81427801584
 20
109.8640918688982
 30
0.0
 11
119.81427801584
 21
371.50240565850248
 31
0.0
  0
LINE
  8
SIZE
  6
CONTINUOUS
 62
    30
 10
-119.71443278416019
 20
109.86070851187991
 30
0.0
 11
-119.71443278416019
 21
371.50240565850248
 31
0.0
  0
LINE
  8
SIZE
  6
CONTINUOUS
 62
    30
 10
131.81427801583999
 20
351.50240565850248
 30
0.0
 11
143.81427801583999
 21
351.50240565850248
 31
0.0
  0
LINE
  8
SIZE
  6
CONTINUOUS
 62
    30
 10
-131.71443278416021
 20
351.50240565850248
 30
0.0
 11
-143.71443278416021
 21
351.50240565850248
 31
0.0
  0
LINE
  8
SIZE
  6
CONTINUOUS
 62
    30
 10
119.81427801584
 20
351.50240565850248
 30
0.0
 11
-119.71443278416019
 21
351.50240565850248
 31
0.0
  0
CIRCLE
  8
SIZE
  6
CONTINUOUS
 62
    30
 10
119.81427801584
 20
351.50240565850248
 30
0.0
 40
6.0
  0
LINE
  8
SIZE
  6
CONTINUOUS
 62
    30
 10
119.81427801584
 20
351.50240565850248
 30
0.0
 11
131.81427801583999
 21
351.50240565850248
 31
0.0
  0
CIRCLE
  8
SIZE
  6
CONTINUOUS
 62
    30
 10
-119.71443278416019
 20
351.50240565850248
 30
0.0
 40
6.0
  0
LINE
  8
SIZE
  6
CONTINUOUS
 62
    30
 10
-119.71443278416019
 20
351.50240565850248
 30
0.0
 11
-131.71443278416021
 21
351.50240565850248
 31
0.0
  0
TEXT
  8
SIZE
  6
CONTINUOUS
 62
    30
 10
-110.48722024130289
 20
376.50240565850248
 30
0.0
 40
64.0
  1
□240
 41
0.9
 72
     1
 11
0.0499226158399324
 21
376.50240565850248
 31
0.0
  0
CIRCLE
  8
DETAIL
  6
CONTINUOUS
 62
     5
 10
0.0
 20
29.999999999999769
 30
0.0
 40
2.5
  0
LINE
  8
SIZE
  6
CONTINUOUS
 62
    30
 10
20.0
 20
29.999999999999769
 30
0.0
 11
268.77089546887368
 21
29.999999999999719
 31
0.0
  0
LINE
  8
SIZE
  6
CONTINUOUS
 62
    30
 10
167.50097799070821
 20
-0.0000000000000218
 30
0.0
 11
268.77089546887368
 21
0.0
 31
0.0
  0
LINE
  8
SIZE
  6
CONTINUOUS
 62
    30
 10
248.7708954688737
 20
-12.00000000000003
 30
0.0
 11
248.7708954688737
 21
-24.000000000000028
 31
0.0
  0
LINE
  8
SIZE
  6
CONTINUOUS
 62
    30
 10
248.7708954688737
 20
41.999999999999723
 30
0.0
 11
248.7708954688737
 21
197.2571428571425
 31
0.0
  0
LINE
  8
SIZE
  6
CONTINUOUS
 62
    30
 10
248.7708954688737
 20
0.0
 30
0.0
 11
248.7708954688737
 21
29.999999999999719
 31
0.0
  0
CIRCLE
  8
SIZE
  6
CONTINUOUS
 62
    30
 10
248.7708954688737
 20
0.0
 30
0.0
 40
6.0
  0
LINE
  8
SIZE
  6
CONTINUOUS
 62
    30
 10
248.7708954688737
 20
0.0
 30
0.0
 11
248.7708954688737
 21
-12.00000000000003
 31
0.0
  0
CIRCLE
  8
SIZE
  6
CONTINUOUS
 62
    30
 10
248.7708954688737
 20
29.999999999999719
 30
0.0
 40
6.0
  0
LINE
  8
SIZE
  6
CONTINUOUS
 62
    30
 10
248.7708954688737
 20
29.999999999999719
 30
0.0
 11
248.7708954688737
 21
41.999999999999723
 31
0.0
  0
TEXT
  8
SIZE
  6
CONTINUOUS
 62
    30
 10
223.7708954688737
 20
78.999999999999787
 30
0.0
 40
64.0
  1
30
 50
90.0
 41
0.9
 72
     1
 11
223.7708954688737
 21
125.62857142857121
 31
0.0
  0
LINE
  8
SIZE
  6
CONTINUOUS
 62
    30
 10
-167.50097799236261
 20
-0.0000000000002274
 30
0.0
 11
-364.07686741436368
 21
0.0000000000000568
 31
0.0
  0
LINE
  8
SIZE
  6
CONTINUOUS
 62
    30
 10
-164.07672629201309
 20
-63.874322880000143
 30
0.0
 11
-364.07686741436368
 21
-63.874322880000079
 31
0.0
  0
LINE
  8
SIZE
  6
CONTINUOUS
 62
    30
 10
-344.07686741436368
 20
12.00000000000006
 30
0.0
 11
-344.07686741436368
 21
24.00000000000006
 31
0.0
  0
LINE
  8
SIZE
  6
CONTINUOUS
 62
    30
 10
-344.07686741436368
 20
-75.874322880000079
 30
0.0
 11
-344.07686741436368
 21
-242.6069171581517
 31
0.0
  0
LINE
  8
SIZE
  6
CONTINUOUS
 62
    30
 10
-344.07686741436368
 20
0.0000000000000568
 30
0.0
 11
-344.07686741436368
 21
-63.874322880000079
 31
0.0
  0
CIRCLE
  8
SIZE
  6
CONTINUOUS
 62
    30
 10
-344.07686741436368
 20
0.0000000000000568
 30
0.0
 40
6.0
  0
LINE
  8
SIZE
  6
CONTINUOUS
 62
    30
 10
-344.07686741436368
 20
0.0000000000000568
 30
0.0
 11
-344.07686741436368
 21
12.00000000000006
 31
0.0
  0
CIRCLE
  8
SIZE
  6
CONTINUOUS
 62
    30
 10
-344.07686741436368
 20
-63.874322880000079
 30
0.0
 40
6.0
  0
LINE
  8
SIZE
  6
CONTINUOUS
 62
    30
 10
-344.07686741436368
 20
-63.874322880000079
 30
0.0
 11
-344.07686741436368
 21
-75.874322880000079
 31
0.0
  0
TEXT
  8
SIZE
  6
CONTINUOUS
 62
    30
 10
-369.07686741436368
 20
-217.60691715815159
 30
0.0
 40
64.0
  1
64
 50
90.0
 41
0.9
 72
     1
 11
-369.07686741436368
 21
-169.60691715815159
 31
0.0
  0
LINE
  8
SIZE
  6
CONTINUOUS
 62
    30
 10
-167.50097799236261
 20
-0.0000000000002274
 30
0.0
 11
-364.07686741436368
 21
0.0000000000000568
 31
0.0
  0
LINE
  8
SIZE
  6
CONTINUOUS
 62
    30
 10
-139.71443278416021
 20
89.86070851187992
 30
0.0
 11
-364.07686741436368
 21
89.860708511879977
 31
0.0
  0
LINE
  8
SIZE
  6
CONTINUOUS
 62
    30
 10
-344.07686741436368
 20
12.00000000000006
 30
0.0
 11
-344.07686741436368
 21
77.860708511879977
 31
0.0
  0
CIRCLE
  8
SIZE
  6
CONTINUOUS
 62
    30
 10
-344.07686741436368
 20
0.0000000000000568
 30
0.0
 40
6.0
  0
LINE
  8
SIZE
  6
CONTINUOUS
 62
    30
 10
-344.07686741436368
 20
0.0000000000000568
 30
0.0
 11
-344.07686741436368
 21
12.00000000000006
 31
0.0
  0
CIRCLE
  8
SIZE
  6
CONTINUOUS
 62
    30
 10
-344.07686741436368
 20
89.860708511879977
 30
0.0
 40
6.0
  0
LINE
  8
SIZE
  6
CONTINUOUS
 62
    30
 10
-344.07686741436368
 20
89.860708511879977
 30
0.0
 11
-344.07686741436368
 21
77.860708511879977
 31
0.0
  0
TEXT
  8
SIZE
  6
CONTINUOUS
 62
    30
 10
-369.07686741436368
 20
-1.6982171726314661
 30
0.0
 40
64.0
  1
90
 50
90.0
 41
0.9
 72
     1
 11
-369.07686741436368
 21
44.93035425593996
 31
0.0
  0
LINE
  8
SIZE
  6
CONTINUOUS
 62
    30
 10
-139.71443278416021
 20
89.86070851187992
 30
0.0
 11
-364.07686741436368
 21
89.860708511879977
 31
0.0
  0
LINE
  8
SIZE
  6
CONTINUOUS
 62
    30
 10
-138.71443278416021
 20
141.86070851187989
 30
0.0
 11
-364.07686741436368
 21
141.86070851188001
 31
0.0
  0
LINE
  8
SIZE
  6
CONTINUOUS
 62
    30
 10
-344.07686741436368
 20
77.860708511879977
 30
0.0
 11
-344.07686741436368
 21
65.860708511879977
 31
0.0
  0
LINE
  8
SIZE
  6
CONTINUOUS
 62
    30
 10
-344.07686741436368
 20
153.86070851188001
 30
0.0
 11
-344.07686741436368
 21
309.11785136902267
 31
0.0
  0
LINE
  8
SIZE
  6
CONTINUOUS
 62
    30
 10
-344.07686741436368
 20
89.860708511879977
 30
0.0
 11
-344.07686741436368
 21
141.86070851188001
 31
0.0
  0
CIRCLE
  8
SIZE
  6
CONTINUOUS
 62
    30
 10
-344.07686741436368
 20
89.860708511879977
 30
0.0
 40
6.0
  0
LINE
  8
SIZE
  6
CONTINUOUS
 62
    30
 10
-344.07686741436368
 20
89.860708511879977
 30
0.0
 11
-344.07686741436368
 21
77.860708511879977
 31
0.0
  0
CIRCLE
  8
SIZE
  6
CONTINUOUS
 62
    30
 10
-344.07686741436368
 20
141.86070851188001
 30
0.0
 40
6.0
  0
LINE
  8
SIZE
  6
CONTINUOUS
 62
    30
 10
-344.07686741436368
 20
141.86070851188001
 30
0.0
 11
-344.07686741436368
 21
153.86070851188001
 31
0.0
  0
TEXT
  8
SIZE
  6
CONTINUOUS
 62
    30
 10
-369.07686741436368
 20
190.86070851187989
 30
0.0
 40
64.0
  1
52
 50
90.0
 41
0.9
 72
     1
 11
-369.07686741436368
 21
237.4892799404513
 31
0.0
  0
TEXT
  8
NOTE
  6
CONTINUOUS
 62
     4
 10
-299.72276425432568
 20
-169.6846054832599
 30
0.0
 40
64.0
  1
EL
 41
0.9
  0
LINE
  8
NOTE
  6
CONTINUOUS
 62
     4
 10
-150.12105772135209
 20
-5.6320406163077914
 30
0.0
 11
-147.50097799236261
 21
-0.0000000000002274
 31
0.0
  0
LINE
  8
NOTE
  6
CONTINUOUS
 62
     4
 10
-147.50097799236261
 20
-0.0000000000002274
 30
0.0
 11
-146.9540039651952
 21
-6.1875292891110396
 31
0.0
  0
LINE
  8
NOTE
  6
CONTINUOUS
 62
     4
 10
-147.50097799236261
 20
-0.0000000000002274
 30
0.0
 11
-149.57408369418479
 21
-11.81956990541863
 31
0.0
  0
LINE
  8
NOTE
  6
CONTINUOUS
 62
     4
 10
-149.57408369418479
 20
-11.81956990541863
 30
0.0
 11
-181.29047261754249
 21
-192.6468551217863
 31
0.0
  0
LINE
  8
NOTE
  6
CONTINUOUS
 62
     4
 10
-181.29047261754249
 20
-192.6468551217863
 30
0.0
 11
-303.31904404611402
 21
-192.6468551217863
 31
0.0
  0
TEXT
  8
NOTE
  6
CONTINUOUS
 62
     4
 10
239.14471876844621
 20
-150.2397292719904
 30
0.0
 40
64.0
  1
4-φ5×8
 41
0.9
  0
LINE
  8
NOTE
  6
CONTINUOUS
 62
     4
 10
62.868916151802068
 20
-5.5094481941414983
 30
0.0
 11
60.0
 21
0.0
 31
0.0
  0
LINE
  8
NOTE
  6
CONTINUOUS
 62
     4
 10
60.0
 20
0.0
 30
0.0
 11
65.239283394319273
 21
-3.3368561257583451
 31
0.0
  0
LINE
  8
NOTE
  6
CONTINUOUS
 62
     4
 10
60.0
 20
0.0
 30
0.0
 11
68.108199546121341
 21
-8.8463043198998434
 31
0.0
  0
LINE
  8
NOTE
  6
CONTINUOUS
 62
     4
 10
68.108199546121341
 20
-8.8463043198998434
 30
0.0
 11
219.65153052197141
 21
-174.18491196491959
 31
0.0
  0
LINE
  8
NOTE
  6
CONTINUOUS
 62
     4
 10
219.65153052197141
 20
-174.18491196491959
 30
0.0
 11
605.54295909339976
 21
-174.18491196491959
 31
0.0
  0
LINE
  8
NOTE
  6
CONTINUOUS
 62
     4
 10
-147.50097799236261
 20
-10.0
 30
0.0
 11
-147.50097799236261
 21
10.0
 31
0.0
  0
LINE
  8
NOTE
  6
CONTINUOUS
 62
     4
 10
-137.50097799236261
 20
0.0
 30
0.0
 11
-157.50097799236261
 21
0.0
 31
0.0
  0
TEXT
  8
ETC
  6
CONTINUOUS
 62
    61
 10
467.91990348174022
 20
523.84706455563332
 30
0.0
 40
64.0
  1
EX-20EK9-C_1
 41
0.9
  0
TEXT
  8
ETC
  6
CONTINUOUS
 62
    61
 10
463.73390948173977
 20
405.89175454080208
 30
0.0
 40
64.0
  1
換気扇
 41
0.9
  0
TEXT
  8
ETC
  6
CONTINUOUS
 62
    61
 10
514.43530773029579
 20
297.74298165457691
 30
0.0
 40
40.0
  1
EX-20EK9-C
 50
0.0
 41
0.9
 51
0.0
  7
STANDARD
 71
     0
 11
0.0
 21
0.0
 31
0.0
210
0.0
220
0.0
230
1.0
  0
TEXT
  8
ETC
  6
CONTINUOUS
 62
    61
 10
514.43530773029579
 20
231.74298165457691
 30
0.0
 40
40.0
  1
EX-20EK9-M
 50
0.0
 41
0.9
 51
0.0
  7
STANDARD
 71
     0
 11
0.0
 21
0.0
 31
0.0
210
0.0
220
0.0
230
1.0
  0
TEXT
  8
ETC
  6
CONTINUOUS
 62
    61
 10
514.43530773029579
 20
165.74298165457691
 30
0.0
 40
40.0
  1
EX-20LK9-C
 50
0.0
 41
0.9
 51
0.0
  7
STANDARD
 71
     0
 11
0.0
 21
0.0
 31
0.0
210
0.0
220
0.0
230
1.0
  0
TEXT
  8
ETC
  6
CONTINUOUS
 62
    61
 10
514.43530773029579
 20
99.742981654576909
 30
0.0
 40
40.0
  1
EX-20LK9-M
 50
0.0
 41
0.9
 51
0.0
  7
STANDARD
 71
     0
 11
0.0
 21
0.0
 31
0.0
210
0.0
220
0.0
230
1.0
  0
TEXT
  8
ETC
  6
CONTINUOUS
 62
    61
 10
514.43530773029579
 20
33.742981654576909
 30
0.0
 40
40.0
  1
EX-20RK9-C
 50
0.0
 41
0.9
 51
0.0
  7
STANDARD
 71
     0
 11
0.0
 21
0.0
 31
0.0
210
0.0
220
0.0
230
1.0
  0
ENDSEC
  0
EOF
