  0
SECTION
  2
HEADER
  9
$ACADVER
  1
AC1009
  9
$DWGCODEPAGE
  3
dos932
  9
$INSBASE
 10
0.0
 20
0.0
 30
0.0
  9
$EXTMIN
 10
-249.58215023344931
 20
-319.73137553844941
 30
0.0
  9
$EXTMAX
 10
1202.614347696893
 20
521.32510422188398
 30
50.0
  9
$LIMMIN
 10
-2970.0
 20
-2100.0
  9
$LIMMAX
 10
2970.0
 20
2100.0
  9
$ORTHOMODE
 70
     1
  9
$REGENMODE
 70
     1
  9
$FILLMODE
 70
     1
  9
$QTEXTMODE
 70
     0
  9
$MIRRTEXT
 70
     0
  9
$LTSCALE
 40
20.0
  9
$ATTMODE
 70
     1
  9
$TEXTSIZE
 40
64.0
  9
$TRACEWID
 40
0.05
  9
$TEXTSTYLE
  7
STANDARD
  9
$CLAYER
  8
NOTE
  9
$CELTYPE
  6
CONTINUOUS
  9
$CECOLOR
 62
     7
  9
$DIMSCALE
 40
1.0
  9
$DIMASZ
 40
12.0
  9
$DIMEXO
 40
20.0
  9
$DIMDLI
 40
200.0
  9
$DIMRND
 40
0.0
  9
$DIMDLE
 40
0.0
  9
$DIMEXE
 40
20.0
  9
$DIMTP
 40
0.0
  9
$DIMTM
 40
0.0
  9
$DIMTXT
 40
64.0
  9
$DIMCEN
 40
0.09
  9
$DIMTSZ
 40
0.0
  9
$DIMTOL
 70
     0
  9
$DIMLIM
 70
     0
  9
$DIMTIH
 70
     0
  9
$DIMTOH
 70
     0
  9
$DIMSE1
 70
     0
  9
$DIMSE2
 70
     0
  9
$DIMTAD
 70
     1
  9
$DIMZIN
 70
     8
  9
$DIMBLK
  1

  9
$DIMASO
 70
     1
  9
$DIMSHO
 70
     0
  9
$DIMPOST
  1

  9
$DIMAPOST
  1

  9
$DIMALT
 70
     0
  9
$DIMALTD
 70
     2
  9
$DIMALTF
 40
25.399999999999999
  9
$DIMLFAC
 40
1.0
  9
$DIMTOFL
 70
     1
  9
$DIMTVP
 40
0.0
  9
$DIMTIX
 70
     1
  9
$DIMSOXD
 70
     0
  9
$DIMSAH
 70
     0
  9
$DIMBLK1
  1

  9
$DIMBLK2
  1

  9
$DIMSTYLE
  2
STANDARD
  9
$DIMCLRD
 70
     7
  9
$DIMCLRE
 70
     7
  9
$DIMCLRT
 70
     7
  9
$DIMTFAC
 40
1.0
  9
$DIMGAP
 40
25.0
  9
$LUNITS
 70
     2
  9
$LUPREC
 70
     4
  9
$SKETCHINC
 40
0.1
  9
$FILLETRAD
 40
3.0
  9
$AUNITS
 70
     1
  9
$AUPREC
 70
     3
  9
$MENU
  1
ACAD
  9
$ELEVATION
 40
0.0
  9
$PELEVATION
 40
0.0
  9
$THICKNESS
 40
50.0
  9
$LIMCHECK
 70
     0
  9
$CHAMFERA
 40
0.0
  9
$CHAMFERB
 40
0.0
  9
$SKPOLY
 70
     0
  9
$TDCREATE
 40
2453019.62301037
  9
$TDUPDATE
 40
2459017.507110891
  9
$TDINDWG
 40
1.7175243403
  9
$TDUSRTIMER
 40
1.7175243403
  9
$USRTIMER
 70
     1
  9
$ANGBASE
 50
0.0
  9
$ANGDIR
 70
     0
  9
$PDMODE
 70
     3
  9
$PDSIZE
 40
-2.0
  9
$PLINEWID
 40
0.0
  9
$SPLFRAME
 70
     0
  9
$SPLINETYPE
 70
     6
  9
$SPLINESEGS
 70
     8
  9
$SURFTAB1
 70
     6
  9
$SURFTAB2
 70
     6
  9
$SURFTYPE
 70
     6
  9
$SURFU
 70
     6
  9
$SURFV
 70
     6
  9
$UCSNAME
  2

  9
$UCSORG
 10
0.0
 20
0.0
 30
0.0
  9
$UCSXDIR
 10
1.0
 20
0.0
 30
0.0
  9
$UCSYDIR
 10
0.0
 20
1.0
 30
0.0
  9
$PUCSNAME
  2

  9
$PUCSORG
 10
0.0
 20
0.0
 30
0.0
  9
$PUCSXDIR
 10
1.0
 20
0.0
 30
0.0
  9
$PUCSYDIR
 10
0.0
 20
1.0
 30
0.0
  9
$USERI1
 70
     0
  9
$USERI2
 70
     0
  9
$USERI3
 70
     0
  9
$USERI4
 70
     0
  9
$USERI5
 70
     0
  9
$USERR1
 40
20.0
  9
$USERR2
 40
0.0
  9
$USERR3
 40
0.0
  9
$USERR4
 40
0.0
  9
$USERR5
 40
0.0
  9
$WORLDVIEW
 70
     1
  9
$SHADEDGE
 70
     3
  9
$SHADEDIF
 70
    70
  9
$TILEMODE
 70
     1
  9
$MAXACTVP
 70
    48
  9
$PINSBASE
 10
0.0
 20
0.0
 30
0.0
  9
$PLIMCHECK
 70
     0
  9
$PEXTMIN
 10
-100000000000000000000.0
 20
-100000000000000000000.0
 30
-100000000000000000000.0
  9
$PEXTMAX
 10
100000000000000000000.0
 20
100000000000000000000.0
 30
100000000000000000000.0
  9
$PLIMMIN
 10
0.0
 20
0.0
  9
$PLIMMAX
 10
12.0
 20
9.0
  9
$UNITMODE
 70
     0
  9
$VISRETAIN
 70
     0
  9
$PLINEGEN
 70
     0
  9
$PSLTSCALE
 70
     0
  9
$TREEDEPTH
 70
  3020
  9
$ATTDIA
 70
     0
  9
$ATTREQ
 70
     1
  9
$BLIPMODE
 70
     1
  9
$COORDS
 70
     1
  9
$DRAGMODE
 70
     2
  9
$OSMODE
 70
     0
  9
$HANDLING
 70
     0
  9
$HANDSEED
  5
F659
  0
ENDSEC
  0
SECTION
  2
TABLES
  0
TABLE
  2
LTYPE
 70
     2
  0
LTYPE
  2
CONTINUOUS
 70
     0
  3
実線
 72
    65
 73
     0
 40
0.0
  0
LTYPE
  2
DASHDOT
 70
     0
  3
____ _ ____ _ ____ _ ____ _ ____ _ ____ _ ____
 72
    65
 73
     4
 40
5.5
 49
4.0
 49
-0.6
 49
0.3
 49
-0.6
  0
ENDTAB
  0
TABLE
  2
LAYER
 70
    12
  0
LAYER
  2
0
 70
     0
 62
     7
  6
CONTINUOUS
  0
LAYER
  2
BASIS
 70
     0
 62
     6
  6
DASHDOT
  0
LAYER
  2
OUTLINE
 70
     0
 62
     3
  6
CONTINUOUS
  0
LAYER
  2
DETAIL
 70
     0
 62
     5
  6
CONTINUOUS
  0
LAYER
  2
SIZE
 70
     0
 62
    30
  6
CONTINUOUS
  0
LAYER
  2
ARRANGE
 70
     0
 62
     1
  6
CONTINUOUS
  0
LAYER
  2
ETC
 70
     0
 62
    61
  6
CONTINUOUS
  0
LAYER
  2
FIX
 70
     0
 62
    11
  6
CONTINUOUS
  0
LAYER
  2
NOTE
 70
     0
 62
     4
  6
CONTINUOUS
  0
LAYER
  2
DEFPOINTS
 70
    64
 62
     7
  6
CONTINUOUS
  0
LAYER
  2
SERVICESPACE
 70
    64
 62
     2
  6
DASHDOT
  0
LAYER
  2
SYMBOLLINE
 70
    64
 62
    15
  6
CONTINUOUS
  0
ENDTAB
  0
TABLE
  2
STYLE
 70
     1
  0
STYLE
  2
STANDARD
 70
     0
 40
64.0
 41
0.9
 50
0.0
 71
     0
 42
64.0
  3
SIMPLEX.shx
  4
BIGFONT.shx
  0
ENDTAB
  0
TABLE
  2
APPID
 70
    17
  0
APPID
  2
ACAD
 70
     0
  0
APPID
  2
AUTOCAD_POSTSCRIPT_FIGURE
 70
     0
  0
APPID
  2
ACAD_EXEMPT_FROM_CAD_STANDARDS
 70
     0
  0
APPID
  2
ACAD_PSEXT
 70
     0
  0
APPID
  2
ACAUTHENVIRON
 70
     0
  0
APPID
  2
GENIUS_GENOENT_13
 70
     0
  0
APPID
  2
GENIUS_GENCFG_13
 70
     0
  0
APPID
  2
GENIUS_GENCFG0_13
 70
     0
  0
APPID
  2
GENIUS_GENCFG1_13
 70
     0
  0
APPID
  2
GENIUS_GENCFG2_13
 70
     0
  0
APPID
  2
GENIUS_GENCFG3_13
 70
     0
  0
APPID
  2
GENIUS_GENCFG4_13
 70
     0
  0
APPID
  2
GENIUS_GEVCFG0_13
 70
     0
  0
APPID
  2
CONTENTBLOCKICON
 70
     0
  0
APPID
  2
CONTENTBLOCKDESCRIPTION
 70
     0
  0
APPID
  2
ACAD_NAV_VCDISPLAY
 70
     0
  0
APPID
  2
ACAD_MLEADERVER
 70
     0
  0
ENDTAB
  0
TABLE
  2
DIMSTYLE
 70
     1
  0
DIMSTYLE
  2
STANDARD
 70
     0
  3

  4

  5
_ORIGIN
  6

  7

 40
1.0
 41
12.0
 42
20.0
 43
200.0
 44
20.0
 45
0.0
 46
0.0
 47
0.0
 48
0.0
140
64.0
141
0.09
142
0.0
143
25.399999999999999
144
1.0
145
0.0
146
1.0
147
25.0
 71
     0
 72
     0
 73
     0
 74
     0
 75
     0
 76
     0
 77
     1
 78
     8
170
     0
171
     2
172
     1
173
     0
174
     1
175
     0
176
     7
177
     7
178
     7
  0
ENDTAB
  0
TABLE
  2
VIEW
 70
     1
  0
VIEW
  2
ALL
 70
     0
 40
4282.6198079999986
 10
0.0
 20
41.309904000000003
 41
5940.0
 11
0.0
 21
0.0
 31
1.0
 12
0.0
 22
0.0
 32
0.0
 42
50.0
 43
0.0
 44
0.0
 50
0.0
 71
     0
  0
ENDTAB
  0
TABLE
  2
UCS
 70
     0
  0
ENDTAB
  0
TABLE
  2
VPORT
 70
     1
  0
VPORT
  2
*ACTIVE
 70
     0
 10
0.0
 20
0.0
 11
1.0
 21
1.0
 12
476.52513035168442
 22
112.9672334126129
 13
0.0
 23
0.0
 14
1.0
 24
1.0
 15
0.0
 25
0.0
 16
0.0
 26
0.0
 36
1.0
 17
0.0
 27
0.0
 37
0.0
 40
707.0017863232963
 41
1.953615279672579
 42
50.0
 43
0.0
 44
0.0
 50
0.0
 51
0.0
 71
     0
 72
  1000
 73
     1
 74
     3
 75
     0
 76
     0
 77
     0
 78
     0
  0
ENDTAB
  0
ENDSEC
  0
SECTION
  2
BLOCKS
  0
BLOCK
  8
0
  2
_ORIGIN
 70
     0
 10
0.0
 20
0.0
 30
0.0
  3
_ORIGIN
  1
_ORIGIN
  0
CIRCLE
  8
0
  6
CONTINUOUS
 62
     7
 10
0.0
 20
0.0
 30
0.0
 40
0.5
  0
LINE
  8
0
  6
CONTINUOUS
 62
     7
 10
0.0
 20
0.0
 30
0.0
 11
-1.0
 21
0.0
 31
0.0
  0
ENDBLK
  8
0
  0
ENDSEC
  0
SECTION
  2
ENTITIES
  0
CIRCLE
  8
ARRANGE
  6
CONTINUOUS
 62
     1
 10
0.0
 20
0.0
 30
0.0
 40
40.0
  0
POINT
  8
ARRANGE
  6
CONTINUOUS
 62
     1
 10
0.0
 20
0.0
 30
0.0
  0
LINE
  8
BASIS
  6
DASHDOT
 62
     6
 10
153.80335527567021
 20
0.0
 30
0.0
 11
-81.65100460955955
 21
0.0
 31
0.0
  0
LINE
  8
DETAIL
  6
CONTINUOUS
 62
     5
 10
-36.02624371842694
 20
38.743976294564391
 30
0.0
 11
-38.057927397252797
 21
36.035064722697371
 31
0.0
  0
LINE
  8
DETAIL
  6
CONTINUOUS
 62
     5
 10
-41.792712501377309
 20
31.055351250431389
 30
0.0
 11
-46.423846030492307
 21
24.88050654499466
 31
0.0
  0
LINE
  8
DETAIL
  6
CONTINUOUS
 62
     5
 10
-41.41923399096504
 20
31.055351250431389
 30
0.0
 11
-38.057927397252797
 21
35.537093375381119
 31
0.0
  0
LINE
  8
DETAIL
  6
CONTINUOUS
 62
     5
 10
-46.423846030492307
 20
-24.51825109894617
 30
0.0
 11
-46.423846030492307
 21
24.88050654499466
 31
0.0
  0
LINE
  8
DETAIL
  6
CONTINUOUS
 62
     5
 10
-41.792712501377309
 20
31.055351250431389
 30
0.0
 11
-41.792712501377309
 21
-30.693095804382889
 31
0.0
  0
LINE
  8
DETAIL
  6
CONTINUOUS
 62
     5
 10
-41.41923399096504
 20
-30.693095804382889
 30
0.0
 11
-41.41923399096504
 21
31.055351250431389
 31
0.0
  0
LINE
  8
DETAIL
  6
CONTINUOUS
 62
     5
 10
-38.057927397252797
 20
36.035064722697371
 30
0.0
 11
-38.057927397252797
 21
-35.672809276499493
 31
0.0
  0
LINE
  8
DETAIL
  6
CONTINUOUS
 62
     5
 10
-36.02624371842694
 20
-38.381720848515897
 30
0.0
 11
-38.057927397252797
 21
-35.672809276499493
 31
0.0
  0
LINE
  8
DETAIL
  6
CONTINUOUS
 62
     5
 10
-41.792712501377309
 20
-30.693095804382889
 30
0.0
 11
-46.423846030492307
 21
-24.51825109894617
 31
0.0
  0
LINE
  8
DETAIL
  6
CONTINUOUS
 62
     5
 10
-41.41923399096504
 20
-30.693095804382889
 30
0.0
 11
-38.057927397252797
 21
-35.174837929332632
 31
0.0
  0
LINE
  8
DETAIL
  6
CONTINUOUS
 62
     5
 10
-41.792712501377309
 20
-30.693095804382889
 30
0.0
 11
-41.41923399096504
 21
-30.693095804382889
 31
0.0
  0
LINE
  8
DETAIL
  6
CONTINUOUS
 62
     5
 10
-41.792712501377309
 20
31.055351250431389
 30
0.0
 11
-41.41923399096504
 21
31.055351250431389
 31
0.0
  0
LINE
  8
DETAIL
  6
CONTINUOUS
 62
     5
 10
0.0
 20
-134.8409853836599
 30
0.0
 11
0.0
 21
117.7175281505628
 31
0.0
  0
ARC
  8
DETAIL
  6
CONTINUOUS
 62
     5
 10
0.4526868995774294
 20
-120.2635815583992
 30
0.0
 40
0.4493035425592903
 50
90.0
 51
180.0
  0
LINE
  8
DETAIL
  6
CONTINUOUS
 62
     5
 10
0.4526868995774294
 20
-119.8142780158399
 30
0.0
 11
1.501061832216237
 21
-119.8142780158399
 31
0.0
  0
LINE
  8
DETAIL
  6
CONTINUOUS
 62
     5
 10
1.4976784751982
 20
-119.8142780158399
 30
0.0
 11
25.36407220370393
 21
-119.8142780158399
 31
0.0
  0
LINE
  8
DETAIL
  6
CONTINUOUS
 62
     5
 10
73.888854800119589
 20
-119.8142780158399
 30
0.0
 11
89.864091868898186
 21
-119.8142780158399
 31
0.0
  0
LINE
  8
DETAIL
  6
CONTINUOUS
 62
     5
 10
49.276245710914282
 20
-119.8142780158399
 30
0.0
 11
72.391176324921616
 21
-119.8142780158399
 31
0.0
  0
LINE
  8
DETAIL
  6
CONTINUOUS
 62
     5
 10
25.460534078366209
 20
-119.8142780158399
 30
0.0
 11
49.326927806871943
 21
-119.8142780158399
 31
0.0
  0
LINE
  8
DETAIL
  6
CONTINUOUS
 62
     5
 10
89.86070851187992
 20
-119.360622871621
 30
0.0
 11
89.86070851187992
 21
119.7144327841601
 31
0.0
  0
LINE
  8
NOTE
  6
CONTINUOUS
 62
     4
 10
29.953569503960129
 20
118.4070515409758
 30
0.0
 11
29.953569503960129
 21
124.67520736790991
 31
0.0
  0
ARC
  8
DETAIL
  6
CONTINUOUS
 62
     5
 10
0.4493035425593916
 20
120.1637363267196
 30
0.0
 40
0.4493035425593462
 50
180.0
 51
270.0
  0
LINE
  8
DETAIL
  6
CONTINUOUS
 62
     5
 10
0.0
 20
120.1637363267196
 30
0.0
 11
0.0
 21
139.83324696765331
 31
0.0
  0
LINE
  8
DETAIL
  6
CONTINUOUS
 62
     5
 10
0.4493035425593916
 20
119.7144327841601
 30
0.0
 11
1.996904633597524
 21
119.7144327841601
 31
0.0
  0
LINE
  8
DETAIL
  6
CONTINUOUS
 62
     5
 10
-14.47152627750029
 20
-155.69366202
 30
0.0
 11
-15.46956257250031
 21
-155.69366202
 31
0.0
  0
LINE
  8
DETAIL
  6
CONTINUOUS
 62
     5
 10
-13.772900871000269
 20
-155.1946438725
 30
0.0
 11
-13.97250813000028
 21
-155.1946438725
 31
0.0
  0
LINE
  8
DETAIL
  6
CONTINUOUS
 62
     5
 10
-13.97250813000028
 20
-154.1966075775
 30
0.0
 11
-13.772900871000269
 21
-154.1966075775
 31
0.0
  0
LINE
  8
DETAIL
  6
CONTINUOUS
 62
     5
 10
-14.47152627750029
 20
-147.7736019059769
 30
0.0
 11
-13.97250813000028
 21
-147.76489151187579
 31
0.0
  0
LINE
  8
DETAIL
  6
CONTINUOUS
 62
     5
 10
-34.948688460122177
 20
-147.39875092224881
 30
0.0
 11
-0.5077272150113004
 21
-147.99992013700361
 31
0.0
  0
LINE
  8
DETAIL
  6
CONTINUOUS
 62
     5
 10
-62.893704720122059
 20
-145.07461058119529
 30
0.0
 11
-55.399723440011478
 21
-145.20541851100359
 31
0.0
  0
LINE
  8
DETAIL
  6
CONTINUOUS
 62
     5
 10
-54.891996225000177
 20
-140.99527369357219
 30
0.0
 11
-35.929306620000261
 21
-141.32626867180511
 31
0.0
  0
LINE
  8
DETAIL
  6
CONTINUOUS
 62
     5
 10
-54.891996225000177
 20
-129.4725622514278
 30
0.0
 11
-35.929306620000261
 21
-129.14156727309509
 31
0.0
  0
LINE
  8
DETAIL
  6
CONTINUOUS
 62
     5
 10
-54.891996225000177
 20
-125.05394776350001
 30
0.0
 11
-35.929306620000261
 21
-125.05394776350001
 31
0.0
  0
LINE
  8
DETAIL
  6
CONTINUOUS
 62
     5
 10
-54.891996225000177
 20
-123.2574824325
 30
0.0
 11
-35.929306620000261
 21
-123.2574824325
 31
0.0
  0
LINE
  8
DETAIL
  6
CONTINUOUS
 62
     5
 10
-54.891996225000177
 20
-128.49545222894841
 30
0.0
 11
-38.923415505000321
 21
-125.05394776350001
 31
0.0
  0
LINE
  8
DETAIL
  6
CONTINUOUS
 62
     5
 10
-0.0000000000002274
 20
-101.79970209
 30
0.0
 11
-8.1829070058993238
 21
-100.9814113893901
 31
0.0
  0
LINE
  8
DETAIL
  6
CONTINUOUS
 62
     5
 10
-8.1829202022347545
 20
-92.637631160213459
 30
0.0
 11
-0.0000000000002274
 21
-91.819339140000011
 31
0.0
  0
LINE
  8
DETAIL
  6
CONTINUOUS
 62
     5
 10
-63.874322880000143
 20
-144.07672629191359
 30
0.0
 11
-63.874322880000143
 21
144.0767262920134
 31
0.0
  0
LINE
  8
DETAIL
  6
CONTINUOUS
 62
     5
 10
-54.891996225000177
 20
144.70647636636281
 30
0.0
 11
-54.891996225000177
 21
-144.70647636636281
 31
0.0
  0
LINE
  8
DETAIL
  6
CONTINUOUS
 62
     5
 10
-36.927342915000281
 20
-123.2574824325
 30
0.0
 11
-36.927342915000281
 21
-125.05394776350001
 31
0.0
  0
LINE
  8
DETAIL
  6
CONTINUOUS
 62
     5
 10
-36.927342915000281
 20
123.2574824325
 30
0.0
 11
-36.927342915000281
 21
125.05394776350001
 31
0.0
  0
LINE
  8
DETAIL
  6
CONTINUOUS
 62
     5
 10
-35.929306620000261
 20
-146.40086663296719
 30
0.0
 11
-35.929306620000261
 21
146.4008666330669
 31
0.0
  0
LINE
  8
DETAIL
  6
CONTINUOUS
 62
     5
 10
-15.96858072000032
 20
-147.7300499351725
 30
0.0
 11
-15.96858072000032
 21
-155.1946438725
 31
0.0
  0
LINE
  8
DETAIL
  6
CONTINUOUS
 62
     5
 10
-13.97250813000028
 20
-155.1946438725
 30
0.0
 11
-13.97250813000028
 21
-147.76489151187579
 31
0.0
  0
LINE
  8
DETAIL
  6
CONTINUOUS
 62
     5
 10
-13.373686353000039
 20
-154.59582209550001
 30
0.0
 11
-13.373686353000039
 21
-154.79542935449999
 31
0.0
  0
LINE
  8
DETAIL
  6
CONTINUOUS
 62
     5
 10
-9.9803629500001989
 20
-98.995257451260841
 30
0.0
 11
-9.9803629500001989
 21
-94.623832326019055
 31
0.0
  0
LINE
  8
DETAIL
  6
CONTINUOUS
 62
     5
 10
-0.0000000000002274
 20
147.50097799236281
 30
0.0
 11
-0.0000000000002274
 21
-91.819339140000011
 31
0.0
  0
LINE
  8
DETAIL
  6
CONTINUOUS
 62
     5
 10
-0.0000000000002274
 20
-101.79970209
 30
0.0
 11
-0.0000000000002274
 21
-147.50097799236281
 31
0.0
  0
LINE
  8
DETAIL
  6
CONTINUOUS
 62
     5
 10
-54.891996225000177
 20
123.2574824325
 30
0.0
 11
-35.929306620000261
 21
123.2574824325
 31
0.0
  0
LINE
  8
DETAIL
  6
CONTINUOUS
 62
     5
 10
-54.891996225000177
 20
128.4954522290482
 30
0.0
 11
-38.923415505000321
 21
125.05394776350001
 31
0.0
  0
LINE
  8
DETAIL
  6
CONTINUOUS
 62
     5
 10
-54.891996225000177
 20
125.05394776350001
 30
0.0
 11
-35.929306620000261
 21
125.05394776350001
 31
0.0
  0
LINE
  8
DETAIL
  6
CONTINUOUS
 62
     5
 10
-54.891996225000177
 20
129.47256225142769
 30
0.0
 11
-35.929306620000261
 21
129.14156727319491
 31
0.0
  0
LINE
  8
DETAIL
  6
CONTINUOUS
 62
     5
 10
-54.891996225000177
 20
140.99527369357219
 30
0.0
 11
-35.929306620000261
 21
141.3262686719049
 31
0.0
  0
LINE
  8
DETAIL
  6
CONTINUOUS
 62
     5
 10
-62.893704720122059
 20
145.07461058119529
 30
0.0
 11
-55.399723440011478
 21
145.2054185110037
 31
0.0
  0
LINE
  8
DETAIL
  6
CONTINUOUS
 62
     5
 10
-34.948688460122177
 20
147.39875092224881
 30
0.0
 11
-0.5077272150113004
 21
147.99992013700361
 31
0.0
  0
ARC
  8
DETAIL
  6
CONTINUOUS
 62
     5
 10
-7.9842903600001591
 20
-98.995244928001284
 30
0.0
 40
1.996072590000028
 50
180.00035947079849
 51
264.29045019679762
  0
ARC
  8
DETAIL
  6
CONTINUOUS
 62
     5
 10
-7.9842903600001591
 20
-94.623796301998709
 30
0.0
 40
1.996072590000024
 50
95.710973809498014
 51
180.00103404369949
  0
ARC
  8
DETAIL
  6
CONTINUOUS
 62
     5
 10
-62.876286585000123
 20
144.0767262920134
 30
0.0
 40
0.9980362950000121
 50
90.999999999995254
 51
180.02970728760101
  0
ARC
  8
DETAIL
  6
CONTINUOUS
 62
     5
 10
-62.876286585000123
 20
-144.07672629191359
 30
0.0
 40
0.998036295
 50
180.0
 51
268.99999999999818
  0
ARC
  8
DETAIL
  6
CONTINUOUS
 62
     5
 10
-34.931270325000241
 20
146.4008666330669
 30
0.0
 40
0.9980362950000121
 50
90.999999999995254
 51
180.0
  0
ARC
  8
DETAIL
  6
CONTINUOUS
 62
     5
 10
-34.931270325000241
 20
-146.4008612657276
 30
0.0
 40
0.998036295000024
 50
180.00030812950271
 51
269.00000537739868
  0
ARC
  8
DETAIL
  6
CONTINUOUS
 62
     5
 10
-55.391014372500187
 20
144.70647636636281
 30
0.0
 40
0.4990181475
 50
0.0
 51
91.000000000001776
  0
ARC
  8
DETAIL
  6
CONTINUOUS
 62
     5
 10
-55.391014372500187
 20
-144.70647636636281
 30
0.0
 40
0.4990181475000079
 50
268.99999999999818
 51
0.0
  0
ARC
  8
DETAIL
  6
CONTINUOUS
 62
     5
 10
-0.4990181475002373
 20
147.50097124683509
 30
0.0
 40
0.49901814749998
 50
0.0007745006016791
 51
90.999986483597198
  0
ARC
  8
DETAIL
  6
CONTINUOUS
 62
     5
 10
-0.4990181475002373
 20
-147.50097799236281
 30
0.0
 40
0.4990181475000079
 50
268.99999999999818
 51
0.0
  0
ARC
  8
DETAIL
  6
CONTINUOUS
 62
     5
 10
-14.47152627750029
 20
-155.1946438725
 30
0.0
 40
0.4990181475
 50
270.0
 51
0.0
  0
ARC
  8
DETAIL
  6
CONTINUOUS
 62
     5
 10
-15.46956257250031
 20
-155.1946438725
 30
0.0
 40
0.4990181475
 50
180.0
 51
270.0
  0
ARC
  8
DETAIL
  6
CONTINUOUS
 62
     5
 10
-13.772900871000269
 20
-154.59582209550001
 30
0.0
 40
0.399214517999976
 50
0.0
 51
90.0
  0
ARC
  8
DETAIL
  6
CONTINUOUS
 62
     5
 10
-13.772900871000269
 20
-154.79542935449999
 30
0.0
 40
0.399214517999976
 50
270.0
 51
0.0
  0
LINE
  8
DETAIL
  6
CONTINUOUS
 62
     5
 10
13.379261045101661
 20
-119.8142780158399
 30
0.0
 11
13.48248963380024
 21
-119.8142780158399
 31
0.0
  0
LINE
  8
DETAIL
  6
CONTINUOUS
 62
     5
 10
25.36407220370393
 20
-119.8142780158399
 30
0.0
 11
25.460534078366209
 21
-119.8142780158399
 31
0.0
  0
LINE
  8
DETAIL
  6
CONTINUOUS
 62
     5
 10
61.304972251437903
 20
-119.8142780158399
 30
0.0
 11
61.408200840136033
 21
-119.8142780158399
 31
0.0
  0
LINE
  8
DETAIL
  6
CONTINUOUS
 62
     5
 10
49.326927806871943
 20
-119.8142780158399
 30
0.0
 11
49.423389681533763
 21
-119.8142780158399
 31
0.0
  0
LINE
  8
DETAIL
  6
CONTINUOUS
 62
     5
 10
37.342116648269673
 20
-119.8142780158399
 30
0.0
 11
37.445345236968478
 21
-119.8142780158399
 31
0.0
  0
LINE
  8
DETAIL
  6
CONTINUOUS
 62
     5
 10
72.391176324921616
 20
-119.8142780158399
 30
0.0
 11
73.888854800119589
 21
-119.8142780158399
 31
0.0
  0
LINE
  8
DETAIL
  6
CONTINUOUS
 62
     5
 10
89.86070851187992
 20
119.7144327841601
 30
0.0
 11
1.996904633597524
 21
119.7144327841601
 31
0.0
  0
LINE
  8
DETAIL
  6
CONTINUOUS
 62
     5
 10
89.86070851187992
 20
119.7144327841601
 30
0.0
 11
1.996904633597524
 21
119.7144327841601
 31
0.0
  0
LINE
  8
DETAIL
  6
CONTINUOUS
 62
     5
 10
72.391176324921616
 20
-119.8142780158399
 30
0.0
 11
73.888854800119589
 21
-119.8142780158399
 31
0.0
  0
LINE
  8
DETAIL
  6
CONTINUOUS
 62
     5
 10
37.342116648269673
 20
-119.8142780158399
 30
0.0
 11
37.445345236968478
 21
-119.8142780158399
 31
0.0
  0
LINE
  8
DETAIL
  6
CONTINUOUS
 62
     5
 10
49.326927806871943
 20
-119.8142780158399
 30
0.0
 11
49.423389681533763
 21
-119.8142780158399
 31
0.0
  0
LINE
  8
DETAIL
  6
CONTINUOUS
 62
     5
 10
61.304972251437903
 20
-119.8142780158399
 30
0.0
 11
61.408200840136033
 21
-119.8142780158399
 31
0.0
  0
LINE
  8
DETAIL
  6
CONTINUOUS
 62
     5
 10
25.36407220370393
 20
-119.8142780158399
 30
0.0
 11
25.460534078366209
 21
-119.8142780158399
 31
0.0
  0
LINE
  8
DETAIL
  6
CONTINUOUS
 62
     5
 10
13.379261045101661
 20
-119.8142780158399
 30
0.0
 11
13.48248963380024
 21
-119.8142780158399
 31
0.0
  0
LINE
  8
DETAIL
  6
CONTINUOUS
 62
     5
 10
73.097747920941174
 20
98.904696751253255
 30
0.0
 11
73.097747920941174
 21
-99.004541982933233
 31
0.0
  0
LINE
  8
DETAIL
  6
CONTINUOUS
 62
     5
 10
86.65462276684525
 20
-99.004541982933233
 30
0.0
 11
86.65462276684525
 21
98.904696751253255
 31
0.0
  0
LINE
  8
DETAIL
  6
CONTINUOUS
 62
     5
 10
86.65462276684525
 20
-99.004541982933233
 30
0.0
 11
86.65462276684525
 21
98.904696751253255
 31
0.0
  0
LINE
  8
DETAIL
  6
CONTINUOUS
 62
     5
 10
73.097747920941174
 20
98.904696751253255
 30
0.0
 11
73.097747920941174
 21
-99.004541982933233
 31
0.0
  0
LINE
  8
DETAIL
  6
CONTINUOUS
 62
     5
 10
81.358813337268884
 20
-44.995332102689872
 30
0.0
 11
78.393557350516858
 21
-47.960578591265858
 31
0.0
  0
LINE
  8
DETAIL
  6
CONTINUOUS
 62
     5
 10
78.393562099605333
 20
-44.995327353602079
 30
0.0
 11
81.358808588181319
 21
-47.960583340353651
 31
0.0
  0
CIRCLE
  8
DETAIL
  6
CONTINUOUS
 62
     5
 10
79.876185343893439
 20
-46.477955346977858
 30
0.0
 40
3.9938092671946639
  0
LINE
  8
DETAIL
  6
CONTINUOUS
 62
     5
 10
81.358813337268884
 20
25.89478239001539
 30
0.0
 11
78.393557350516858
 21
22.929535901439522
 31
0.0
  0
LINE
  8
DETAIL
  6
CONTINUOUS
 62
     5
 10
78.393562099605333
 20
25.8947871391033
 30
0.0
 11
81.358808588181319
 21
22.929531152351611
 31
0.0
  0
CIRCLE
  8
DETAIL
  6
CONTINUOUS
 62
     5
 10
79.876185343893439
 20
24.412159145727401
 30
0.0
 40
3.9938092671946639
  0
LINE
  8
DETAIL
  6
CONTINUOUS
 62
     5
 10
81.358813337268884
 20
96.784896882720659
 30
0.0
 11
78.393557350516858
 21
93.819650394144787
 31
0.0
  0
LINE
  8
DETAIL
  6
CONTINUOUS
 62
     5
 10
78.393562099605333
 20
96.784901631808623
 30
0.0
 11
81.358808588181319
 21
93.81964564505688
 31
0.0
  0
CIRCLE
  8
DETAIL
  6
CONTINUOUS
 62
     5
 10
79.876185343893439
 20
95.302273638432723
 30
0.0
 40
3.9938092671946639
  0
CIRCLE
  8
DETAIL
  6
CONTINUOUS
 62
     5
 10
79.876185343893439
 20
95.302273638432723
 30
0.0
 40
3.9938092671946639
  0
LINE
  8
DETAIL
  6
CONTINUOUS
 62
     5
 10
78.393562099605333
 20
96.784901631808623
 30
0.0
 11
81.358808588181319
 21
93.81964564505688
 31
0.0
  0
LINE
  8
DETAIL
  6
CONTINUOUS
 62
     5
 10
81.358813337268884
 20
96.784896882720659
 30
0.0
 11
78.393557350516858
 21
93.819650394144787
 31
0.0
  0
CIRCLE
  8
DETAIL
  6
CONTINUOUS
 62
     5
 10
79.876185343893439
 20
24.412159145727401
 30
0.0
 40
3.9938092671946639
  0
LINE
  8
DETAIL
  6
CONTINUOUS
 62
     5
 10
78.393562099605333
 20
25.8947871391033
 30
0.0
 11
81.358808588181319
 21
22.929531152351611
 31
0.0
  0
LINE
  8
DETAIL
  6
CONTINUOUS
 62
     5
 10
81.358813337268884
 20
25.89478239001539
 30
0.0
 11
78.393557350516858
 21
22.929535901439522
 31
0.0
  0
CIRCLE
  8
DETAIL
  6
CONTINUOUS
 62
     5
 10
79.876185343893439
 20
-46.477955346977858
 30
0.0
 40
3.9938092671946639
  0
LINE
  8
DETAIL
  6
CONTINUOUS
 62
     5
 10
78.393562099605333
 20
-44.995327353602079
 30
0.0
 11
81.358808588181319
 21
-47.960583340353651
 31
0.0
  0
LINE
  8
DETAIL
  6
CONTINUOUS
 62
     5
 10
81.358813337268884
 20
-44.995332102689872
 30
0.0
 11
78.393557350516858
 21
-47.960578591265858
 31
0.0
  0
LINE
  8
DETAIL
  6
CONTINUOUS
 62
     5
 10
141.82746028105601
 20
-57.449380527254903
 30
0.0
 11
141.72775005373649
 21
-57.775517985372289
 31
0.0
  0
LINE
  8
DETAIL
  6
CONTINUOUS
 62
     5
 10
141.47005480274299
 20
-57.696732640677283
 30
0.0
 11
141.56976503006231
 21
-57.37059518256001
 31
0.0
  0
LINE
  8
DETAIL
  6
CONTINUOUS
 62
     5
 10
141.39085512376349
 20
-57.034114586871283
 30
0.0
 11
141.46964046845829
 21
-56.776419335877677
 31
0.0
  0
LINE
  8
DETAIL
  6
CONTINUOUS
 62
     5
 10
131.08815626852461
 20
-56.733396075948917
 30
0.0
 11
131.96354898735771
 21
-53.870115509352217
 31
0.0
  0
LINE
  8
DETAIL
  6
CONTINUOUS
 62
     5
 10
137.94800890124031
 20
-56.254419946278517
 30
0.0
 11
138.08853820362211
 21
-56.024494984483908
 31
0.0
  0
LINE
  8
DETAIL
  6
CONTINUOUS
 62
     5
 10
93.636340612411459
 20
-47.553942015129451
 30
0.0
 11
93.811419156177863
 21
-46.981285901810111
 31
0.0
  0
LINE
  8
DETAIL
  6
CONTINUOUS
 62
     5
 10
128.5957074111023
 20
-58.058654641294311
 30
0.0
 11
131.08815626852461
 21
-56.733396075948917
 31
0.0
  0
LINE
  8
DETAIL
  6
CONTINUOUS
 62
     5
 10
128.5957074189206
 20
-58.058654643371597
 30
0.0
 11
93.636340612411459
 21
-47.553942015129451
 31
0.0
  0
LINE
  8
DETAIL
  6
CONTINUOUS
 62
     5
 10
93.811419156177863
 20
-46.981285901810111
 30
0.0
 11
92.188893501773009
 21
-46.485230027804732
 31
0.0
  0
LINE
  8
DETAIL
  6
CONTINUOUS
 62
     5
 10
141.39085512376349
 20
-57.034114586871283
 30
0.0
 11
131.88476364266251
 21
-54.127810760345938
 31
0.0
  0
LINE
  8
DETAIL
  6
CONTINUOUS
 62
     5
 10
140.93130094692751
 20
-58.077797219762367
 30
0.0
 11
137.94800890124031
 21
-56.254419946278517
 31
0.0
  0
LINE
  8
DETAIL
  6
CONTINUOUS
 62
     5
 10
138.08853820362211
 20
-56.024494984483908
 30
0.0
 11
141.07183024933809
 21
-57.847872257872382
 31
0.0
  0
ARC
  8
DETAIL
  6
CONTINUOUS
 62
     5
 10
141.31206977906859
 20
-57.291809837865003
 30
0.0
 40
0.538939599300012
 50
343.00000000000489
 51
72.999999999998096
  0
ARC
  8
DETAIL
  6
CONTINUOUS
 62
     5
 10
141.21235955174919
 20
-57.617947295982283
 30
0.0
 40
0.5389395993000439
 50
238.56687775720431
 51
342.99999999999778
  0
ARC
  8
DETAIL
  6
CONTINUOUS
 62
     5
 10
141.21235955174919
 20
-57.617947295982283
 30
0.0
 40
0.2694697996499481
 50
238.56687775720431
 51
343.00000000000489
  0
ARC
  8
DETAIL
  6
CONTINUOUS
 62
     5
 10
141.31206977906859
 20
-57.291809837865003
 30
0.0
 40
0.269469799650012
 50
343.00000000000489
 51
73.000000000004931
  0
ARC
  8
DETAIL
  6
CONTINUOUS
 62
     5
 10
91.528698116570467
 20
-46.596479540697828
 30
0.0
 40
0.299410888499992
 50
252.9999999999981
 51
342.99999999999147
  0
ARC
  8
DETAIL
  6
CONTINUOUS
 62
     5
 10
92.101354229889921
 20
-46.771558084464353
 30
0.0
 40
0.2994108884999401
 50
73.000000000004931
 51
163.00000000000489
  0
LINE
  8
DETAIL
  6
CONTINUOUS
 62
     5
 10
89.86070851187992
 20
-46.399615440096802
 30
0.0
 11
91.441158844687152
 21
-46.882807597357562
 31
0.0
  0
LINE
  8
DETAIL
  6
CONTINUOUS
 62
     5
 10
141.46964046845829
 20
-56.776419335877677
 30
0.0
 11
89.86070851187992
 21
-41.181423808314548
 31
0.0
  0
LINE
  8
DETAIL
  6
CONTINUOUS
 62
     5
 10
141.82746028105601
 20
13.440733965450359
 30
0.0
 11
141.72775005373649
 21
13.11459650733309
 31
0.0
  0
LINE
  8
DETAIL
  6
CONTINUOUS
 62
     5
 10
141.47005480274299
 20
13.193381852027979
 30
0.0
 11
141.56976503006231
 21
13.51951931014537
 31
0.0
  0
LINE
  8
DETAIL
  6
CONTINUOUS
 62
     5
 10
141.39085512376349
 20
13.855999905833979
 30
0.0
 11
141.46964046845829
 21
14.113695156827699
 31
0.0
  0
LINE
  8
DETAIL
  6
CONTINUOUS
 62
     5
 10
131.08815626852461
 20
14.15671841675635
 30
0.0
 11
131.96354898735771
 21
17.019998983353052
 31
0.0
  0
LINE
  8
DETAIL
  6
CONTINUOUS
 62
     5
 10
137.94800890124031
 20
14.63569454642675
 30
0.0
 11
138.08853820362211
 21
14.86561950822124
 31
0.0
  0
LINE
  8
DETAIL
  6
CONTINUOUS
 62
     5
 10
93.636340612411459
 20
23.336172477575811
 30
0.0
 11
93.811419156177863
 21
23.908828590895151
 31
0.0
  0
LINE
  8
DETAIL
  6
CONTINUOUS
 62
     5
 10
128.5957074111023
 20
12.831459851410949
 30
0.0
 11
131.08815626852461
 21
14.15671841675635
 31
0.0
  0
LINE
  8
DETAIL
  6
CONTINUOUS
 62
     5
 10
128.5957074189206
 20
12.831459849333671
 30
0.0
 11
93.636340612411459
 21
23.336172477575811
 31
0.0
  0
LINE
  8
DETAIL
  6
CONTINUOUS
 62
     5
 10
93.811419156177863
 20
23.908828590895151
 30
0.0
 11
92.188893501773009
 21
24.40488446490053
 31
0.0
  0
LINE
  8
DETAIL
  6
CONTINUOUS
 62
     5
 10
141.39085512376349
 20
13.855999905833979
 30
0.0
 11
131.88476364266251
 21
16.762303732359332
 31
0.0
  0
LINE
  8
DETAIL
  6
CONTINUOUS
 62
     5
 10
140.93130094692751
 20
12.812317272943011
 30
0.0
 11
137.94800890124031
 21
14.63569454642675
 31
0.0
  0
LINE
  8
DETAIL
  6
CONTINUOUS
 62
     5
 10
138.08853820362211
 20
14.86561950822124
 30
0.0
 11
141.07183024933809
 21
13.04224223483288
 31
0.0
  0
ARC
  8
DETAIL
  6
CONTINUOUS
 62
     5
 10
141.31206977906859
 20
13.598304654840261
 30
0.0
 40
0.538939599300016
 50
343.00000000000489
 51
72.999999999998096
  0
ARC
  8
DETAIL
  6
CONTINUOUS
 62
     5
 10
141.21235955174919
 20
13.272167196722879
 30
0.0
 40
0.538939599300032
 50
238.56687775720431
 51
343.00000000000489
  0
ARC
  8
DETAIL
  6
CONTINUOUS
 62
     5
 10
141.21235955174919
 20
13.272167196722879
 30
0.0
 40
0.2694697996499362
 50
238.56687775720431
 51
343.00000000000489
  0
ARC
  8
DETAIL
  6
CONTINUOUS
 62
     5
 10
141.31206977906859
 20
13.598304654840261
 30
0.0
 40
0.269469799650012
 50
343.00000000000489
 51
72.999999999998096
  0
ARC
  8
DETAIL
  6
CONTINUOUS
 62
     5
 10
91.528698116570467
 20
24.293634952007551
 30
0.0
 40
0.299410888499984
 50
252.9999999999981
 51
342.99999999999147
  0
ARC
  8
DETAIL
  6
CONTINUOUS
 62
     5
 10
92.101354229889921
 20
24.11855640824092
 30
0.0
 40
0.2994108884999481
 50
73.000000000004931
 51
163.00000000000489
  0
LINE
  8
DETAIL
  6
CONTINUOUS
 62
     5
 10
89.86070851187992
 20
24.49049905260847
 30
0.0
 11
91.441158844687152
 21
24.00730689534771
 31
0.0
  0
LINE
  8
DETAIL
  6
CONTINUOUS
 62
     5
 10
141.46964046845829
 20
14.113695156827699
 30
0.0
 11
89.86070851187992
 21
29.708690684390831
 31
0.0
  0
LINE
  8
DETAIL
  6
CONTINUOUS
 62
     5
 10
141.82746028105601
 20
84.330848458155742
 30
0.0
 11
141.72775005373649
 21
84.004711000038355
 31
0.0
  0
LINE
  8
DETAIL
  6
CONTINUOUS
 62
     5
 10
141.47005480274319
 20
84.083496344733362
 30
0.0
 11
141.56976503006251
 21
84.409633802850635
 31
0.0
  0
LINE
  8
DETAIL
  6
CONTINUOUS
 62
     5
 10
141.3908551237638
 20
84.746114398539362
 30
0.0
 11
141.46964046845861
 21
85.003809649532968
 31
0.0
  0
LINE
  8
DETAIL
  6
CONTINUOUS
 62
     5
 10
131.08815626852481
 20
85.046832909461727
 30
0.0
 11
131.96354898735771
 21
87.910113476058427
 31
0.0
  0
LINE
  8
DETAIL
  6
CONTINUOUS
 62
     5
 10
137.94800890124051
 20
85.525809039132184
 30
0.0
 11
138.08853820362211
 21
85.75573400092668
 31
0.0
  0
LINE
  8
DETAIL
  6
CONTINUOUS
 62
     5
 10
93.636340612411459
 20
94.226286970281194
 30
0.0
 11
93.81141915617809
 21
94.798943083600534
 31
0.0
  0
LINE
  8
DETAIL
  6
CONTINUOUS
 62
     5
 10
128.5957074111023
 20
83.721574344116391
 30
0.0
 11
131.08815626852481
 21
85.046832909461727
 31
0.0
  0
LINE
  8
DETAIL
  6
CONTINUOUS
 62
     5
 10
89.86070851187992
 20
95.380613545313849
 30
0.0
 11
91.441158844687152
 21
94.89742138805309
 31
0.0
  0
LINE
  8
DETAIL
  6
CONTINUOUS
 62
     5
 10
128.5957074189208
 20
83.721574342039048
 30
0.0
 11
93.636340612411459
 21
94.226286970281194
 31
0.0
  0
LINE
  8
DETAIL
  6
CONTINUOUS
 62
     5
 10
93.81141915617809
 20
94.798943083600534
 30
0.0
 11
92.188893501773009
 21
95.294998957605856
 31
0.0
  0
LINE
  8
DETAIL
  6
CONTINUOUS
 62
     5
 10
141.3908551237638
 20
84.746114398539362
 30
0.0
 11
131.88476364266251
 21
87.652418225064707
 31
0.0
  0
LINE
  8
DETAIL
  6
CONTINUOUS
 62
     5
 10
141.46964046845861
 20
85.003809649532968
 30
0.0
 11
89.86070851187992
 21
100.5988051770963
 31
0.0
  0
LINE
  8
DETAIL
  6
CONTINUOUS
 62
     5
 10
140.93130094692771
 20
83.702431765648271
 30
0.0
 11
137.94800890124051
 21
85.525809039132184
 31
0.0
  0
LINE
  8
DETAIL
  6
CONTINUOUS
 62
     5
 10
138.08853820362211
 20
85.75573400092668
 30
0.0
 11
141.07183024933809
 21
83.932356727538263
 31
0.0
  0
ARC
  8
DETAIL
  6
CONTINUOUS
 62
     5
 10
141.31206977906859
 20
84.488419147545642
 30
0.0
 40
0.53893959930002
 50
342.99999999999778
 51
72.999999999998096
  0
ARC
  8
DETAIL
  6
CONTINUOUS
 62
     5
 10
141.21235955174919
 20
84.162281689428312
 30
0.0
 40
0.538939599300036
 50
238.56687775720431
 51
343.00000000000489
  0
ARC
  8
DETAIL
  6
CONTINUOUS
 62
     5
 10
141.21235955174919
 20
84.162281689428312
 30
0.0
 40
0.2694697996499441
 50
238.56687775720431
 51
343.00000000000489
  0
ARC
  8
DETAIL
  6
CONTINUOUS
 62
     5
 10
141.31206977906859
 20
84.488419147545642
 30
0.0
 40
0.269469799650016
 50
343.00000000000489
 51
72.999999999998096
  0
ARC
  8
DETAIL
  6
CONTINUOUS
 62
     5
 10
91.528698116570467
 20
95.183749444712873
 30
0.0
 40
0.2994108884999881
 50
252.9999999999981
 51
342.99999999999147
  0
ARC
  8
DETAIL
  6
CONTINUOUS
 62
     5
 10
92.101354229889921
 20
95.008670900946299
 30
0.0
 40
0.2994108884999481
 50
73.000000000004931
 51
163.00000000000489
  0
ARC
  8
DETAIL
  6
CONTINUOUS
 62
     5
 10
92.101354229889921
 20
95.008670900946299
 30
0.0
 40
0.2994108884999481
 50
73.000000000004931
 51
163.00000000000489
  0
ARC
  8
DETAIL
  6
CONTINUOUS
 62
     5
 10
91.528698116570467
 20
95.183749444712873
 30
0.0
 40
0.2994108884999881
 50
252.9999999999981
 51
342.99999999999147
  0
ARC
  8
DETAIL
  6
CONTINUOUS
 62
     5
 10
141.31206977906859
 20
84.488419147545642
 30
0.0
 40
0.269469799650016
 50
343.00000000000489
 51
72.999999999998096
  0
ARC
  8
DETAIL
  6
CONTINUOUS
 62
     5
 10
141.21235955174919
 20
84.162281689428312
 30
0.0
 40
0.2694697996499441
 50
238.56687775720431
 51
343.00000000000489
  0
ARC
  8
DETAIL
  6
CONTINUOUS
 62
     5
 10
141.21235955174919
 20
84.162281689428312
 30
0.0
 40
0.538939599300036
 50
238.56687775720431
 51
343.00000000000489
  0
ARC
  8
DETAIL
  6
CONTINUOUS
 62
     5
 10
141.31206977906859
 20
84.488419147545642
 30
0.0
 40
0.53893959930002
 50
342.99999999999778
 51
72.999999999998096
  0
LINE
  8
DETAIL
  6
CONTINUOUS
 62
     5
 10
138.08853820362211
 20
85.75573400092668
 30
0.0
 11
141.07183024933809
 21
83.932356727538263
 31
0.0
  0
LINE
  8
DETAIL
  6
CONTINUOUS
 62
     5
 10
140.93130094692771
 20
83.702431765648271
 30
0.0
 11
137.94800890124051
 21
85.525809039132184
 31
0.0
  0
LINE
  8
DETAIL
  6
CONTINUOUS
 62
     5
 10
141.46964046845861
 20
85.003809649532968
 30
0.0
 11
89.86070851187992
 21
100.5988051770963
 31
0.0
  0
LINE
  8
DETAIL
  6
CONTINUOUS
 62
     5
 10
141.3908551237638
 20
84.746114398539362
 30
0.0
 11
131.88476364266251
 21
87.652418225064707
 31
0.0
  0
LINE
  8
DETAIL
  6
CONTINUOUS
 62
     5
 10
93.81141915617809
 20
94.798943083600534
 30
0.0
 11
92.188893501773009
 21
95.294998957605856
 31
0.0
  0
LINE
  8
DETAIL
  6
CONTINUOUS
 62
     5
 10
128.5957074189208
 20
83.721574342039048
 30
0.0
 11
93.636340612411459
 21
94.226286970281194
 31
0.0
  0
LINE
  8
DETAIL
  6
CONTINUOUS
 62
     5
 10
89.86070851187992
 20
95.380613545313849
 30
0.0
 11
91.441158844687152
 21
94.89742138805309
 31
0.0
  0
LINE
  8
DETAIL
  6
CONTINUOUS
 62
     5
 10
128.5957074111023
 20
83.721574344116391
 30
0.0
 11
131.08815626852481
 21
85.046832909461727
 31
0.0
  0
LINE
  8
DETAIL
  6
CONTINUOUS
 62
     5
 10
93.636340612411459
 20
94.226286970281194
 30
0.0
 11
93.81141915617809
 21
94.798943083600534
 31
0.0
  0
LINE
  8
DETAIL
  6
CONTINUOUS
 62
     5
 10
137.94800890124051
 20
85.525809039132184
 30
0.0
 11
138.08853820362211
 21
85.75573400092668
 31
0.0
  0
LINE
  8
DETAIL
  6
CONTINUOUS
 62
     5
 10
131.08815626852481
 20
85.046832909461727
 30
0.0
 11
131.96354898735771
 21
87.910113476058427
 31
0.0
  0
LINE
  8
DETAIL
  6
CONTINUOUS
 62
     5
 10
141.3908551237638
 20
84.746114398539362
 30
0.0
 11
141.46964046845861
 21
85.003809649532968
 31
0.0
  0
LINE
  8
DETAIL
  6
CONTINUOUS
 62
     5
 10
141.47005480274319
 20
84.083496344733362
 30
0.0
 11
141.56976503006251
 21
84.409633802850635
 31
0.0
  0
LINE
  8
DETAIL
  6
CONTINUOUS
 62
     5
 10
141.82746028105601
 20
84.330848458155742
 30
0.0
 11
141.72775005373649
 21
84.004711000038355
 31
0.0
  0
LINE
  8
DETAIL
  6
CONTINUOUS
 62
     5
 10
141.46964046845829
 20
14.113695156827699
 30
0.0
 11
89.86070851187992
 21
29.708690684390831
 31
0.0
  0
LINE
  8
DETAIL
  6
CONTINUOUS
 62
     5
 10
89.86070851187992
 20
24.49049905260847
 30
0.0
 11
91.441158844687152
 21
24.00730689534771
 31
0.0
  0
ARC
  8
DETAIL
  6
CONTINUOUS
 62
     5
 10
92.101354229889921
 20
24.11855640824092
 30
0.0
 40
0.2994108884999481
 50
73.000000000004931
 51
163.00000000000489
  0
ARC
  8
DETAIL
  6
CONTINUOUS
 62
     5
 10
91.528698116570467
 20
24.293634952007551
 30
0.0
 40
0.299410888499984
 50
252.9999999999981
 51
342.99999999999147
  0
ARC
  8
DETAIL
  6
CONTINUOUS
 62
     5
 10
141.31206977906859
 20
13.598304654840261
 30
0.0
 40
0.269469799650012
 50
343.00000000000489
 51
72.999999999998096
  0
ARC
  8
DETAIL
  6
CONTINUOUS
 62
     5
 10
141.21235955174919
 20
13.272167196722879
 30
0.0
 40
0.2694697996499362
 50
238.56687775720431
 51
343.00000000000489
  0
ARC
  8
DETAIL
  6
CONTINUOUS
 62
     5
 10
141.21235955174919
 20
13.272167196722879
 30
0.0
 40
0.538939599300032
 50
238.56687775720431
 51
343.00000000000489
  0
ARC
  8
DETAIL
  6
CONTINUOUS
 62
     5
 10
141.31206977906859
 20
13.598304654840261
 30
0.0
 40
0.538939599300016
 50
343.00000000000489
 51
72.999999999998096
  0
LINE
  8
DETAIL
  6
CONTINUOUS
 62
     5
 10
138.08853820362211
 20
14.86561950822124
 30
0.0
 11
141.07183024933809
 21
13.04224223483288
 31
0.0
  0
LINE
  8
DETAIL
  6
CONTINUOUS
 62
     5
 10
140.93130094692751
 20
12.812317272943011
 30
0.0
 11
137.94800890124031
 21
14.63569454642675
 31
0.0
  0
LINE
  8
DETAIL
  6
CONTINUOUS
 62
     5
 10
141.39085512376349
 20
13.855999905833979
 30
0.0
 11
131.88476364266251
 21
16.762303732359332
 31
0.0
  0
LINE
  8
DETAIL
  6
CONTINUOUS
 62
     5
 10
93.811419156177863
 20
23.908828590895151
 30
0.0
 11
92.188893501773009
 21
24.40488446490053
 31
0.0
  0
LINE
  8
DETAIL
  6
CONTINUOUS
 62
     5
 10
128.5957074189206
 20
12.831459849333671
 30
0.0
 11
93.636340612411459
 21
23.336172477575811
 31
0.0
  0
LINE
  8
DETAIL
  6
CONTINUOUS
 62
     5
 10
128.5957074111023
 20
12.831459851410949
 30
0.0
 11
131.08815626852461
 21
14.15671841675635
 31
0.0
  0
LINE
  8
DETAIL
  6
CONTINUOUS
 62
     5
 10
93.636340612411459
 20
23.336172477575811
 30
0.0
 11
93.811419156177863
 21
23.908828590895151
 31
0.0
  0
LINE
  8
DETAIL
  6
CONTINUOUS
 62
     5
 10
137.94800890124031
 20
14.63569454642675
 30
0.0
 11
138.08853820362211
 21
14.86561950822124
 31
0.0
  0
LINE
  8
DETAIL
  6
CONTINUOUS
 62
     5
 10
131.08815626852461
 20
14.15671841675635
 30
0.0
 11
131.96354898735771
 21
17.019998983353052
 31
0.0
  0
LINE
  8
DETAIL
  6
CONTINUOUS
 62
     5
 10
141.39085512376349
 20
13.855999905833979
 30
0.0
 11
141.46964046845829
 21
14.113695156827699
 31
0.0
  0
LINE
  8
DETAIL
  6
CONTINUOUS
 62
     5
 10
141.47005480274299
 20
13.193381852027979
 30
0.0
 11
141.56976503006231
 21
13.51951931014537
 31
0.0
  0
LINE
  8
DETAIL
  6
CONTINUOUS
 62
     5
 10
141.82746028105601
 20
13.440733965450359
 30
0.0
 11
141.72775005373649
 21
13.11459650733309
 31
0.0
  0
LINE
  8
DETAIL
  6
CONTINUOUS
 62
     5
 10
141.46964046845829
 20
-56.776419335877677
 30
0.0
 11
89.86070851187992
 21
-41.181423808314548
 31
0.0
  0
LINE
  8
DETAIL
  6
CONTINUOUS
 62
     5
 10
89.86070851187992
 20
-46.399615440096802
 30
0.0
 11
91.441158844687152
 21
-46.882807597357562
 31
0.0
  0
ARC
  8
DETAIL
  6
CONTINUOUS
 62
     5
 10
92.101354229889921
 20
-46.771558084464353
 30
0.0
 40
0.2994108884999401
 50
73.000000000004931
 51
163.00000000000489
  0
ARC
  8
DETAIL
  6
CONTINUOUS
 62
     5
 10
91.528698116570467
 20
-46.596479540697828
 30
0.0
 40
0.299410888499992
 50
252.9999999999981
 51
342.99999999999147
  0
ARC
  8
DETAIL
  6
CONTINUOUS
 62
     5
 10
141.31206977906859
 20
-57.291809837865003
 30
0.0
 40
0.269469799650012
 50
343.00000000000489
 51
73.000000000004931
  0
ARC
  8
DETAIL
  6
CONTINUOUS
 62
     5
 10
141.21235955174919
 20
-57.617947295982283
 30
0.0
 40
0.2694697996499481
 50
238.56687775720431
 51
343.00000000000489
  0
ARC
  8
DETAIL
  6
CONTINUOUS
 62
     5
 10
141.21235955174919
 20
-57.617947295982283
 30
0.0
 40
0.5389395993000439
 50
238.56687775720431
 51
342.99999999999778
  0
ARC
  8
DETAIL
  6
CONTINUOUS
 62
     5
 10
141.31206977906859
 20
-57.291809837865003
 30
0.0
 40
0.538939599300012
 50
343.00000000000489
 51
72.999999999998096
  0
LINE
  8
DETAIL
  6
CONTINUOUS
 62
     5
 10
138.08853820362211
 20
-56.024494984483908
 30
0.0
 11
141.07183024933809
 21
-57.847872257872382
 31
0.0
  0
LINE
  8
DETAIL
  6
CONTINUOUS
 62
     5
 10
140.93130094692751
 20
-58.077797219762367
 30
0.0
 11
137.94800890124031
 21
-56.254419946278517
 31
0.0
  0
LINE
  8
DETAIL
  6
CONTINUOUS
 62
     5
 10
141.39085512376349
 20
-57.034114586871283
 30
0.0
 11
131.88476364266251
 21
-54.127810760345938
 31
0.0
  0
LINE
  8
DETAIL
  6
CONTINUOUS
 62
     5
 10
93.811419156177863
 20
-46.981285901810111
 30
0.0
 11
92.188893501773009
 21
-46.485230027804732
 31
0.0
  0
LINE
  8
DETAIL
  6
CONTINUOUS
 62
     5
 10
128.5957074189206
 20
-58.058654643371597
 30
0.0
 11
93.636340612411459
 21
-47.553942015129451
 31
0.0
  0
LINE
  8
DETAIL
  6
CONTINUOUS
 62
     5
 10
128.5957074111023
 20
-58.058654641294311
 30
0.0
 11
131.08815626852461
 21
-56.733396075948917
 31
0.0
  0
LINE
  8
DETAIL
  6
CONTINUOUS
 62
     5
 10
93.636340612411459
 20
-47.553942015129451
 30
0.0
 11
93.811419156177863
 21
-46.981285901810111
 31
0.0
  0
LINE
  8
DETAIL
  6
CONTINUOUS
 62
     5
 10
137.94800890124031
 20
-56.254419946278517
 30
0.0
 11
138.08853820362211
 21
-56.024494984483908
 31
0.0
  0
LINE
  8
DETAIL
  6
CONTINUOUS
 62
     5
 10
131.08815626852461
 20
-56.733396075948917
 30
0.0
 11
131.96354898735771
 21
-53.870115509352217
 31
0.0
  0
LINE
  8
DETAIL
  6
CONTINUOUS
 62
     5
 10
141.39085512376349
 20
-57.034114586871283
 30
0.0
 11
141.46964046845829
 21
-56.776419335877677
 31
0.0
  0
LINE
  8
DETAIL
  6
CONTINUOUS
 62
     5
 10
141.47005480274299
 20
-57.696732640677283
 30
0.0
 11
141.56976503006231
 21
-57.37059518256001
 31
0.0
  0
LINE
  8
DETAIL
  6
CONTINUOUS
 62
     5
 10
141.82746028105601
 20
-57.449380527254903
 30
0.0
 11
141.72775005373649
 21
-57.775517985372289
 31
0.0
  0
LINE
  8
DETAIL
  6
CONTINUOUS
 62
     5
 10
31.950509202873949
 20
124.0075910273667
 30
0.0
 11
32.948854850677442
 21
123.0092453795632
 31
0.0
  0
LINE
  8
DETAIL
  6
CONTINUOUS
 62
     5
 10
31.950474137557649
 20
119.7144327841601
 30
0.0
 11
31.950474137557649
 21
124.00777774639489
 31
0.0
  0
LINE
  8
DETAIL
  6
CONTINUOUS
 62
     5
 10
32.948926454355842
 20
119.7144327841601
 30
0.0
 11
32.948926454355842
 21
123.0093254295962
 31
0.0
  0
LINE
  8
DETAIL
  6
CONTINUOUS
 62
     5
 10
32.948926454355842
 20
123.0093254295962
 30
0.0
 11
29.953569503960129
 21
123.0093254295962
 31
0.0
  0
LINE
  8
DETAIL
  6
CONTINUOUS
 62
     5
 10
31.950474137557649
 20
124.00777774639489
 30
0.0
 11
29.953569503960129
 21
124.00777774639489
 31
0.0
  0
LINE
  8
DETAIL
  6
CONTINUOUS
 62
     5
 10
27.95663105852805
 20
124.007741847885
 30
0.0
 11
26.95828541072456
 21
123.0093962000815
 31
0.0
  0
LINE
  8
DETAIL
  6
CONTINUOUS
 62
     5
 10
27.956664870362602
 20
119.7144327841601
 30
0.0
 11
27.956664870362602
 21
124.00777774639489
 31
0.0
  0
LINE
  8
DETAIL
  6
CONTINUOUS
 62
     5
 10
26.95821255356395
 20
119.7144327841601
 30
0.0
 11
26.95821255356395
 21
123.0093254295962
 31
0.0
  0
LINE
  8
DETAIL
  6
CONTINUOUS
 62
     5
 10
26.95821255356395
 20
123.0093254295962
 30
0.0
 11
29.953569503960129
 21
123.0093254295962
 31
0.0
  0
LINE
  8
DETAIL
  6
CONTINUOUS
 62
     5
 10
27.956664870362602
 20
124.00777774639489
 30
0.0
 11
29.953569503960129
 21
124.00777774639489
 31
0.0
  0
LINE
  8
DETAIL
  6
CONTINUOUS
 62
     5
 10
27.956664870362602
 20
124.00777774639489
 30
0.0
 11
29.953569503960129
 21
124.00777774639489
 31
0.0
  0
LINE
  8
DETAIL
  6
CONTINUOUS
 62
     5
 10
26.95821255356395
 20
123.0093254295962
 30
0.0
 11
29.953569503960129
 21
123.0093254295962
 31
0.0
  0
LINE
  8
DETAIL
  6
CONTINUOUS
 62
     5
 10
26.95821255356395
 20
119.7144327841601
 30
0.0
 11
26.95821255356395
 21
123.0093254295962
 31
0.0
  0
LINE
  8
DETAIL
  6
CONTINUOUS
 62
     5
 10
27.956664870362602
 20
119.7144327841601
 30
0.0
 11
27.956664870362602
 21
124.00777774639489
 31
0.0
  0
LINE
  8
DETAIL
  6
CONTINUOUS
 62
     5
 10
27.95663105852805
 20
124.007741847885
 30
0.0
 11
26.95828541072456
 21
123.0093962000815
 31
0.0
  0
LINE
  8
DETAIL
  6
CONTINUOUS
 62
     5
 10
31.950474137557649
 20
124.00777774639489
 30
0.0
 11
29.953569503960129
 21
124.00777774639489
 31
0.0
  0
LINE
  8
DETAIL
  6
CONTINUOUS
 62
     5
 10
32.948926454355842
 20
123.0093254295962
 30
0.0
 11
29.953569503960129
 21
123.0093254295962
 31
0.0
  0
LINE
  8
DETAIL
  6
CONTINUOUS
 62
     5
 10
32.948926454355842
 20
119.7144327841601
 30
0.0
 11
32.948926454355842
 21
123.0093254295962
 31
0.0
  0
LINE
  8
DETAIL
  6
CONTINUOUS
 62
     5
 10
31.950474137557649
 20
119.7144327841601
 30
0.0
 11
31.950474137557649
 21
124.00777774639489
 31
0.0
  0
LINE
  8
DETAIL
  6
CONTINUOUS
 62
     5
 10
31.950509202873949
 20
124.0075910273667
 30
0.0
 11
32.948854850677442
 21
123.0092453795632
 31
0.0
  0
ARC
  8
DETAIL
  6
CONTINUOUS
 62
     5
 10
79.876185343893212
 20
-97.855534205779691
 30
0.0
 40
6.8751314728400574
 50
189.62071443393631
 51
350.37928556607011
  0
ARC
  8
DETAIL
  6
CONTINUOUS
 62
     5
 10
79.876185343893098
 20
97.755688974099712
 30
0.0
 40
6.8751314728401729
 50
9.620714433936298
 51
170.37928556606369
  0
ARC
  8
OUTLINE
  6
CONTINUOUS
 62
     3
 10
0.4526868995774294
 20
-120.2635815583992
 30
0.0
 40
0.4493035425592903
 50
90.0
 51
180.0
  0
LINE
  8
OUTLINE
  6
CONTINUOUS
 62
     3
 10
0.4526868995774294
 20
-119.8142780158398
 30
0.0
 11
1.501061832216237
 21
-119.8142780158398
 31
0.0
  0
LINE
  8
OUTLINE
  6
CONTINUOUS
 62
     3
 10
1.4976784751982
 20
-119.8142780158398
 30
0.0
 11
25.36407220370393
 21
-119.8142780158398
 31
0.0
  0
LINE
  8
OUTLINE
  6
CONTINUOUS
 62
     3
 10
73.888854800119589
 20
-119.8142780158398
 30
0.0
 11
89.864091868898186
 21
-119.8142780158398
 31
0.0
  0
LINE
  8
OUTLINE
  6
CONTINUOUS
 62
     3
 10
49.276245710914282
 20
-119.8142780158398
 30
0.0
 11
72.391176324921616
 21
-119.8142780158398
 31
0.0
  0
LINE
  8
OUTLINE
  6
CONTINUOUS
 62
     3
 10
25.460534078366209
 20
-119.8142780158398
 30
0.0
 11
49.326927806871943
 21
-119.8142780158398
 31
0.0
  0
LINE
  8
OUTLINE
  6
CONTINUOUS
 62
     3
 10
89.86070851187992
 20
-119.360622871621
 30
0.0
 11
89.86070851187992
 21
119.71443278416019
 31
0.0
  0
ARC
  8
OUTLINE
  6
CONTINUOUS
 62
     3
 10
0.4493035425593916
 20
120.1637363267196
 30
0.0
 40
0.4493035425593462
 50
180.0
 51
270.0
  0
LINE
  8
OUTLINE
  6
CONTINUOUS
 62
     3
 10
0.0
 20
120.1637363267196
 30
0.0
 11
0.0
 21
139.8332469676532
 31
0.0
  0
LINE
  8
OUTLINE
  6
CONTINUOUS
 62
     3
 10
0.4493035425593916
 20
119.71443278416019
 30
0.0
 11
1.996904633597524
 21
119.71443278416019
 31
0.0
  0
LINE
  8
OUTLINE
  6
CONTINUOUS
 62
     3
 10
-34.948688460122177
 20
-147.39875092224881
 30
0.0
 11
-15.96858072000032
 21
-147.73004993521451
 31
0.0
  0
LINE
  8
OUTLINE
  6
CONTINUOUS
 62
     3
 10
-13.97250813000028
 20
-147.76489151187619
 30
0.0
 11
-0.5077272150113004
 21
-147.99992013700381
 31
0.0
  0
LINE
  8
OUTLINE
  6
CONTINUOUS
 62
     3
 10
-62.893704720122059
 20
-145.0746105811952
 30
0.0
 11
-55.399723440011478
 21
-145.2054185110037
 31
0.0
  0
LINE
  8
OUTLINE
  6
CONTINUOUS
 62
     3
 10
-54.891996225000177
 20
-140.99527369357219
 30
0.0
 11
-35.929306620000261
 21
-141.32626867180511
 31
0.0
  0
LINE
  8
OUTLINE
  6
CONTINUOUS
 62
     3
 10
-63.874322880000143
 20
-144.0767262919137
 30
0.0
 11
-63.874322880000143
 21
144.07672629201329
 31
0.0
  0
LINE
  8
OUTLINE
  6
CONTINUOUS
 62
     3
 10
-54.891996225000177
 20
144.70647636636269
 30
0.0
 11
-54.891996225000177
 21
140.99527369357219
 31
0.0
  0
LINE
  8
OUTLINE
  6
CONTINUOUS
 62
     3
 10
-54.891996225000177
 20
-140.99527369357219
 30
0.0
 11
-54.891996225000177
 21
-144.70647636636289
 31
0.0
  0
LINE
  8
OUTLINE
  6
CONTINUOUS
 62
     3
 10
-35.929306620000261
 20
-146.40086663296711
 30
0.0
 11
-35.929306620000261
 21
-141.32626867180511
 31
0.0
  0
LINE
  8
OUTLINE
  6
CONTINUOUS
 62
     3
 10
-35.929306620000261
 20
141.3262686719049
 30
0.0
 11
-35.929306620000261
 21
146.4008666330669
 31
0.0
  0
LINE
  8
OUTLINE
  6
CONTINUOUS
 62
     3
 10
-0.0000000000002274
 20
147.50097799236281
 30
0.0
 11
0.0
 21
120.1637363267196
 31
0.0
  0
LINE
  8
OUTLINE
  6
CONTINUOUS
 62
     3
 10
0.0033833570181514
 20
-120.2635815583992
 30
0.0
 11
-0.0000000000002274
 21
-147.50097799236281
 31
0.0
  0
LINE
  8
OUTLINE
  6
CONTINUOUS
 62
     3
 10
-54.891996225000177
 20
140.99527369357219
 30
0.0
 11
-35.929306620000261
 21
141.3262686719049
 31
0.0
  0
LINE
  8
OUTLINE
  6
CONTINUOUS
 62
     3
 10
-62.893704720122059
 20
145.0746105811952
 30
0.0
 11
-55.399723440011478
 21
145.2054185110037
 31
0.0
  0
LINE
  8
OUTLINE
  6
CONTINUOUS
 62
     3
 10
-34.948688460122177
 20
147.39875092224881
 30
0.0
 11
-0.5077272150113004
 21
147.9999201370035
 31
0.0
  0
ARC
  8
OUTLINE
  6
CONTINUOUS
 62
     3
 10
-62.876286585000123
 20
144.07672629201329
 30
0.0
 40
0.9980362950000121
 50
90.999999999995254
 51
180.02970728759459
  0
ARC
  8
OUTLINE
  6
CONTINUOUS
 62
     3
 10
-62.876286585000123
 20
-144.0767262919137
 30
0.0
 40
0.998036295
 50
180.0
 51
268.99999999999818
  0
ARC
  8
OUTLINE
  6
CONTINUOUS
 62
     3
 10
-34.931270325000241
 20
146.4008666330669
 30
0.0
 40
0.9980362950000121
 50
90.999999999995254
 51
180.0
  0
ARC
  8
OUTLINE
  6
CONTINUOUS
 62
     3
 10
-34.931270325000241
 20
-146.4008612657276
 30
0.0
 40
0.998036295000024
 50
180.0003081294962
 51
269.00000537739868
  0
ARC
  8
OUTLINE
  6
CONTINUOUS
 62
     3
 10
-55.391014372500187
 20
144.70647636636269
 30
0.0
 40
0.4990181475
 50
0.0
 51
91.000000000001776
  0
ARC
  8
OUTLINE
  6
CONTINUOUS
 62
     3
 10
-55.391014372500187
 20
-144.70647636636289
 30
0.0
 40
0.4990181475000079
 50
268.99999999999818
 51
0.0
  0
ARC
  8
OUTLINE
  6
CONTINUOUS
 62
     3
 10
-0.4990181475002373
 20
147.50097124683521
 30
0.0
 40
0.49901814749998
 50
0.0007745006016791
 51
90.999986483597198
  0
ARC
  8
OUTLINE
  6
CONTINUOUS
 62
     3
 10
-0.4990181475002373
 20
-147.50097799236281
 30
0.0
 40
0.4990181475000079
 50
268.99999999999818
 51
0.0
  0
LINE
  8
OUTLINE
  6
CONTINUOUS
 62
     3
 10
13.379261045101661
 20
-119.8142780158398
 30
0.0
 11
13.48248963380024
 21
-119.8142780158398
 31
0.0
  0
LINE
  8
OUTLINE
  6
CONTINUOUS
 62
     3
 10
25.36407220370393
 20
-119.8142780158398
 30
0.0
 11
25.460534078366209
 21
-119.8142780158398
 31
0.0
  0
LINE
  8
OUTLINE
  6
CONTINUOUS
 62
     3
 10
61.304972251437903
 20
-119.8142780158398
 30
0.0
 11
61.408200840136033
 21
-119.8142780158398
 31
0.0
  0
LINE
  8
OUTLINE
  6
CONTINUOUS
 62
     3
 10
49.326927806871943
 20
-119.8142780158398
 30
0.0
 11
49.423389681533763
 21
-119.8142780158398
 31
0.0
  0
LINE
  8
OUTLINE
  6
CONTINUOUS
 62
     3
 10
37.342116648269673
 20
-119.8142780158398
 30
0.0
 11
37.445345236968478
 21
-119.8142780158398
 31
0.0
  0
LINE
  8
OUTLINE
  6
CONTINUOUS
 62
     3
 10
72.391176324921616
 20
-119.8142780158398
 30
0.0
 11
73.888854800119589
 21
-119.8142780158398
 31
0.0
  0
LINE
  8
OUTLINE
  6
CONTINUOUS
 62
     3
 10
89.86070851187992
 20
119.71443278416019
 30
0.0
 11
1.996904633597524
 21
119.71443278416019
 31
0.0
  0
LINE
  8
OUTLINE
  6
CONTINUOUS
 62
     3
 10
89.86070851187992
 20
119.71443278416019
 30
0.0
 11
1.996904633597524
 21
119.71443278416019
 31
0.0
  0
LINE
  8
OUTLINE
  6
CONTINUOUS
 62
     3
 10
72.391176324921616
 20
-119.8142780158398
 30
0.0
 11
73.888854800119589
 21
-119.8142780158398
 31
0.0
  0
LINE
  8
OUTLINE
  6
CONTINUOUS
 62
     3
 10
37.342116648269673
 20
-119.8142780158398
 30
0.0
 11
37.445345236968478
 21
-119.8142780158398
 31
0.0
  0
LINE
  8
OUTLINE
  6
CONTINUOUS
 62
     3
 10
49.326927806871943
 20
-119.8142780158398
 30
0.0
 11
49.423389681533763
 21
-119.8142780158398
 31
0.0
  0
LINE
  8
OUTLINE
  6
CONTINUOUS
 62
     3
 10
61.304972251437903
 20
-119.8142780158398
 30
0.0
 11
61.408200840136033
 21
-119.8142780158398
 31
0.0
  0
LINE
  8
OUTLINE
  6
CONTINUOUS
 62
     3
 10
25.36407220370393
 20
-119.8142780158398
 30
0.0
 11
25.460534078366209
 21
-119.8142780158398
 31
0.0
  0
LINE
  8
OUTLINE
  6
CONTINUOUS
 62
     3
 10
13.379261045101661
 20
-119.8142780158398
 30
0.0
 11
13.48248963380024
 21
-119.8142780158398
 31
0.0
  0
CIRCLE
  8
FIX
  6
CONTINUOUS
 62
    11
 10
-0.0000000000011369
 20
132.4523819142162
 30
0.0
 40
5.0
  0
LINE
  8
BASIS
  6
DASHDOT
 62
     6
 10
-0.0000000000011369
 20
122.4523819142162
 30
0.0
 11
-0.0000000000011369
 21
142.4523819142162
 31
0.0
  0
LINE
  8
BASIS
  6
DASHDOT
 62
     6
 10
-10.00000000000114
 20
132.4523819142162
 30
0.0
 11
9.9999999999988631
 21
132.4523819142162
 31
0.0
  0
CIRCLE
  8
FIX
  6
CONTINUOUS
 62
    11
 10
0.0
 20
-132.4523819142168
 30
0.0
 40
5.0
  0
LINE
  8
BASIS
  6
DASHDOT
 62
     6
 10
0.0
 20
-122.4523819142168
 30
0.0
 11
0.0000000000001137
 21
-142.4523819142168
 31
0.0
  0
LINE
  8
BASIS
  6
DASHDOT
 62
     6
 10
-10.0
 20
-132.45238191421689
 30
0.0
 11
10.0
 21
-132.4523819142168
 31
0.0
  0
LINE
  8
SIZE
  6
CONTINUOUS
 62
    30
 10
-63.874322880000143
 20
164.07672629201329
 30
0.0
 11
-63.874322880000143
 21
377.95509258382532
 31
0.0
  0
LINE
  8
SIZE
  6
CONTINUOUS
 62
    30
 10
-0.0000000000002274
 20
167.50097799236281
 30
0.0
 11
0.0
 21
377.95509258382532
 31
0.0
  0
LINE
  8
SIZE
  6
CONTINUOUS
 62
    30
 10
12.0
 20
357.95509258382532
 30
0.0
 11
24.0
 21
357.95509258382532
 31
0.0
  0
LINE
  8
SIZE
  6
CONTINUOUS
 62
    30
 10
-75.874322880000136
 20
357.95509258382532
 30
0.0
 11
-233.87432288000011
 21
357.95509258382532
 31
0.0
  0
LINE
  8
SIZE
  6
CONTINUOUS
 62
    30
 10
0.0
 20
357.95509258382532
 30
0.0
 11
-63.874322880000143
 21
357.95509258382532
 31
0.0
  0
CIRCLE
  8
SIZE
  6
CONTINUOUS
 62
    30
 10
0.0
 20
357.95509258382532
 30
0.0
 40
6.0
  0
LINE
  8
SIZE
  6
CONTINUOUS
 62
    30
 10
0.0
 20
357.95509258382532
 30
0.0
 11
12.0
 21
357.95509258382532
 31
0.0
  0
CIRCLE
  8
SIZE
  6
CONTINUOUS
 62
    30
 10
-63.874322880000143
 20
357.95509258382532
 30
0.0
 40
6.0
  0
LINE
  8
SIZE
  6
CONTINUOUS
 62
    30
 10
-63.874322880000143
 20
357.95509258382532
 30
0.0
 11
-75.874322880000136
 21
357.95509258382532
 31
0.0
  0
TEXT
  8
SIZE
  6
CONTINUOUS
 62
    30
 10
-208.87432288000011
 20
382.95509258382532
 30
0.0
 40
64.0
  1
64
 41
0.9
 72
     1
 11
-160.87432288000011
 21
382.95509258382532
 31
0.0
  0
LINE
  8
SIZE
  6
CONTINUOUS
 62
    30
 10
-20.5077272150113
 20
147.99992013700361
 30
0.0
 11
-180.5821502334492
 21
147.9999201370037
 31
0.0
  0
LINE
  8
SIZE
  6
CONTINUOUS
 62
    30
 10
-20.5077272150113
 20
-147.99992013700381
 30
0.0
 11
-180.58215023344931
 21
-147.9999201370037
 31
0.0
  0
LINE
  8
SIZE
  6
CONTINUOUS
 62
    30
 10
-160.5821502334492
 20
135.9999201370037
 30
0.0
 11
-160.58215023344931
 21
-135.9999201370037
 31
0.0
  0
CIRCLE
  8
SIZE
  6
CONTINUOUS
 62
    30
 10
-160.5821502334492
 20
147.9999201370037
 30
0.0
 40
6.0
  0
LINE
  8
SIZE
  6
CONTINUOUS
 62
    30
 10
-160.5821502334492
 20
147.9999201370037
 30
0.0
 11
-160.5821502334492
 21
135.9999201370037
 31
0.0
  0
CIRCLE
  8
SIZE
  6
CONTINUOUS
 62
    30
 10
-160.58215023344931
 20
-147.9999201370037
 30
0.0
 40
6.0
  0
LINE
  8
SIZE
  6
CONTINUOUS
 62
    30
 10
-160.58215023344931
 20
-147.9999201370037
 30
0.0
 11
-160.58215023344931
 21
-135.9999201370037
 31
0.0
  0
TEXT
  8
SIZE
  6
CONTINUOUS
 62
    30
 10
-185.58215023344931
 20
-109.1657142857143
 30
0.0
 40
64.0
  1
□296
 50
90.0
 41
0.9
 72
     1
 11
-185.58215023344931
 21
-0.0000000000000568
 31
0.0
  0
LINE
  8
SIZE
  6
CONTINUOUS
 62
    30
 10
29.99999999999886
 20
132.4523819142162
 30
0.0
 11
434.16728801301451
 21
132.45238191421609
 31
0.0
  0
LINE
  8
SIZE
  6
CONTINUOUS
 62
    30
 10
30.0
 20
-132.4523819142168
 30
0.0
 11
434.16728801301451
 21
-132.45238191421689
 31
0.0
  0
LINE
  8
SIZE
  6
CONTINUOUS
 62
    30
 10
414.16728801301451
 20
120.4523819142161
 30
0.0
 11
414.16728801301451
 21
-120.4523819142169
 31
0.0
  0
CIRCLE
  8
SIZE
  6
CONTINUOUS
 62
    30
 10
414.16728801301451
 20
132.45238191421609
 30
0.0
 40
6.0
  0
LINE
  8
SIZE
  6
CONTINUOUS
 62
    30
 10
414.16728801301451
 20
132.45238191421609
 30
0.0
 11
414.16728801301451
 21
120.4523819142161
 31
0.0
  0
CIRCLE
  8
SIZE
  6
CONTINUOUS
 62
    30
 10
414.16728801301451
 20
-132.45238191421689
 30
0.0
 40
6.0
  0
LINE
  8
SIZE
  6
CONTINUOUS
 62
    30
 10
414.16728801301451
 20
-132.45238191421689
 30
0.0
 11
414.16728801301451
 21
-120.4523819142169
 31
0.0
  0
TEXT
  8
SIZE
  6
CONTINUOUS
 62
    30
 10
389.16728801301451
 20
-74.057142857143191
 30
0.0
 40
64.0
  1
265
 50
90.0
 41
0.9
 72
     1
 11
389.16728801301451
 21
-0.0000000000003411
 31
0.0
  0
LINE
  8
SIZE
  6
CONTINUOUS
 62
    30
 10
-0.0000000000002274
 20
167.50097799236281
 30
0.0
 11
0.0
 21
243.29736312487469
 31
0.0
  0
LINE
  8
SIZE
  6
CONTINUOUS
 62
    30
 10
29.953569503960129
 20
143.0093254295962
 30
0.0
 11
29.953569503960129
 21
243.29736312487469
 31
0.0
  0
LINE
  8
SIZE
  6
CONTINUOUS
 62
    30
 10
41.953569503960132
 20
223.29736312487469
 30
0.0
 11
53.953569503960132
 21
223.29736312487469
 31
0.0
  0
LINE
  8
SIZE
  6
CONTINUOUS
 62
    30
 10
-12.0
 20
223.29736312487469
 30
0.0
 11
-221.50357003092591
 21
223.29736312487469
 31
0.0
  0
LINE
  8
SIZE
  6
CONTINUOUS
 62
    30
 10
29.953569503960129
 20
223.29736312487469
 30
0.0
 11
0.0
 21
223.29736312487469
 31
0.0
  0
CIRCLE
  8
SIZE
  6
CONTINUOUS
 62
    30
 10
29.953569503960129
 20
223.29736312487469
 30
0.0
 40
6.0
  0
LINE
  8
SIZE
  6
CONTINUOUS
 62
    30
 10
29.953569503960129
 20
223.29736312487469
 30
0.0
 11
41.953569503960132
 21
223.29736312487469
 31
0.0
  0
CIRCLE
  8
SIZE
  6
CONTINUOUS
 62
    30
 10
0.0
 20
223.29736312487469
 30
0.0
 40
6.0
  0
LINE
  8
SIZE
  6
CONTINUOUS
 62
    30
 10
0.0
 20
223.29736312487469
 30
0.0
 11
-12.0
 21
223.29736312487469
 31
0.0
  0
TEXT
  8
SIZE
  6
CONTINUOUS
 62
    30
 10
-196.503570030926
 20
248.29736312487469
 30
0.0
 40
64.0
  1
30
 41
0.9
 72
     1
 11
-149.87499860235451
 21
248.29736312487469
 31
0.0
  0
LINE
  8
SIZE
  6
CONTINUOUS
 62
    30
 10
-0.0000000000002274
 20
167.50097799236281
 30
0.0
 11
0.0
 21
377.95509258382532
 31
0.0
  0
LINE
  8
SIZE
  6
CONTINUOUS
 62
    30
 10
89.86070851187992
 20
139.7144327841601
 30
0.0
 11
89.86070851187992
 21
377.95509258382532
 31
0.0
  0
LINE
  8
SIZE
  6
CONTINUOUS
 62
    30
 10
-12.0
 20
357.95509258382532
 30
0.0
 11
-24.0
 21
357.95509258382532
 31
0.0
  0
LINE
  8
SIZE
  6
CONTINUOUS
 62
    30
 10
101.86070851187991
 20
357.95509258382532
 30
0.0
 11
113.86070851187991
 21
357.95509258382532
 31
0.0
  0
LINE
  8
SIZE
  6
CONTINUOUS
 62
    30
 10
0.0
 20
357.95509258382532
 30
0.0
 11
89.86070851187992
 21
357.95509258382532
 31
0.0
  0
CIRCLE
  8
SIZE
  6
CONTINUOUS
 62
    30
 10
0.0
 20
357.95509258382532
 30
0.0
 40
6.0
  0
LINE
  8
SIZE
  6
CONTINUOUS
 62
    30
 10
0.0
 20
357.95509258382532
 30
0.0
 11
-12.0
 21
357.95509258382532
 31
0.0
  0
CIRCLE
  8
SIZE
  6
CONTINUOUS
 62
    30
 10
89.86070851187992
 20
357.95509258382532
 30
0.0
 40
6.0
  0
LINE
  8
SIZE
  6
CONTINUOUS
 62
    30
 10
89.86070851187992
 20
357.95509258382532
 30
0.0
 11
101.86070851187991
 21
357.95509258382532
 31
0.0
  0
TEXT
  8
SIZE
  6
CONTINUOUS
 62
    30
 10
-1.6982171726314661
 20
382.95509258382532
 30
0.0
 40
64.0
  1
90
 41
0.9
 72
     1
 11
44.93035425593996
 21
382.95509258382532
 31
0.0
  0
LINE
  8
SIZE
  6
CONTINUOUS
 62
    30
 10
89.86070851187992
 20
139.7144327841601
 30
0.0
 11
89.86070851187992
 21
243.29736312487469
 31
0.0
  0
LINE
  8
SIZE
  6
CONTINUOUS
 62
    30
 10
141.82746028105589
 20
104.3308484581557
 30
0.0
 11
141.82746028105589
 21
243.29736312487469
 31
0.0
  0
LINE
  8
SIZE
  6
CONTINUOUS
 62
    30
 10
77.86070851187992
 20
223.29736312487469
 30
0.0
 11
65.86070851187992
 21
223.29736312487469
 31
0.0
  0
LINE
  8
SIZE
  6
CONTINUOUS
 62
    30
 10
153.82746028105589
 20
223.29736312487469
 30
0.0
 11
309.08460313819887
 21
223.29736312487469
 31
0.0
  0
LINE
  8
SIZE
  6
CONTINUOUS
 62
    30
 10
89.86070851187992
 20
223.29736312487469
 30
0.0
 11
141.82746028105589
 21
223.29736312487469
 31
0.0
  0
CIRCLE
  8
SIZE
  6
CONTINUOUS
 62
    30
 10
89.86070851187992
 20
223.29736312487469
 30
0.0
 40
6.0
  0
LINE
  8
SIZE
  6
CONTINUOUS
 62
    30
 10
89.86070851187992
 20
223.29736312487469
 30
0.0
 11
77.86070851187992
 21
223.29736312487469
 31
0.0
  0
CIRCLE
  8
SIZE
  6
CONTINUOUS
 62
    30
 10
141.82746028105589
 20
223.29736312487469
 30
0.0
 40
6.0
  0
LINE
  8
SIZE
  6
CONTINUOUS
 62
    30
 10
141.82746028105589
 20
223.29736312487469
 30
0.0
 11
153.82746028105589
 21
223.29736312487469
 31
0.0
  0
TEXT
  8
SIZE
  6
CONTINUOUS
 62
    30
 10
190.82746028105589
 20
248.29736312487469
 30
0.0
 40
64.0
  1
52
 41
0.9
 72
     1
 11
237.45603170962741
 21
248.29736312487469
 31
0.0
  0
LINE
  8
SIZE
  6
CONTINUOUS
 62
    30
 10
109.86070851187991
 20
119.71443278416019
 30
0.0
 11
307.46213834789017
 21
119.7144327841601
 31
0.0
  0
LINE
  8
SIZE
  6
CONTINUOUS
 62
    30
 10
109.8640918688982
 20
-119.8142780158399
 30
0.0
 11
307.46213834789017
 21
-119.81427801584
 31
0.0
  0
LINE
  8
SIZE
  6
CONTINUOUS
 62
    30
 10
287.46213834789017
 20
107.7144327841601
 30
0.0
 11
287.46213834789017
 21
-107.81427801584
 31
0.0
  0
CIRCLE
  8
SIZE
  6
CONTINUOUS
 62
    30
 10
287.46213834789017
 20
119.7144327841601
 30
0.0
 40
6.0
  0
LINE
  8
SIZE
  6
CONTINUOUS
 62
    30
 10
287.46213834789017
 20
119.7144327841601
 30
0.0
 11
287.46213834789017
 21
107.7144327841601
 31
0.0
  0
CIRCLE
  8
SIZE
  6
CONTINUOUS
 62
    30
 10
287.46213834789017
 20
-119.81427801584
 30
0.0
 40
6.0
  0
LINE
  8
SIZE
  6
CONTINUOUS
 62
    30
 10
287.46213834789017
 20
-119.81427801584
 30
0.0
 11
287.46213834789017
 21
-107.81427801584
 31
0.0
  0
TEXT
  8
SIZE
  6
CONTINUOUS
 62
    30
 10
262.46213834789017
 20
-110.5870654729827
 30
0.0
 40
64.0
  1
□240
 50
90.0
 41
0.9
 72
     1
 11
262.46213834789017
 21
-0.0499226158398756
 31
0.0
  0
TEXT
  8
NOTE
  6
CONTINUOUS
 62
     4
 10
125.85591017102119
 20
-297.59469570520918
 30
0.0
 40
64.0
  1
4-φ5×8
 41
0.9
  0
LINE
  8
NOTE
  6
CONTINUOUS
 62
     4
 10
1.6846368814289581
 20
-138.43123614121799
 30
0.0
 11
-0.0000000000002274
 21
-132.45238191421689
 31
0.0
  0
LINE
  8
NOTE
  6
CONTINUOUS
 62
     4
 10
-0.0000000000002274
 20
-132.45238191421689
 30
0.0
 11
4.4483719823516594
 21
-136.78789641616791
 31
0.0
  0
LINE
  8
NOTE
  6
CONTINUOUS
 62
     4
 10
-0.0000000000002274
 20
-132.45238191421689
 30
0.0
 11
6.1330088637808444
 21
-142.7667506431689
 31
0.0
  0
LINE
  8
NOTE
  6
CONTINUOUS
 62
     4
 10
6.1330088637808444
 20
-142.76675064316879
 30
0.0
 11
111.3576369122225
 21
-319.73137553844941
 31
0.0
  0
LINE
  8
NOTE
  6
CONTINUOUS
 62
     4
 10
111.3576369122225
 20
-319.73137553844941
 30
0.0
 11
497.24906548365078
 21
-319.73137553844941
 31
0.0
  0
LINE
  8
OUTLINE
  6
CONTINUOUS
 62
     3
 10
-14.47152627750029
 20
-155.69366202
 30
0.0
 11
-15.46956257250031
 21
-155.69366202
 31
0.0
  0
LINE
  8
OUTLINE
  6
CONTINUOUS
 62
     3
 10
-13.772900871000269
 20
-155.1946438725
 30
0.0
 11
-13.97250813000028
 21
-155.1946438725
 31
0.0
  0
LINE
  8
OUTLINE
  6
CONTINUOUS
 62
     3
 10
-13.97250813000028
 20
-154.1966075775
 30
0.0
 11
-13.772900871000269
 21
-154.1966075775
 31
0.0
  0
LINE
  8
OUTLINE
  6
CONTINUOUS
 62
     3
 10
-15.96858072000032
 20
-147.7300499351725
 30
0.0
 11
-15.96858072000032
 21
-155.1946438725
 31
0.0
  0
LINE
  8
OUTLINE
  6
CONTINUOUS
 62
     3
 10
-13.97250813000028
 20
-154.1966075775
 30
0.0
 11
-13.97250813000028
 21
-147.76489151187579
 31
0.0
  0
LINE
  8
OUTLINE
  6
CONTINUOUS
 62
     3
 10
-13.373686353000039
 20
-154.59582209550001
 30
0.0
 11
-13.373686353000039
 21
-154.79542935449999
 31
0.0
  0
ARC
  8
OUTLINE
  6
CONTINUOUS
 62
     3
 10
-14.47152627750029
 20
-155.1946438725
 30
0.0
 40
0.4990181475
 50
270.0
 51
0.0
  0
ARC
  8
OUTLINE
  6
CONTINUOUS
 62
     3
 10
-15.46956257250031
 20
-155.1946438725
 30
0.0
 40
0.4990181475
 50
180.0
 51
270.0
  0
ARC
  8
OUTLINE
  6
CONTINUOUS
 62
     3
 10
-13.772900871000269
 20
-154.59582209550001
 30
0.0
 40
0.399214517999976
 50
0.0
 51
90.0
  0
ARC
  8
OUTLINE
  6
CONTINUOUS
 62
     3
 10
-13.772900871000269
 20
-154.79542935449999
 30
0.0
 40
0.399214517999976
 50
270.0
 51
0.0
  0
TEXT
  8
ETC
  6
CONTINUOUS
 62
    61
 10
514.15720483975019
 20
457.32510422188398
 30
0.0
 40
64.0
  1
EX-20EK9-C_4
 41
0.9
  0
TEXT
  8
ETC
  6
CONTINUOUS
 62
    61
 10
509.9712108397498
 20
339.36979420705279
 30
0.0
 40
64.0
  1
換気扇
 41
0.9
  0
TEXT
  8
ETC
  6
CONTINUOUS
 62
    61
 10
560.67260908830576
 20
231.2210213208275
 30
0.0
 40
40.0
  1
EX-20EK9-C
 50
0.0
 41
0.9
 51
0.0
  7
STANDARD
 71
     0
 11
0.0
 21
0.0
 31
0.0
210
0.0
220
0.0
230
1.0
  0
TEXT
  8
ETC
  6
CONTINUOUS
 62
    61
 10
560.67260908830576
 20
165.2210213208275
 30
0.0
 40
40.0
  1
EX-20EK9-M
 50
0.0
 41
0.9
 51
0.0
  7
STANDARD
 71
     0
 11
0.0
 21
0.0
 31
0.0
210
0.0
220
0.0
230
1.0
  0
TEXT
  8
ETC
  6
CONTINUOUS
 62
    61
 10
560.67260908830576
 20
99.221021320827504
 30
0.0
 40
40.0
  1
EX-20LK9-C
 50
0.0
 41
0.9
 51
0.0
  7
STANDARD
 71
     0
 11
0.0
 21
0.0
 31
0.0
210
0.0
220
0.0
230
1.0
  0
TEXT
  8
ETC
  6
CONTINUOUS
 62
    61
 10
560.67260908830576
 20
33.221021320827504
 30
0.0
 40
40.0
  1
EX-20LK9-M
 50
0.0
 41
0.9
 51
0.0
  7
STANDARD
 71
     0
 11
0.0
 21
0.0
 31
0.0
210
0.0
220
0.0
230
1.0
  0
TEXT
  8
ETC
  6
CONTINUOUS
 62
    61
 10
560.67260908830576
 20
-32.778978679172496
 30
0.0
 40
40.0
  1
EX-20RK9-C
 50
0.0
 41
0.9
 51
0.0
  7
STANDARD
 71
     0
 11
0.0
 21
0.0
 31
0.0
210
0.0
220
0.0
230
1.0
  0
ENDSEC
  0
EOF
