  0
SECTION
  2
HEADER
  9
$ACADVER
  1
AC1009
  9
$DWGCODEPAGE
  3
dos932
  9
$INSBASE
 10
0.0
 20
0.0
 30
0.0
  9
$EXTMIN
 10
-568.54810992685225
 20
-251.36985243345759
 30
0.0
  9
$EXTMAX
 10
1051.242587196657
 20
592.0417270674468
 30
0.0
  9
$LIMMIN
 10
-2970.0
 20
-2100.0
  9
$LIMMAX
 10
2970.0
 20
2100.0
  9
$ORTHOMODE
 70
     1
  9
$REGENMODE
 70
     1
  9
$FILLMODE
 70
     1
  9
$QTEXTMODE
 70
     0
  9
$MIRRTEXT
 70
     0
  9
$LTSCALE
 40
20.0
  9
$ATTMODE
 70
     1
  9
$TEXTSIZE
 40
64.0
  9
$TRACEWID
 40
0.05
  9
$TEXTSTYLE
  7
STANDARD
  9
$CLAYER
  8
NOTE
  9
$CELTYPE
  6
CONTINUOUS
  9
$CECOLOR
 62
     7
  9
$DIMSCALE
 40
1.0
  9
$DIMASZ
 40
12.0
  9
$DIMEXO
 40
20.0
  9
$DIMDLI
 40
200.0
  9
$DIMRND
 40
0.0
  9
$DIMDLE
 40
0.0
  9
$DIMEXE
 40
20.0
  9
$DIMTP
 40
0.0
  9
$DIMTM
 40
0.0
  9
$DIMTXT
 40
64.0
  9
$DIMCEN
 40
0.09
  9
$DIMTSZ
 40
0.0
  9
$DIMTOL
 70
     0
  9
$DIMLIM
 70
     0
  9
$DIMTIH
 70
     0
  9
$DIMTOH
 70
     0
  9
$DIMSE1
 70
     0
  9
$DIMSE2
 70
     0
  9
$DIMTAD
 70
     1
  9
$DIMZIN
 70
     8
  9
$DIMBLK
  1

  9
$DIMASO
 70
     1
  9
$DIMSHO
 70
     0
  9
$DIMPOST
  1

  9
$DIMAPOST
  1

  9
$DIMALT
 70
     0
  9
$DIMALTD
 70
     2
  9
$DIMALTF
 40
25.399999999999999
  9
$DIMLFAC
 40
1.0
  9
$DIMTOFL
 70
     1
  9
$DIMTVP
 40
0.0
  9
$DIMTIX
 70
     1
  9
$DIMSOXD
 70
     0
  9
$DIMSAH
 70
     0
  9
$DIMBLK1
  1

  9
$DIMBLK2
  1

  9
$DIMSTYLE
  2
STANDARD
  9
$DIMCLRD
 70
     7
  9
$DIMCLRE
 70
     7
  9
$DIMCLRT
 70
     7
  9
$DIMTFAC
 40
1.0
  9
$DIMGAP
 40
25.0
  9
$LUNITS
 70
     2
  9
$LUPREC
 70
     4
  9
$SKETCHINC
 40
0.1
  9
$FILLETRAD
 40
3.0
  9
$AUNITS
 70
     1
  9
$AUPREC
 70
     3
  9
$MENU
  1
ACAD
  9
$ELEVATION
 40
0.0
  9
$PELEVATION
 40
0.0
  9
$THICKNESS
 40
50.0
  9
$LIMCHECK
 70
     0
  9
$CHAMFERA
 40
0.0
  9
$CHAMFERB
 40
0.0
  9
$SKPOLY
 70
     0
  9
$TDCREATE
 40
2453019.62301037
  9
$TDUPDATE
 40
2459017.508020185
  9
$TDINDWG
 40
1.7183850116
  9
$TDUSRTIMER
 40
1.7183850116
  9
$USRTIMER
 70
     1
  9
$ANGBASE
 50
0.0
  9
$ANGDIR
 70
     0
  9
$PDMODE
 70
     3
  9
$PDSIZE
 40
-2.0
  9
$PLINEWID
 40
0.0
  9
$SPLFRAME
 70
     0
  9
$SPLINETYPE
 70
     6
  9
$SPLINESEGS
 70
     8
  9
$SURFTAB1
 70
     6
  9
$SURFTAB2
 70
     6
  9
$SURFTYPE
 70
     6
  9
$SURFU
 70
     6
  9
$SURFV
 70
     6
  9
$UCSNAME
  2

  9
$UCSORG
 10
0.0
 20
0.0
 30
0.0
  9
$UCSXDIR
 10
1.0
 20
0.0
 30
0.0
  9
$UCSYDIR
 10
0.0
 20
1.0
 30
0.0
  9
$PUCSNAME
  2

  9
$PUCSORG
 10
0.0
 20
0.0
 30
0.0
  9
$PUCSXDIR
 10
1.0
 20
0.0
 30
0.0
  9
$PUCSYDIR
 10
0.0
 20
1.0
 30
0.0
  9
$USERI1
 70
     0
  9
$USERI2
 70
     0
  9
$USERI3
 70
     0
  9
$USERI4
 70
     0
  9
$USERI5
 70
     0
  9
$USERR1
 40
20.0
  9
$USERR2
 40
0.0
  9
$USERR3
 40
0.0
  9
$USERR4
 40
0.0
  9
$USERR5
 40
0.0
  9
$WORLDVIEW
 70
     1
  9
$SHADEDGE
 70
     3
  9
$SHADEDIF
 70
    70
  9
$TILEMODE
 70
     1
  9
$MAXACTVP
 70
    48
  9
$PINSBASE
 10
0.0
 20
0.0
 30
0.0
  9
$PLIMCHECK
 70
     0
  9
$PEXTMIN
 10
-100000000000000000000.0
 20
-100000000000000000000.0
 30
-100000000000000000000.0
  9
$PEXTMAX
 10
100000000000000000000.0
 20
100000000000000000000.0
 30
100000000000000000000.0
  9
$PLIMMIN
 10
0.0
 20
0.0
  9
$PLIMMAX
 10
12.0
 20
9.0
  9
$UNITMODE
 70
     0
  9
$VISRETAIN
 70
     0
  9
$PLINEGEN
 70
     0
  9
$PSLTSCALE
 70
     0
  9
$TREEDEPTH
 70
  3020
  9
$ATTDIA
 70
     0
  9
$ATTREQ
 70
     1
  9
$BLIPMODE
 70
     1
  9
$COORDS
 70
     1
  9
$DRAGMODE
 70
     2
  9
$OSMODE
 70
     0
  9
$HANDLING
 70
     0
  9
$HANDSEED
  5
EF96
  0
ENDSEC
  0
SECTION
  2
TABLES
  0
TABLE
  2
LTYPE
 70
     2
  0
LTYPE
  2
CONTINUOUS
 70
     0
  3
実線
 72
    65
 73
     0
 40
0.0
  0
LTYPE
  2
DASHDOT
 70
     0
  3
____ _ ____ _ ____ _ ____ _ ____ _ ____ _ ____
 72
    65
 73
     4
 40
5.5
 49
4.0
 49
-0.6
 49
0.3
 49
-0.6
  0
ENDTAB
  0
TABLE
  2
LAYER
 70
    12
  0
LAYER
  2
0
 70
     0
 62
     7
  6
CONTINUOUS
  0
LAYER
  2
BASIS
 70
     0
 62
     6
  6
DASHDOT
  0
LAYER
  2
OUTLINE
 70
     0
 62
     3
  6
CONTINUOUS
  0
LAYER
  2
DETAIL
 70
     0
 62
     5
  6
CONTINUOUS
  0
LAYER
  2
SIZE
 70
     0
 62
    30
  6
CONTINUOUS
  0
LAYER
  2
ARRANGE
 70
     0
 62
     1
  6
CONTINUOUS
  0
LAYER
  2
ETC
 70
     0
 62
    61
  6
CONTINUOUS
  0
LAYER
  2
FIX
 70
     0
 62
    11
  6
CONTINUOUS
  0
LAYER
  2
NOTE
 70
     0
 62
     4
  6
CONTINUOUS
  0
LAYER
  2
DEFPOINTS
 70
    64
 62
     7
  6
CONTINUOUS
  0
LAYER
  2
SERVICESPACE
 70
    64
 62
     2
  6
DASHDOT
  0
LAYER
  2
SYMBOLLINE
 70
    64
 62
    15
  6
CONTINUOUS
  0
ENDTAB
  0
TABLE
  2
STYLE
 70
     1
  0
STYLE
  2
STANDARD
 70
     0
 40
64.0
 41
0.9
 50
0.0
 71
     0
 42
64.0
  3
SIMPLEX.shx
  4
BIGFONT.shx
  0
ENDTAB
  0
TABLE
  2
APPID
 70
    17
  0
APPID
  2
ACAD
 70
     0
  0
APPID
  2
AUTOCAD_POSTSCRIPT_FIGURE
 70
     0
  0
APPID
  2
ACAD_EXEMPT_FROM_CAD_STANDARDS
 70
     0
  0
APPID
  2
ACAD_PSEXT
 70
     0
  0
APPID
  2
ACAUTHENVIRON
 70
     0
  0
APPID
  2
GENIUS_GENOENT_13
 70
     0
  0
APPID
  2
GENIUS_GENCFG_13
 70
     0
  0
APPID
  2
GENIUS_GENCFG0_13
 70
     0
  0
APPID
  2
GENIUS_GENCFG1_13
 70
     0
  0
APPID
  2
GENIUS_GENCFG2_13
 70
     0
  0
APPID
  2
GENIUS_GENCFG3_13
 70
     0
  0
APPID
  2
GENIUS_GENCFG4_13
 70
     0
  0
APPID
  2
GENIUS_GEVCFG0_13
 70
     0
  0
APPID
  2
CONTENTBLOCKICON
 70
     0
  0
APPID
  2
CONTENTBLOCKDESCRIPTION
 70
     0
  0
APPID
  2
ACAD_NAV_VCDISPLAY
 70
     0
  0
APPID
  2
ACAD_MLEADERVER
 70
     0
  0
ENDTAB
  0
TABLE
  2
DIMSTYLE
 70
     1
  0
DIMSTYLE
  2
STANDARD
 70
     0
  3

  4

  5
_ORIGIN
  6

  7

 40
1.0
 41
12.0
 42
20.0
 43
200.0
 44
20.0
 45
0.0
 46
0.0
 47
0.0
 48
0.0
140
64.0
141
0.09
142
0.0
143
25.399999999999999
144
1.0
145
0.0
146
1.0
147
25.0
 71
     0
 72
     0
 73
     0
 74
     0
 75
     0
 76
     0
 77
     1
 78
     8
170
     0
171
     2
172
     1
173
     0
174
     1
175
     0
176
     7
177
     7
178
     7
  0
ENDTAB
  0
TABLE
  2
VIEW
 70
     1
  0
VIEW
  2
ALL
 70
     0
 40
4282.6198079999986
 10
0.0
 20
41.309904000000003
 41
5940.0
 11
0.0
 21
0.0
 31
1.0
 12
0.0
 22
0.0
 32
0.0
 42
50.0
 43
0.0
 44
0.0
 50
0.0
 71
     0
  0
ENDTAB
  0
TABLE
  2
UCS
 70
     0
  0
ENDTAB
  0
TABLE
  2
VPORT
 70
     1
  0
VPORT
  2
*ACTIVE
 70
     0
 10
0.0
 20
0.0
 11
1.0
 21
1.0
 12
241.34723863490211
 22
170.3359373169946
 13
0.0
 23
0.0
 14
1.0
 24
1.0
 15
0.0
 25
0.0
 16
0.0
 26
0.0
 36
1.0
 17
0.0
 27
0.0
 37
0.0
 40
727.7784688661053
 41
1.988684582743989
 42
50.0
 43
0.0
 44
0.0
 50
0.0
 51
0.0
 71
     0
 72
  1000
 73
     1
 74
     3
 75
     0
 76
     0
 77
     0
 78
     0
  0
ENDTAB
  0
ENDSEC
  0
SECTION
  2
BLOCKS
  0
BLOCK
  8
0
  2
_ORIGIN
 70
     0
 10
0.0
 20
0.0
 30
0.0
  3
_ORIGIN
  1
_ORIGIN
  0
CIRCLE
  8
0
  6
CONTINUOUS
 62
     7
 10
0.0
 20
0.0
 30
0.0
 40
0.5
  0
LINE
  8
0
  6
CONTINUOUS
 62
     7
 10
0.0
 20
0.0
 30
0.0
 11
-1.0
 21
0.0
 31
0.0
  0
ENDBLK
  8
0
  0
ENDSEC
  0
SECTION
  2
ENTITIES
  0
CIRCLE
  8
ARRANGE
  6
CONTINUOUS
 62
     1
 10
0.0
 20
0.0
 30
0.0
 40
40.0
  0
POINT
  8
ARRANGE
  6
CONTINUOUS
 62
     1
 10
0.0
 20
0.0
 30
0.0
  0
CIRCLE
  8
FIX
  6
CONTINUOUS
 62
    11
 10
0.0
 20
132.49999999999989
 30
0.0
 40
2.5
  0
LINE
  8
BASIS
  6
DASHDOT
 62
     6
 10
0.0
 20
112.5
 30
0.0
 11
0.0
 21
152.5
 31
0.0
  0
LINE
  8
BASIS
  6
DASHDOT
 62
     6
 10
-20.0
 20
132.49999999999989
 30
0.0
 11
20.0
 21
132.49999999999989
 31
0.0
  0
CIRCLE
  8
FIX
  6
CONTINUOUS
 62
    11
 10
0.0
 20
-132.49999999999989
 30
0.0
 40
2.5
  0
LINE
  8
BASIS
  6
DASHDOT
 62
     6
 10
0.0
 20
-112.5
 30
0.0
 11
0.0
 21
-151.5
 31
0.0
  0
LINE
  8
BASIS
  6
DASHDOT
 62
     6
 10
-20.0
 20
-132.49999999999989
 30
0.0
 11
20.0
 21
-132.49999999999989
 31
0.0
  0
LINE
  8
NOTE
  6
CONTINUOUS
 62
     4
 10
-536.91018573930978
 20
216.1804429999998
 30
0.0
 11
-143.33979099999999
 21
216.1804429999998
 31
0.0
  0
TEXT
  8
NOTE
  6
CONTINUOUS
 62
     4
 10
-521.14387757142856
 20
240.1241599999997
 30
0.0
 40
64.0
  1
4-φ5×8
 41
0.9
  0
LINE
  8
NOTE
  6
CONTINUOUS
 62
     4
 10
-143.33979099999999
 20
216.1804429999998
 30
0.0
 11
-10.331368646551709
 21
138.60432812757031
 31
0.0
  0
LINE
  8
NOTE
  6
CONTINUOUS
 62
     4
 10
-4.3478569623846397
 20
136.9363091782069
 30
0.0
 11
0.0
 21
132.49999999999989
 31
0.0
  0
LINE
  8
NOTE
  6
CONTINUOUS
 62
     4
 10
0.0
 20
132.49999999999989
 30
0.0
 11
-5.9835116841671834
 21
134.1680189493633
 31
0.0
  0
LINE
  8
NOTE
  6
CONTINUOUS
 62
     4
 10
0.0
 20
132.49999999999989
 30
0.0
 11
-10.33136864655182
 21
138.60432812757031
 31
0.0
  0
LINE
  8
DETAIL
  6
CONTINUOUS
 62
     5
 10
0.0
 20
111.6145022251501
 30
0.0
 11
8.1990074377999917
 21
110.7946014813499
 31
0.0
  0
LINE
  8
DETAIL
  6
CONTINUOUS
 62
     5
 10
8.1990206601001319
 20
102.43440429115
 30
0.0
 11
0.0
 21
101.6145022251501
 31
0.0
  0
LINE
  8
DETAIL
  6
CONTINUOUS
 62
     5
 10
10.0
 20
108.8045396487498
 30
0.0
 11
10.0
 21
104.4245134442497
 31
0.0
  0
ARC
  8
DETAIL
  6
CONTINUOUS
 62
     5
 10
8.0
 20
108.8045271008498
 30
0.0
 40
2.000000000000032
 50
0.0003594707984486
 51
84.290450196797565
  0
ARC
  8
DETAIL
  6
CONTINUOUS
 62
     5
 10
8.0
 20
104.4244773493499
 30
0.0
 40
2.0000000000001119
 50
275.71097380950459
 51
0.0010340436995208
  0
LINE
  8
DETAIL
  6
CONTINUOUS
 62
     5
 10
36.0
 20
-35.322718478150144
 30
0.0
 11
37.70901951220003
 21
-35.292887431550071
 31
0.0
  0
LINE
  8
DETAIL
  6
CONTINUOUS
 62
     5
 10
40.544615113700267
 20
-33.105581075750017
 30
0.0
 11
41.028388601500183
 21
-31.38549756365023
 31
0.0
  0
ARC
  8
DETAIL
  6
CONTINUOUS
 62
     5
 10
37.656662292900137
 20
-32.293344346149979
 30
0.0
 40
2.999999999999988
 50
271.00000000000182
 51
344.29136219379819
  0
LINE
  8
DETAIL
  6
CONTINUOUS
 62
     5
 10
42.122999161400003
 20
-27.60805155400362
 30
0.0
 11
42.122999161400003
 21
36.608051131360071
 31
0.0
  0
LINE
  8
DETAIL
  6
CONTINUOUS
 62
     5
 10
44.403388601500183
 20
-19.500000211790169
 30
0.0
 11
44.403388601500183
 21
28.086066806049761
 31
0.0
  0
LINE
  8
DETAIL
  6
CONTINUOUS
 62
     5
 10
0.0
 20
-104.8623683990993
 30
0.0
 11
8.1990074377999917
 21
-104.04246765529911
 31
0.0
  0
LINE
  8
DETAIL
  6
CONTINUOUS
 62
     5
 10
8.1990206601001319
 20
-95.682270465099208
 30
0.0
 11
0.0
 21
-94.862368399099267
 31
0.0
  0
LINE
  8
DETAIL
  6
CONTINUOUS
 62
     5
 10
10.0
 20
-102.052405822699
 30
0.0
 11
10.0
 21
-97.672379618199272
 31
0.0
  0
LINE
  8
DETAIL
  6
CONTINUOUS
 62
     5
 10
0.0
 20
-104.8623683990993
 30
0.0
 11
0.0
 21
-94.862368399099267
 31
0.0
  0
ARC
  8
DETAIL
  6
CONTINUOUS
 62
     5
 10
8.0
 20
-102.052393274799
 30
0.0
 40
2.0000000000002558
 50
275.70954980320238
 51
359.99964052920149
  0
ARC
  8
DETAIL
  6
CONTINUOUS
 62
     5
 10
8.0
 20
-97.672343523299077
 30
0.0
 40
1.999999999999984
 50
359.99896595630048
 51
84.289026190495377
  0
LINE
  8
DETAIL
  6
CONTINUOUS
 62
     5
 10
14.5
 20
-147.5643566234501
 30
0.0
 11
14.0
 21
-147.55562909105021
 31
0.0
  0
LINE
  8
DETAIL
  6
CONTINUOUS
 62
     5
 10
14.5
 20
-155.50000000005019
 30
0.0
 11
15.5
 21
-155.50000000005019
 31
0.0
  0
LINE
  8
DETAIL
  6
CONTINUOUS
 62
     5
 10
13.80000000000018
 20
-155.00000000005019
 30
0.0
 11
14.0
 21
-155.00000000005019
 31
0.0
  0
LINE
  8
DETAIL
  6
CONTINUOUS
 62
     5
 10
14.0
 20
-154.00000000005019
 30
0.0
 11
13.80000000000018
 21
-154.00000000005019
 31
0.0
  0
LINE
  8
DETAIL
  6
CONTINUOUS
 62
     5
 10
16.0
 20
-147.52071896115041
 30
0.0
 11
16.0
 21
-155.00000000005019
 31
0.0
  0
LINE
  8
DETAIL
  6
CONTINUOUS
 62
     5
 10
14.0
 20
-155.00000000005019
 30
0.0
 11
14.0
 21
-147.55562909105021
 31
0.0
  0
LINE
  8
DETAIL
  6
CONTINUOUS
 62
     5
 10
13.400000000000089
 20
-154.40000000005031
 30
0.0
 11
13.400000000000089
 21
-154.60000000005019
 31
0.0
  0
LINE
  8
DETAIL
  6
CONTINUOUS
 62
     5
 10
0.0
 20
-102.50000000005021
 30
0.0
 11
0.0
 21
-147.29119630355009
 31
0.0
  0
ARC
  8
DETAIL
  6
CONTINUOUS
 62
     5
 10
0.5
 20
-147.29119630355009
 30
0.0
 40
0.500000000000012
 50
180.0
 51
271.0000000000278
  0
ARC
  8
DETAIL
  6
CONTINUOUS
 62
     5
 10
14.5
 20
-155.00000000005019
 30
0.0
 40
0.5
 50
180.0
 51
270.0
  0
ARC
  8
DETAIL
  6
CONTINUOUS
 62
     5
 10
15.5
 20
-155.00000000005019
 30
0.0
 40
0.5
 50
270.0
 51
0.0
  0
ARC
  8
DETAIL
  6
CONTINUOUS
 62
     5
 10
13.80000000000018
 20
-154.40000000005031
 30
0.0
 40
0.400000000000092
 50
90.0
 51
180.0
  0
ARC
  8
DETAIL
  6
CONTINUOUS
 62
     5
 10
13.80000000000018
 20
-154.60000000005019
 30
0.0
 40
0.400000000000036
 50
180.0
 51
270.0
  0
LINE
  8
DETAIL
  6
CONTINUOUS
 62
     5
 10
106.8000000000002
 20
-158.00000000005019
 30
0.0
 11
94.0
 21
-158.00000000005019
 31
0.0
  0
LINE
  8
DETAIL
  6
CONTINUOUS
 62
     5
 10
35.017452406400032
 20
-147.18876809464999
 30
0.0
 11
0.50872620320024
 21
-147.7911201511499
 31
0.0
  0
LINE
  8
DETAIL
  6
CONTINUOUS
 62
     5
 10
94.0
 20
-140.98760623415021
 30
0.0
 11
36.982547593599968
 21
-141.9828495679501
 31
0.0
  0
LINE
  8
DETAIL
  6
CONTINUOUS
 62
     5
 10
94.0
 20
-123.01239376585021
 30
0.0
 11
36.982547593599968
 21
-122.0171504320499
 31
0.0
  0
LINE
  8
DETAIL
  6
CONTINUOUS
 62
     5
 10
94.0
 20
122.01239376584979
 30
0.0
 11
36.982547593599968
 21
121.0171504320499
 31
0.0
  0
ARC
  8
DETAIL
  6
CONTINUOUS
 62
     5
 10
35.0
 20
-146.1889203994499
 30
0.0
 40
1.0
 50
271.00000000000182
 51
0.0
  0
ARC
  8
DETAIL
  6
CONTINUOUS
 62
     5
 10
37.0
 20
-121.0173107399503
 30
0.0
 40
0.9999979994999879
 50
179.99954146030319
 51
268.99999199729598
  0
ARC
  8
DETAIL
  6
CONTINUOUS
 62
     5
 10
37.0
 20
-142.98268926015021
 30
0.0
 40
0.9999979994997479
 50
91.000008002703993
 51
180.00045853970329
  0
ARC
  8
DETAIL
  6
CONTINUOUS
 62
     5
 10
106.8000000000002
 20
-157.50000000005019
 30
0.0
 40
0.5
 50
270.0
 51
0.0
  0
ARC
  8
DETAIL
  6
CONTINUOUS
 62
     5
 10
37.0
 20
120.0173107398498
 30
0.0
 40
0.9999979994997479
 50
91.000008002703993
 51
180.00045853969681
  0
LINE
  8
DETAIL
  6
CONTINUOUS
 62
     5
 10
107.3000000000002
 20
-157.50000000005019
 30
0.0
 11
107.3000000000002
 21
156.49999999994981
 31
0.0
  0
LINE
  8
DETAIL
  6
CONTINUOUS
 62
     5
 10
94.0
 20
-158.00000000005019
 30
0.0
 11
94.0
 21
156.99999999994981
 31
0.0
  0
LINE
  8
DETAIL
  6
CONTINUOUS
 62
     5
 10
94.0
 20
139.98760623414981
 30
0.0
 11
36.982547593599968
 21
140.9828495679501
 31
0.0
  0
LINE
  8
DETAIL
  6
CONTINUOUS
 62
     5
 10
35.017452406400032
 20
147.18876809464999
 30
0.0
 11
0.50872620320024
 21
147.79112015104991
 31
0.0
  0
LINE
  8
DETAIL
  6
CONTINUOUS
 62
     5
 10
106.8000000000002
 20
156.99999999994981
 30
0.0
 11
94.0
 21
156.99999999994981
 31
0.0
  0
ARC
  8
DETAIL
  6
CONTINUOUS
 62
     5
 10
106.8000000000002
 20
156.49999999994981
 30
0.0
 40
0.5
 50
0.0
 51
90.0
  0
ARC
  8
DETAIL
  6
CONTINUOUS
 62
     5
 10
35.0
 20
146.18891502155
 30
0.0
 40
0.999999999999996
 50
0.0003081295027193
 51
89.000005377392142
  0
ARC
  8
DETAIL
  6
CONTINUOUS
 62
     5
 10
37.0
 20
141.98268926004971
 30
0.0
 40
0.9999979994999879
 50
179.99954146030319
 51
268.99999199729598
  0
ARC
  8
DETAIL
  6
CONTINUOUS
 62
     5
 10
0.5
 20
147.29118954474981
 30
0.0
 40
0.499999999999752
 50
89.000013516396294
 51
179.99922549939831
  0
LINE
  8
DETAIL
  6
CONTINUOUS
 62
     5
 10
40.544615113700267
 20
42.220083300849858
 30
0.0
 11
41.028388601500183
 21
40.499999788750067
 31
0.0
  0
LINE
  8
DETAIL
  6
CONTINUOUS
 62
     5
 10
40.78650185765423
 20
41.360041544815203
 30
0.0
 11
44.291341420499982
 21
28.89838976545002
 31
0.0
  0
LINE
  8
DETAIL
  6
CONTINUOUS
 62
     5
 10
40.544615113700267
 20
-33.220083723350172
 30
0.0
 11
44.403388601500183
 21
-19.500000211790169
 31
0.0
  0
LINE
  8
DETAIL
  6
CONTINUOUS
 62
     5
 10
42.434638601500183
 20
-26.50000021124993
 30
0.0
 11
43.065254665800239
 21
-24.257809760250211
 31
0.0
  0
LINE
  8
DETAIL
  6
CONTINUOUS
 62
     5
 10
41.028388601500183
 20
40.499999788750067
 30
0.0
 11
41.028388601500183
 21
-31.49998339595027
 31
0.0
  0
LINE
  8
DETAIL
  6
CONTINUOUS
 62
     5
 10
36.0
 20
-146.1889203994499
 30
0.0
 11
36.0
 21
146.1889203994499
 31
0.0
  0
LINE
  8
DETAIL
  6
CONTINUOUS
 62
     5
 10
0.0
 20
147.29118954474981
 30
0.0
 11
0.0
 21
-97.589000000050191
 31
0.0
  0
LINE
  8
DETAIL
  6
CONTINUOUS
 62
     5
 10
36.0
 20
44.437220703249977
 30
0.0
 11
37.70901951220003
 21
44.407389656649912
 31
0.0
  0
ARC
  8
DETAIL
  6
CONTINUOUS
 62
     5
 10
41.403388601500183
 20
28.08615302964995
 30
0.0
 40
3.0000000000000999
 50
0.0000000985990271
 51
15.70863792910192
  0
ARC
  8
DETAIL
  6
CONTINUOUS
 62
     5
 10
37.656662292900137
 20
41.40784657124982
 30
0.0
 40
2.99999999999998
 50
15.708637806201731
 51
89.000000000004761
  0
ARC
  8
DETAIL
  6
CONTINUOUS
 62
     5
 10
-0.4535775921630147
 20
-120.6774614491037
 30
0.0
 40
0.450187578157456
 50
0.0
 51
90.0
  0
LINE
  8
DETAIL
  6
CONTINUOUS
 62
     5
 10
-0.4535775921630147
 20
-120.22727387094621
 30
0.0
 11
-1.504015274530843
 21
-120.22727387094621
 31
0.0
  0
LINE
  8
DETAIL
  6
CONTINUOUS
 62
     5
 10
-1.5006252605252259
 20
-120.22727387094621
 30
0.0
 11
-25.413977758899019
 21
-120.22727387094621
 31
0.0
  0
LINE
  8
DETAIL
  6
CONTINUOUS
 62
     5
 10
-74.034236199916563
 20
-120.22727387094621
 30
0.0
 11
-90.040905645518819
 21
-120.22727387094621
 31
0.0
  0
LINE
  8
DETAIL
  6
CONTINUOUS
 62
     5
 10
-49.373200110837729
 20
-120.22727387094621
 30
0.0
 11
-72.533610939391338
 21
-120.22727387094621
 31
0.0
  0
LINE
  8
DETAIL
  6
CONTINUOUS
 62
     5
 10
-25.510629428928841
 20
-120.22727387094621
 30
0.0
 11
-49.423981927302407
 21
-120.22727387094621
 31
0.0
  0
LINE
  8
DETAIL
  6
CONTINUOUS
 62
     5
 10
-90.037515631513202
 20
-119.77272612905379
 30
0.0
 11
-90.037515631513202
 21
119.77272612905379
 31
0.0
  0
LINE
  8
DETAIL
  6
CONTINUOUS
 62
     5
 10
-30.012505210504401
 20
119.77272612905379
 30
0.0
 11
-30.012505210504401
 21
123.0741017022097
 31
0.0
  0
ARC
  8
DETAIL
  6
CONTINUOUS
 62
     5
 10
-0.4501875781573972
 20
120.2229137072113
 30
0.0
 40
0.450187578157512
 50
270.0
 51
0.0
  0
LINE
  8
DETAIL
  6
CONTINUOUS
 62
     5
 10
-0.4501875781573972
 20
119.77272612905379
 30
0.0
 11
-2.0008336807003388
 21
119.77272612905379
 31
0.0
  0
LINE
  8
DETAIL
  6
CONTINUOUS
 62
     5
 10
-13.4055856606916
 20
-120.22727387094621
 30
0.0
 11
-13.509017358732651
 21
-120.22727387094621
 31
0.0
  0
LINE
  8
DETAIL
  6
CONTINUOUS
 62
     5
 10
-25.413977758899019
 20
-120.22727387094621
 30
0.0
 11
-25.510629428928841
 21
-120.22727387094621
 31
0.0
  0
LINE
  8
DETAIL
  6
CONTINUOUS
 62
     5
 10
-61.425593997498588
 20
-120.22727387094621
 30
0.0
 11
-61.529025695539637
 21
-120.22727387094621
 31
0.0
  0
LINE
  8
DETAIL
  6
CONTINUOUS
 62
     5
 10
-49.423981927302407
 20
-120.22727387094621
 30
0.0
 11
-49.520633597332221
 21
-120.22727387094621
 31
0.0
  0
LINE
  8
DETAIL
  6
CONTINUOUS
 62
     5
 10
-37.415589829094984
 20
-120.22727387094621
 30
0.0
 11
-37.51902152713626
 21
-120.22727387094621
 31
0.0
  0
LINE
  8
DETAIL
  6
CONTINUOUS
 62
     5
 10
-72.533610939391338
 20
-120.22727387094621
 30
0.0
 11
-74.034236199916563
 21
-120.22727387094621
 31
0.0
  0
LINE
  8
DETAIL
  6
CONTINUOUS
 62
     5
 10
-90.037515631513202
 20
119.77272612905379
 30
0.0
 11
-2.0008336807003388
 21
119.77272612905379
 31
0.0
  0
LINE
  8
DETAIL
  6
CONTINUOUS
 62
     5
 10
-73.241572763584713
 20
98.92204551036275
 30
0.0
 11
-73.241572763584713
 21
-99.376593252255134
 31
0.0
  0
LINE
  8
DETAIL
  6
CONTINUOUS
 62
     5
 10
-86.825121692438188
 20
-99.376593252255134
 30
0.0
 11
-86.825121692438188
 21
98.92204551036275
 31
0.0
  0
LINE
  8
BASIS
  6
DASHDOT
 62
     6
 10
123.55574977571951
 20
0.0
 30
0.0
 11
-159.96979021264809
 21
0.0
 31
0.0
  0
LINE
  8
DETAIL
  6
CONTINUOUS
 62
     5
 10
-81.518892393857072
 20
-45.26111653981431
 30
0.0
 11
-78.547802062165374
 21
-48.232197354641812
 31
0.0
  0
LINE
  8
DETAIL
  6
CONTINUOUS
 62
     5
 10
-78.547806820597998
 20
-45.261111781382169
 30
0.0
 11
-81.518887635425358
 21
-48.232202113073527
 31
0.0
  0
CIRCLE
  8
DETAIL
  6
CONTINUOUS
 62
     5
 10
-80.033347228011735
 20
-46.746656947228082
 30
0.0
 40
4.0016673614005844
  0
LINE
  8
DETAIL
  6
CONTINUOUS
 62
     5
 10
-81.518892393857072
 20
25.768479125046269
 30
0.0
 11
-78.547802062165374
 21
22.797398310218799
 31
0.0
  0
LINE
  8
DETAIL
  6
CONTINUOUS
 62
     5
 10
-78.547806820597998
 20
25.76848388347798
 30
0.0
 11
-81.518887635425358
 21
22.79739355178663
 31
0.0
  0
CIRCLE
  8
DETAIL
  6
CONTINUOUS
 62
     5
 10
-80.033347228011735
 20
24.282938717632529
 30
0.0
 40
4.0016673614005844
  0
LINE
  8
DETAIL
  6
CONTINUOUS
 62
     5
 10
-81.518892393857072
 20
96.798074789906423
 30
0.0
 11
-78.547802062165374
 21
93.826993975078949
 31
0.0
  0
LINE
  8
DETAIL
  6
CONTINUOUS
 62
     5
 10
-78.547806820597998
 20
96.798079548338592
 30
0.0
 11
-81.518887635425358
 21
93.826989216647235
 31
0.0
  0
CIRCLE
  8
DETAIL
  6
CONTINUOUS
 62
     5
 10
-80.033347228011735
 20
95.312534382492686
 30
0.0
 40
4.0016673614005844
  0
LINE
  8
DETAIL
  6
CONTINUOUS
 62
     5
 10
-142.10533501495149
 20
-57.739669160553149
 30
0.0
 11
-142.00542860090729
 21
-58.066448316533297
 31
0.0
  0
LINE
  8
DETAIL
  6
CONTINUOUS
 62
     5
 10
-141.74722631679731
 20
-57.987507956258007
 30
0.0
 11
-141.84713273084151
 21
-57.660728800278321
 31
0.0
  0
LINE
  8
DETAIL
  6
CONTINUOUS
 62
     5
 10
-141.66787080700661
 20
-57.323586155892833
 30
0.0
 11
-141.74681116728169
 21
-57.065383871783069
 31
0.0
  0
LINE
  8
DETAIL
  6
CONTINUOUS
 62
     5
 10
-131.34490068372159
 20
-57.022275960633579
 30
0.0
 11
-132.22201579788981
 21
-54.153361692744511
 31
0.0
  0
LINE
  8
DETAIL
  6
CONTINUOUS
 62
     5
 10
-138.2182505479326
 20
-56.542357412510647
 30
0.0
 11
-138.35905635137451
 21
-56.31198005755229
 31
0.0
  0
LINE
  8
DETAIL
  6
CONTINUOUS
 62
     5
 10
-93.820576547680957
 20
-47.824760693095868
 30
0.0
 11
-93.995999570514527
 21
-47.250977839517873
 31
0.0
  0
LINE
  8
DETAIL
  6
CONTINUOUS
 62
     5
 10
-128.84754776188001
 20
-58.35014206328421
 30
0.0
 11
-131.34490068372159
 21
-57.022275960633579
 31
0.0
  0
LINE
  8
DETAIL
  6
CONTINUOUS
 62
     5
 10
-128.84754776971371
 20
-58.350142065365617
 30
0.0
 11
-93.820576547680957
 21
-47.824760693095868
 31
0.0
  0
LINE
  8
DETAIL
  6
CONTINUOUS
 62
     5
 10
-93.995999570514527
 20
-47.250977839517873
 30
0.0
 11
-92.370281485377404
 21
-46.753945941489292
 31
0.0
  0
LINE
  8
DETAIL
  6
CONTINUOUS
 62
     5
 10
-141.66787080700661
 20
-57.323586155892833
 30
0.0
 11
-132.14307543761481
 21
-54.411563976854723
 31
0.0
  0
LINE
  8
DETAIL
  6
CONTINUOUS
 62
     5
 10
-141.20741242574499
 20
-58.369322306090879
 30
0.0
 11
-138.2182505479326
 21
-56.542357412510647
 31
0.0
  0
LINE
  8
DETAIL
  6
CONTINUOUS
 62
     5
 10
-138.35905635137451
 20
-56.31198005755229
 30
0.0
 11
-141.34821822921609
 21
-58.138944951037047
 31
0.0
  0
ARC
  8
DETAIL
  6
CONTINUOUS
 62
     5
 10
-141.5889304467315
 20
-57.581788440003038
 30
0.0
 40
0.54000000000002
 50
107.0000000000018
 51
196.99999999999511
  0
ARC
  8
DETAIL
  6
CONTINUOUS
 62
     5
 10
-141.48902403268721
 20
-57.908567595982731
 30
0.0
 40
0.54000000000004
 50
197.00000000000219
 51
301.43312224279549
  0
ARC
  8
DETAIL
  6
CONTINUOUS
 62
     5
 10
-141.48902403268721
 20
-57.908567595982731
 30
0.0
 40
0.269999999999948
 50
196.99999999999511
 51
301.43312224279549
  0
ARC
  8
DETAIL
  6
CONTINUOUS
 62
     5
 10
-141.5889304467315
 20
-57.581788440003038
 30
0.0
 40
0.270000000000012
 50
107.0000000000018
 51
196.99999999999511
  0
ARC
  8
DETAIL
  6
CONTINUOUS
 62
     5
 10
-91.708787120382794
 20
-46.865414345444613
 30
0.0
 40
0.3000000000000039
 50
197.0000000000085
 51
287.00000000000182
  0
ARC
  8
DETAIL
  6
CONTINUOUS
 62
     5
 10
-92.282569973960562
 20
-47.040837368278062
 30
0.0
 40
0.29999999999994
 50
16.999999999995079
 51
107.0000000000018
  0
LINE
  8
DETAIL
  6
CONTINUOUS
 62
     5
 10
-90.037515631513202
 20
-46.668162901196411
 30
0.0
 11
-91.621075608965839
 21
-47.152305772233383
 31
0.0
  0
LINE
  8
DETAIL
  6
CONTINUOUS
 62
     5
 10
-141.74681116728169
 20
-57.065383871783069
 30
0.0
 11
-90.037515631513202
 21
-41.439704118760318
 31
0.0
  0
LINE
  8
DETAIL
  6
CONTINUOUS
 62
     5
 10
-142.10533501495149
 20
13.289926504306999
 30
0.0
 11
-142.00542860090729
 21
12.963147348327309
 31
0.0
  0
LINE
  8
DETAIL
  6
CONTINUOUS
 62
     5
 10
-141.74722631679731
 20
13.042087708602139
 30
0.0
 11
-141.84713273084151
 21
13.368866864582291
 31
0.0
  0
LINE
  8
DETAIL
  6
CONTINUOUS
 62
     5
 10
-141.66787080700661
 20
13.70600950896733
 30
0.0
 11
-141.74681116728169
 21
13.96421179307754
 31
0.0
  0
LINE
  8
DETAIL
  6
CONTINUOUS
 62
     5
 10
-131.34490068372159
 20
14.007319704226569
 30
0.0
 11
-132.22201579788981
 21
16.876233972115639
 31
0.0
  0
LINE
  8
DETAIL
  6
CONTINUOUS
 62
     5
 10
-138.2182505479326
 20
14.487238252349471
 30
0.0
 11
-138.35905635137451
 21
14.717615607307829
 31
0.0
  0
LINE
  8
DETAIL
  6
CONTINUOUS
 62
     5
 10
-93.820576547680957
 20
23.20483497176474
 30
0.0
 11
-93.995999570514527
 21
23.77861782534228
 31
0.0
  0
LINE
  8
DETAIL
  6
CONTINUOUS
 62
     5
 10
-128.84754776188001
 20
12.67945360157637
 30
0.0
 11
-131.34490068372159
 21
14.007319704226569
 31
0.0
  0
LINE
  8
DETAIL
  6
CONTINUOUS
 62
     5
 10
-128.84754776971371
 20
12.679453599494989
 30
0.0
 11
-93.820576547680957
 21
23.20483497176474
 31
0.0
  0
LINE
  8
DETAIL
  6
CONTINUOUS
 62
     5
 10
-93.995999570514527
 20
23.77861782534228
 30
0.0
 11
-92.370281485377404
 21
24.275649723370861
 31
0.0
  0
LINE
  8
DETAIL
  6
CONTINUOUS
 62
     5
 10
-141.66787080700661
 20
13.70600950896733
 30
0.0
 11
-132.14307543761481
 21
16.618031688005889
 31
0.0
  0
LINE
  8
DETAIL
  6
CONTINUOUS
 62
     5
 10
-141.20741242574499
 20
12.660273358769251
 30
0.0
 11
-138.2182505479326
 21
14.487238252349471
 31
0.0
  0
LINE
  8
DETAIL
  6
CONTINUOUS
 62
     5
 10
-138.35905635137451
 20
14.717615607307829
 30
0.0
 11
-141.34821822921609
 21
12.890650713823559
 31
0.0
  0
ARC
  8
DETAIL
  6
CONTINUOUS
 62
     5
 10
-141.5889304467315
 20
13.447807224857121
 30
0.0
 40
0.540000000000024
 50
107.0000000000018
 51
196.99999999999511
  0
ARC
  8
DETAIL
  6
CONTINUOUS
 62
     5
 10
-141.48902403268721
 20
13.12102806887742
 30
0.0
 40
0.5400000000000279
 50
196.99999999999511
 51
301.43312224279549
  0
ARC
  8
DETAIL
  6
CONTINUOUS
 62
     5
 10
-141.48902403268721
 20
13.12102806887742
 30
0.0
 40
0.269999999999932
 50
196.99999999999511
 51
301.43312224279549
  0
ARC
  8
DETAIL
  6
CONTINUOUS
 62
     5
 10
-141.5889304467315
 20
13.447807224857121
 30
0.0
 40
0.270000000000012
 50
107.0000000000018
 51
196.99999999999511
  0
ARC
  8
DETAIL
  6
CONTINUOUS
 62
     5
 10
-91.708787120382794
 20
24.164181319415999
 30
0.0
 40
0.299999999999984
 50
197.0000000000085
 51
287.00000000000182
  0
ARC
  8
DETAIL
  6
CONTINUOUS
 62
     5
 10
-92.282569973960562
 20
23.988758296582091
 30
0.0
 40
0.299999999999948
 50
16.999999999995079
 51
107.0000000000018
  0
LINE
  8
DETAIL
  6
CONTINUOUS
 62
     5
 10
-90.037515631513202
 20
24.361432763664201
 30
0.0
 11
-91.621075608965839
 21
23.877289892626781
 31
0.0
  0
LINE
  8
DETAIL
  6
CONTINUOUS
 62
     5
 10
-141.74681116728169
 20
13.96421179307754
 30
0.0
 11
-90.037515631513202
 21
29.58989154609981
 31
0.0
  0
LINE
  8
DETAIL
  6
CONTINUOUS
 62
     5
 10
-142.10533501495161
 20
84.319522169167612
 30
0.0
 11
-142.00542860090741
 21
83.992743013187464
 31
0.0
  0
LINE
  8
DETAIL
  6
CONTINUOUS
 62
     5
 10
-141.74722631679739
 20
84.071683373462747
 30
0.0
 11
-141.84713273084159
 21
84.39846252944244
 31
0.0
  0
LINE
  8
DETAIL
  6
CONTINUOUS
 62
     5
 10
-141.66787080700669
 20
84.73560517382748
 30
0.0
 11
-141.74681116728181
 21
84.993807457937692
 31
0.0
  0
LINE
  8
DETAIL
  6
CONTINUOUS
 62
     5
 10
-131.34490068372179
 20
85.036915369087183
 30
0.0
 11
-132.22201579789001
 21
87.90582963697625
 31
0.0
  0
LINE
  8
DETAIL
  6
CONTINUOUS
 62
     5
 10
-138.21825054793271
 20
85.516833917210079
 30
0.0
 11
-138.35905635137451
 21
85.747211272168443
 31
0.0
  0
LINE
  8
DETAIL
  6
CONTINUOUS
 62
     5
 10
-93.820576547680957
 20
94.234430636624893
 30
0.0
 11
-93.995999570514641
 21
94.808213490202888
 31
0.0
  0
LINE
  8
DETAIL
  6
CONTINUOUS
 62
     5
 10
-128.84754776188001
 20
83.709049266436523
 30
0.0
 11
-131.34490068372179
 21
85.036915369087183
 31
0.0
  0
LINE
  8
DETAIL
  6
CONTINUOUS
 62
     5
 10
-90.037515631513202
 20
95.391028428524351
 30
0.0
 11
-91.621075608965953
 21
94.906885557487385
 31
0.0
  0
LINE
  8
DETAIL
  6
CONTINUOUS
 62
     5
 10
-128.8475477697138
 20
83.709049264355144
 30
0.0
 11
-93.820576547680957
 21
94.234430636624893
 31
0.0
  0
LINE
  8
DETAIL
  6
CONTINUOUS
 62
     5
 10
-93.995999570514641
 20
94.808213490202888
 30
0.0
 11
-92.370281485377404
 21
95.305245388231469
 31
0.0
  0
LINE
  8
DETAIL
  6
CONTINUOUS
 62
     5
 10
-141.66787080700669
 20
84.73560517382748
 30
0.0
 11
-132.1430754376149
 21
87.647627352866039
 31
0.0
  0
LINE
  8
DETAIL
  6
CONTINUOUS
 62
     5
 10
-141.74681116728181
 20
84.993807457937692
 30
0.0
 11
-90.037515631513202
 21
100.6194872109604
 31
0.0
  0
LINE
  8
DETAIL
  6
CONTINUOUS
 62
     5
 10
-141.2074124257451
 20
83.689869023629853
 30
0.0
 11
-138.21825054793271
 21
85.516833917210079
 31
0.0
  0
LINE
  8
DETAIL
  6
CONTINUOUS
 62
     5
 10
-138.35905635137451
 20
85.747211272168443
 30
0.0
 11
-141.34821822921609
 21
83.920246378683714
 31
0.0
  0
ARC
  8
DETAIL
  6
CONTINUOUS
 62
     5
 10
-141.5889304467315
 20
84.477402889717723
 30
0.0
 40
0.540000000000024
 50
107.0000000000018
 51
196.99999999999511
  0
ARC
  8
DETAIL
  6
CONTINUOUS
 62
     5
 10
-141.4890240326873
 20
84.15062373373803
 30
0.0
 40
0.5400000000000279
 50
196.99999999999511
 51
301.43312224279549
  0
ARC
  8
DETAIL
  6
CONTINUOUS
 62
     5
 10
-141.4890240326873
 20
84.15062373373803
 30
0.0
 40
0.269999999999948
 50
196.99999999999511
 51
301.43312224279549
  0
ARC
  8
DETAIL
  6
CONTINUOUS
 62
     5
 10
-141.5889304467315
 20
84.477402889717723
 30
0.0
 40
0.270000000000012
 50
107.0000000000018
 51
196.99999999999511
  0
ARC
  8
DETAIL
  6
CONTINUOUS
 62
     5
 10
-91.708787120382794
 20
95.193776984276155
 30
0.0
 40
0.299999999999976
 50
197.0000000000085
 51
287.00000000000182
  0
ARC
  8
DETAIL
  6
CONTINUOUS
 62
     5
 10
-92.282569973960676
 20
95.018353961442699
 30
0.0
 40
0.299999999999956
 50
17.00000000000227
 51
107.0000000000018
  0
LINE
  8
DETAIL
  6
CONTINUOUS
 62
     5
 10
-32.013374025514509
 20
124.0743314561492
 30
0.0
 11
-33.013683986990941
 21
123.0740214946732
 31
0.0
  0
LINE
  8
DETAIL
  6
CONTINUOUS
 62
     5
 10
-32.013338891204853
 20
119.77272612905379
 30
0.0
 11
-32.013338891204853
 21
124.0745185425599
 31
0.0
  0
LINE
  8
DETAIL
  6
CONTINUOUS
 62
     5
 10
-33.013755731554852
 20
119.77272612905379
 30
0.0
 11
-33.013755731554852
 21
123.0741017022097
 31
0.0
  0
LINE
  8
DETAIL
  6
CONTINUOUS
 62
     5
 10
-33.013755731554852
 20
123.0741017022097
 30
0.0
 11
-30.012505210504401
 21
123.0741017022097
 31
0.0
  0
LINE
  8
DETAIL
  6
CONTINUOUS
 62
     5
 10
-32.013338891204853
 20
124.0745185425599
 30
0.0
 11
-30.012505210504401
 21
124.0745185425599
 31
0.0
  0
LINE
  8
DETAIL
  6
CONTINUOUS
 62
     5
 10
-28.01163765144236
 20
124.0744825734173
 30
0.0
 11
-27.01132768996592
 21
123.0741726119409
 31
0.0
  0
LINE
  8
DETAIL
  6
CONTINUOUS
 62
     5
 10
-28.011671529803952
 20
119.77272612905379
 30
0.0
 11
-28.011671529803952
 21
124.0745185425599
 31
0.0
  0
LINE
  8
DETAIL
  6
CONTINUOUS
 62
     5
 10
-27.011254689453949
 20
119.77272612905379
 30
0.0
 11
-27.011254689453949
 21
123.0741017022097
 31
0.0
  0
LINE
  8
DETAIL
  6
CONTINUOUS
 62
     5
 10
-27.011254689453949
 20
123.0741017022097
 30
0.0
 11
-30.012505210504401
 21
123.0741017022097
 31
0.0
  0
LINE
  8
DETAIL
  6
CONTINUOUS
 62
     5
 10
-28.011671529803952
 20
124.0745185425599
 30
0.0
 11
-30.012505210504401
 21
124.0745185425599
 31
0.0
  0
ARC
  8
DETAIL
  6
CONTINUOUS
 62
     5
 10
-80.033347228011621
 20
97.77077698144285
 30
0.0
 40
6.8886587665033021
 50
9.6207144339298765
 51
170.37928556606369
  0
ARC
  8
DETAIL
  6
CONTINUOUS
 62
     5
 10
-80.033347228011621
 20
-98.225324723334779
 30
0.0
 40
6.8886587665033776
 50
189.62071443393631
 51
350.37928556606369
  0
LINE
  8
OUTLINE
  6
CONTINUOUS
 62
     3
 10
-0.0033900140055039
 20
-120.6774614491037
 30
0.0
 11
0.0
 21
-147.29119630355009
 31
0.0
  0
ARC
  8
OUTLINE
  6
CONTINUOUS
 62
     3
 10
0.5
 20
-147.29119630355009
 30
0.0
 40
0.500000000000012
 50
180.0
 51
271.0000000000278
  0
LINE
  8
OUTLINE
  6
CONTINUOUS
 62
     3
 10
106.8000000000002
 20
-158.00000000005019
 30
0.0
 11
94.0
 21
-158.00000000005019
 31
0.0
  0
LINE
  8
OUTLINE
  6
CONTINUOUS
 62
     3
 10
35.017452406400032
 20
-147.18876809464999
 30
0.0
 11
0.50872620320024
 21
-147.7911201511499
 31
0.0
  0
LINE
  8
OUTLINE
  6
CONTINUOUS
 62
     3
 10
94.0
 20
-140.98760623415021
 30
0.0
 11
36.982547593599968
 21
-141.9828495679501
 31
0.0
  0
ARC
  8
OUTLINE
  6
CONTINUOUS
 62
     3
 10
35.0
 20
-146.1889203994499
 30
0.0
 40
1.0
 50
271.00000000000182
 51
0.0
  0
ARC
  8
OUTLINE
  6
CONTINUOUS
 62
     3
 10
37.0
 20
-142.98268926015021
 30
0.0
 40
0.9999979994997479
 50
91.000008002703993
 51
180.00045853970329
  0
ARC
  8
OUTLINE
  6
CONTINUOUS
 62
     3
 10
106.8000000000002
 20
-157.50000000005019
 30
0.0
 40
0.5
 50
270.0
 51
0.0
  0
LINE
  8
OUTLINE
  6
CONTINUOUS
 62
     3
 10
107.3000000000002
 20
-157.50000000005019
 30
0.0
 11
107.3000000000002
 21
156.49999999994981
 31
0.0
  0
LINE
  8
OUTLINE
  6
CONTINUOUS
 62
     3
 10
94.0
 20
-158.00000000005019
 30
0.0
 11
94.0
 21
-140.98760623415009
 31
0.0
  0
LINE
  8
OUTLINE
  6
CONTINUOUS
 62
     3
 10
94.0
 20
139.98760623414981
 30
0.0
 11
94.0
 21
156.99999999994981
 31
0.0
  0
LINE
  8
OUTLINE
  6
CONTINUOUS
 62
     3
 10
94.0
 20
139.98760623414981
 30
0.0
 11
36.982547593599968
 21
140.9828495679501
 31
0.0
  0
LINE
  8
OUTLINE
  6
CONTINUOUS
 62
     3
 10
35.017452406400032
 20
147.18876809464999
 30
0.0
 11
0.50872620320024
 21
147.79112015104991
 31
0.0
  0
LINE
  8
OUTLINE
  6
CONTINUOUS
 62
     3
 10
106.8000000000002
 20
156.99999999994981
 30
0.0
 11
94.0
 21
156.99999999994981
 31
0.0
  0
ARC
  8
OUTLINE
  6
CONTINUOUS
 62
     3
 10
106.8000000000002
 20
156.49999999994981
 30
0.0
 40
0.5
 50
0.0
 51
90.0
  0
ARC
  8
OUTLINE
  6
CONTINUOUS
 62
     3
 10
35.0
 20
146.18891502155
 30
0.0
 40
0.999999999999996
 50
0.0003081295027193
 51
89.000005377392142
  0
ARC
  8
OUTLINE
  6
CONTINUOUS
 62
     3
 10
37.0
 20
141.98268926004971
 30
0.0
 40
0.9999979994999879
 50
179.99954146030319
 51
268.99999199729598
  0
ARC
  8
OUTLINE
  6
CONTINUOUS
 62
     3
 10
0.5
 20
147.29118954474981
 30
0.0
 40
0.499999999999752
 50
89.000013516396294
 51
179.99922549939831
  0
LINE
  8
OUTLINE
  6
CONTINUOUS
 62
     3
 10
36.0
 20
-146.1889203994499
 30
0.0
 11
36.000002000532277
 21
-142.98269726316181
 31
0.0
  0
LINE
  8
OUTLINE
  6
CONTINUOUS
 62
     3
 10
0.0
 20
147.29118954474981
 30
0.0
 11
0.0
 21
120.2229137072113
 31
0.0
  0
ARC
  8
OUTLINE
  6
CONTINUOUS
 62
     3
 10
-0.4535775921630147
 20
-120.6774614491037
 30
0.0
 40
0.450187578157456
 50
0.0
 51
90.0
  0
LINE
  8
OUTLINE
  6
CONTINUOUS
 62
     3
 10
-0.4535775921630147
 20
-120.22727387094621
 30
0.0
 11
-1.504015274530843
 21
-120.22727387094621
 31
0.0
  0
LINE
  8
OUTLINE
  6
CONTINUOUS
 62
     3
 10
-1.5006252605252259
 20
-120.22727387094621
 30
0.0
 11
-25.413977758899019
 21
-120.22727387094621
 31
0.0
  0
LINE
  8
OUTLINE
  6
CONTINUOUS
 62
     3
 10
-74.034236199916563
 20
-120.22727387094621
 30
0.0
 11
-90.040905645518819
 21
-120.22727387094621
 31
0.0
  0
LINE
  8
OUTLINE
  6
CONTINUOUS
 62
     3
 10
-49.373200110837729
 20
-120.22727387094621
 30
0.0
 11
-72.533610939391338
 21
-120.22727387094621
 31
0.0
  0
LINE
  8
OUTLINE
  6
CONTINUOUS
 62
     3
 10
-25.510629428928841
 20
-120.22727387094621
 30
0.0
 11
-49.423981927302407
 21
-120.22727387094621
 31
0.0
  0
LINE
  8
OUTLINE
  6
CONTINUOUS
 62
     3
 10
-90.037515631513202
 20
-119.77272612905379
 30
0.0
 11
-90.037515631513202
 21
119.77272612905379
 31
0.0
  0
ARC
  8
OUTLINE
  6
CONTINUOUS
 62
     3
 10
-0.4501875781573972
 20
120.2229137072113
 30
0.0
 40
0.450187578157512
 50
270.0
 51
0.0
  0
LINE
  8
OUTLINE
  6
CONTINUOUS
 62
     3
 10
-0.4501875781573972
 20
119.77272612905379
 30
0.0
 11
-2.0008336807003388
 21
119.77272612905379
 31
0.0
  0
LINE
  8
OUTLINE
  6
CONTINUOUS
 62
     3
 10
-13.4055856606916
 20
-120.22727387094621
 30
0.0
 11
-13.509017358732651
 21
-120.22727387094621
 31
0.0
  0
LINE
  8
OUTLINE
  6
CONTINUOUS
 62
     3
 10
-25.413977758899019
 20
-120.22727387094621
 30
0.0
 11
-25.510629428928841
 21
-120.22727387094621
 31
0.0
  0
LINE
  8
OUTLINE
  6
CONTINUOUS
 62
     3
 10
-61.425593997498588
 20
-120.22727387094621
 30
0.0
 11
-61.529025695539637
 21
-120.22727387094621
 31
0.0
  0
LINE
  8
OUTLINE
  6
CONTINUOUS
 62
     3
 10
-49.423981927302407
 20
-120.22727387094621
 30
0.0
 11
-49.520633597332221
 21
-120.22727387094621
 31
0.0
  0
LINE
  8
OUTLINE
  6
CONTINUOUS
 62
     3
 10
-37.415589829094984
 20
-120.22727387094621
 30
0.0
 11
-37.51902152713626
 21
-120.22727387094621
 31
0.0
  0
LINE
  8
OUTLINE
  6
CONTINUOUS
 62
     3
 10
-72.533610939391338
 20
-120.22727387094621
 30
0.0
 11
-74.034236199916563
 21
-120.22727387094621
 31
0.0
  0
LINE
  8
OUTLINE
  6
CONTINUOUS
 62
     3
 10
-90.037515631513202
 20
119.77272612905379
 30
0.0
 11
-2.0008336807003388
 21
119.77272612905379
 31
0.0
  0
LINE
  8
SIZE
  6
CONTINUOUS
 62
    30
 10
107.3000000000002
 20
176.49999999994981
 30
0.0
 11
107.3000000000002
 21
369.77281725746047
 31
0.0
  0
LINE
  8
SIZE
  6
CONTINUOUS
 62
    30
 10
94.0
 20
176.99999999994981
 30
0.0
 11
94.0
 21
369.77281725746047
 31
0.0
  0
LINE
  8
SIZE
  6
CONTINUOUS
 62
    30
 10
82.0
 20
349.77281725746047
 30
0.0
 11
70.0
 21
349.77281725746047
 31
0.0
  0
LINE
  8
SIZE
  6
CONTINUOUS
 62
    30
 10
119.3000000000002
 20
349.77281725746047
 30
0.0
 11
263.5857142857144
 21
349.77281725746047
 31
0.0
  0
LINE
  8
SIZE
  6
CONTINUOUS
 62
    30
 10
94.0
 20
349.77281725746047
 30
0.0
 11
107.3000000000002
 21
349.77281725746047
 31
0.0
  0
CIRCLE
  8
SIZE
  6
CONTINUOUS
 62
    30
 10
94.0
 20
349.77281725746047
 30
0.0
 40
6.0
  0
LINE
  8
SIZE
  6
CONTINUOUS
 62
    30
 10
94.0
 20
349.77281725746047
 30
0.0
 11
82.0
 21
349.77281725746047
 31
0.0
  0
CIRCLE
  8
SIZE
  6
CONTINUOUS
 62
    30
 10
107.3000000000002
 20
349.77281725746047
 30
0.0
 40
6.0
  0
LINE
  8
SIZE
  6
CONTINUOUS
 62
    30
 10
107.3000000000002
 20
349.77281725746047
 30
0.0
 11
119.3000000000002
 21
349.77281725746047
 31
0.0
  0
TEXT
  8
SIZE
  6
CONTINUOUS
 62
    30
 10
156.30000000000021
 20
374.77281725746047
 30
0.0
 40
64.0
  1
13
 41
0.9
 72
     1
 11
197.44285714285729
 21
374.77281725746047
 31
0.0
  0
LINE
  8
SIZE
  6
CONTINUOUS
 62
    30
 10
94.0
 20
171.66083545898371
 30
0.0
 11
94.0
 21
369.77281725746047
 31
0.0
  0
LINE
  8
SIZE
  6
CONTINUOUS
 62
    30
 10
36.000002000532049
 20
161.98269726306111
 30
0.0
 11
36.000002000532049
 21
369.77281725746047
 31
0.0
  0
LINE
  8
SIZE
  6
CONTINUOUS
 62
    30
 10
106.0
 20
349.77281725746047
 30
0.0
 11
118.0
 21
349.77281725746047
 31
0.0
  0
LINE
  8
SIZE
  6
CONTINUOUS
 62
    30
 10
24.000002000532049
 20
349.77281725746047
 30
0.0
 11
-276.25162890347337
 21
349.77281725746047
 31
0.0
  0
LINE
  8
SIZE
  6
CONTINUOUS
 62
    30
 10
94.0
 20
349.77281725746047
 30
0.0
 11
36.000002000532049
 21
349.77281725746047
 31
0.0
  0
CIRCLE
  8
SIZE
  6
CONTINUOUS
 62
    30
 10
94.0
 20
349.77281725746047
 30
0.0
 40
6.0
  0
LINE
  8
SIZE
  6
CONTINUOUS
 62
    30
 10
94.0
 20
349.77281725746047
 30
0.0
 11
106.0
 21
349.77281725746047
 31
0.0
  0
CIRCLE
  8
SIZE
  6
CONTINUOUS
 62
    30
 10
36.000002000532049
 20
349.77281725746047
 30
0.0
 40
6.0
  0
LINE
  8
SIZE
  6
CONTINUOUS
 62
    30
 10
36.000002000532049
 20
349.77281725746047
 30
0.0
 11
24.000002000532049
 21
349.77281725746047
 31
0.0
  0
TEXT
  8
SIZE
  6
CONTINUOUS
 62
    30
 10
-251.2516289034734
 20
374.77281725746047
 30
0.0
 40
64.0
  1
58
 41
0.9
 72
     1
 11
-204.623057474902
 21
374.77281725746047
 31
0.0
  0
LINE
  8
SIZE
  6
CONTINUOUS
 62
    30
 10
107.3000000000002
 20
176.49999999994981
 30
0.0
 11
107.3000000000002
 21
510.71955313438713
 31
0.0
  0
LINE
  8
SIZE
  6
CONTINUOUS
 62
    30
 10
0.0
 20
177.05725111254989
 30
0.0
 11
0.0
 21
510.71955313438713
 31
0.0
  0
LINE
  8
SIZE
  6
CONTINUOUS
 62
    30
 10
12.0
 20
490.71955313438713
 30
0.0
 11
95.300000000000182
 21
490.71955313438713
 31
0.0
  0
LINE
  8
SIZE
  6
CONTINUOUS
 62
    30
 10
107.3000000000002
 20
490.71955313438713
 30
0.0
 11
306.44285714285718
 21
490.71955313438713
 31
0.0
  0
CIRCLE
  8
SIZE
  6
CONTINUOUS
 62
    30
 10
0.0
 20
490.71955313438713
 30
0.0
 40
6.0
  0
LINE
  8
SIZE
  6
CONTINUOUS
 62
    30
 10
0.0
 20
490.71955313438713
 30
0.0
 11
12.0
 21
490.71955313438713
 31
0.0
  0
CIRCLE
  8
SIZE
  6
CONTINUOUS
 62
    30
 10
107.3000000000002
 20
490.71955313438713
 30
0.0
 40
6.0
  0
LINE
  8
SIZE
  6
CONTINUOUS
 62
    30
 10
107.3000000000002
 20
490.71955313438713
 30
0.0
 11
95.300000000000182
 21
490.71955313438713
 31
0.0
  0
TEXT
  8
SIZE
  6
CONTINUOUS
 62
    30
 10
144.3000000000003
 20
515.71955313438718
 30
0.0
 40
64.0
  1
107
 41
0.9
 72
     1
 11
212.87142857142891
 21
515.71955313438718
 31
0.0
  0
LINE
  8
SIZE
  6
CONTINUOUS
 62
    30
 10
0.0
 20
177.05725111254989
 30
0.0
 11
0.0
 21
250.4142564590945
 31
0.0
  0
LINE
  8
SIZE
  6
CONTINUOUS
 62
    30
 10
-30.012505210504401
 20
143.07410170220959
 30
0.0
 11
-30.012505210504401
 21
250.4142564590945
 31
0.0
  0
LINE
  8
SIZE
  6
CONTINUOUS
 62
    30
 10
-42.012505210504401
 20
230.4142564590945
 30
0.0
 11
-54.012505210504401
 21
230.4142564590945
 31
0.0
  0
LINE
  8
SIZE
  6
CONTINUOUS
 62
    30
 10
12.0
 20
230.4142564590945
 30
0.0
 11
246.24136356341251
 21
230.4142564590945
 31
0.0
  0
LINE
  8
SIZE
  6
CONTINUOUS
 62
    30
 10
-30.012505210504401
 20
230.4142564590945
 30
0.0
 11
0.0
 21
230.4142564590945
 31
0.0
  0
CIRCLE
  8
SIZE
  6
CONTINUOUS
 62
    30
 10
-30.012505210504401
 20
230.4142564590945
 30
0.0
 40
6.0
  0
LINE
  8
SIZE
  6
CONTINUOUS
 62
    30
 10
-30.012505210504401
 20
230.4142564590945
 30
0.0
 11
-42.012505210504401
 21
230.4142564590945
 31
0.0
  0
CIRCLE
  8
SIZE
  6
CONTINUOUS
 62
    30
 10
0.0
 20
230.4142564590945
 30
0.0
 40
6.0
  0
LINE
  8
SIZE
  6
CONTINUOUS
 62
    30
 10
0.0
 20
230.4142564590945
 30
0.0
 11
12.0
 21
230.4142564590945
 31
0.0
  0
TEXT
  8
SIZE
  6
CONTINUOUS
 62
    30
 10
127.9842207062697
 20
255.4142564590945
 30
0.0
 40
64.0
  1
30
 41
0.9
 72
     1
 11
174.6127921348411
 21
255.4142564590945
 31
0.0
  0
LINE
  8
SIZE
  6
CONTINUOUS
 62
    30
 10
0.0
 20
172.5
 30
0.0
 11
0.0
 21
510.71955313438713
 31
0.0
  0
LINE
  8
SIZE
  6
CONTINUOUS
 62
    30
 10
-90.037515631513202
 20
144.3299772416037
 30
0.0
 11
-90.037515631513202
 21
510.71955313438713
 31
0.0
  0
LINE
  8
SIZE
  6
CONTINUOUS
 62
    30
 10
12.0
 20
490.71955313438713
 30
0.0
 11
24.0
 21
490.71955313438713
 31
0.0
  0
LINE
  8
SIZE
  6
CONTINUOUS
 62
    30
 10
-102.0375156315132
 20
490.71955313438713
 30
0.0
 11
-114.0375156315132
 21
490.71955313438713
 31
0.0
  0
LINE
  8
SIZE
  6
CONTINUOUS
 62
    30
 10
0.0
 20
490.71955313438713
 30
0.0
 11
-90.037515631513202
 21
490.71955313438713
 31
0.0
  0
CIRCLE
  8
SIZE
  6
CONTINUOUS
 62
    30
 10
0.0
 20
490.71955313438713
 30
0.0
 40
6.0
  0
LINE
  8
SIZE
  6
CONTINUOUS
 62
    30
 10
0.0
 20
490.71955313438713
 30
0.0
 11
12.0
 21
490.71955313438713
 31
0.0
  0
CIRCLE
  8
SIZE
  6
CONTINUOUS
 62
    30
 10
-90.037515631513202
 20
490.71955313438713
 30
0.0
 40
6.0
  0
LINE
  8
SIZE
  6
CONTINUOUS
 62
    30
 10
-90.037515631513202
 20
490.71955313438713
 30
0.0
 11
-102.0375156315132
 21
490.71955313438713
 31
0.0
  0
TEXT
  8
SIZE
  6
CONTINUOUS
 62
    30
 10
-91.647329244327977
 20
515.71955313438718
 30
0.0
 40
64.0
  1
90
 41
0.9
 72
     1
 11
-45.018757815756537
 21
515.71955313438718
 31
0.0
  0
LINE
  8
SIZE
  6
CONTINUOUS
 62
    30
 10
-90.037515631513202
 20
139.77272612905381
 30
0.0
 11
-90.037515631513202
 21
510.71955313438713
 31
0.0
  0
LINE
  8
SIZE
  6
CONTINUOUS
 62
    30
 10
-142.10533501495161
 20
104.3195221691675
 30
0.0
 11
-142.10533501495149
 21
510.71955313438713
 31
0.0
  0
LINE
  8
SIZE
  6
CONTINUOUS
 62
    30
 10
-78.037515631513202
 20
490.71955313438713
 30
0.0
 11
-66.037515631513202
 21
490.71955313438713
 31
0.0
  0
LINE
  8
SIZE
  6
CONTINUOUS
 62
    30
 10
-154.10533501495149
 20
490.71955313438713
 30
0.0
 11
-309.36247787209442
 21
490.71955313438713
 31
0.0
  0
LINE
  8
SIZE
  6
CONTINUOUS
 62
    30
 10
-90.037515631513202
 20
490.71955313438713
 30
0.0
 11
-142.10533501495149
 21
490.71955313438713
 31
0.0
  0
CIRCLE
  8
SIZE
  6
CONTINUOUS
 62
    30
 10
-90.037515631513202
 20
490.71955313438713
 30
0.0
 40
6.0
  0
LINE
  8
SIZE
  6
CONTINUOUS
 62
    30
 10
-90.037515631513202
 20
490.71955313438713
 30
0.0
 11
-78.037515631513202
 21
490.71955313438713
 31
0.0
  0
CIRCLE
  8
SIZE
  6
CONTINUOUS
 62
    30
 10
-142.10533501495149
 20
490.71955313438713
 30
0.0
 40
6.0
  0
LINE
  8
SIZE
  6
CONTINUOUS
 62
    30
 10
-142.10533501495149
 20
490.71955313438713
 30
0.0
 11
-154.10533501495149
 21
490.71955313438713
 31
0.0
  0
TEXT
  8
SIZE
  6
CONTINUOUS
 62
    30
 10
-284.36247787209442
 20
515.71955313438718
 30
0.0
 40
64.0
  1
52
 41
0.9
 72
     1
 11
-237.73390644352301
 21
515.71955313438718
 31
0.0
  0
LINE
  8
SIZE
  6
CONTINUOUS
 62
    30
 10
-19.49127379679976
 20
147.79112015104991
 30
0.0
 11
-499.54810992685219
 21
147.79112015105
 31
0.0
  0
LINE
  8
SIZE
  6
CONTINUOUS
 62
    30
 10
-19.49127379678055
 20
-147.79112015114961
 30
0.0
 11
-499.54810992685242
 21
-147.79112015114941
 31
0.0
  0
LINE
  8
SIZE
  6
CONTINUOUS
 62
    30
 10
-479.54810992685219
 20
135.79112015105
 30
0.0
 11
-479.54810992685242
 21
-135.79112015114941
 31
0.0
  0
CIRCLE
  8
SIZE
  6
CONTINUOUS
 62
    30
 10
-479.54810992685219
 20
147.79112015105
 30
0.0
 40
6.0
  0
LINE
  8
SIZE
  6
CONTINUOUS
 62
    30
 10
-479.54810992685219
 20
147.79112015105
 30
0.0
 11
-479.54810992685219
 21
135.79112015105
 31
0.0
  0
CIRCLE
  8
SIZE
  6
CONTINUOUS
 62
    30
 10
-479.54810992685242
 20
-147.79112015114941
 30
0.0
 40
6.0
  0
LINE
  8
SIZE
  6
CONTINUOUS
 62
    30
 10
-479.54810992685242
 20
-147.79112015114941
 30
0.0
 11
-479.54810992685242
 21
-135.79112015114941
 31
0.0
  0
TEXT
  8
SIZE
  6
CONTINUOUS
 62
    30
 10
-504.54810992685219
 20
-115.88615841455039
 30
0.0
 40
64.0
  1
□296
 50
90.0
 41
0.9
 72
     1
 11
-504.54810992685219
 21
-6.7204441288361068
 31
0.0
  0
LINE
  8
SIZE
  6
CONTINUOUS
 62
    30
 10
-110.0375156315132
 20
119.77272612905379
 30
0.0
 11
-245.8566734859082
 21
119.77272612905389
 31
0.0
  0
LINE
  8
SIZE
  6
CONTINUOUS
 62
    30
 10
-110.0375156315132
 20
-119.77272612905379
 30
0.0
 11
-245.85667348590829
 21
-119.77272612905369
 31
0.0
  0
LINE
  8
SIZE
  6
CONTINUOUS
 62
    30
 10
-225.8566734859082
 20
107.77272612905389
 30
0.0
 11
-225.85667348590829
 21
-107.77272612905369
 31
0.0
  0
CIRCLE
  8
SIZE
  6
CONTINUOUS
 62
    30
 10
-225.8566734859082
 20
119.77272612905389
 30
0.0
 40
6.0
  0
LINE
  8
SIZE
  6
CONTINUOUS
 62
    30
 10
-225.8566734859082
 20
119.77272612905389
 30
0.0
 11
-225.8566734859082
 21
107.77272612905389
 31
0.0
  0
CIRCLE
  8
SIZE
  6
CONTINUOUS
 62
    30
 10
-225.85667348590829
 20
-119.77272612905369
 30
0.0
 40
6.0
  0
LINE
  8
SIZE
  6
CONTINUOUS
 62
    30
 10
-225.85667348590829
 20
-119.77272612905369
 30
0.0
 11
-225.85667348590829
 21
-107.77272612905369
 31
0.0
  0
TEXT
  8
SIZE
  6
CONTINUOUS
 62
    30
 10
-250.8566734859082
 20
-110.5371428571428
 30
0.0
 40
64.0
  1
□240
 50
90.0
 41
0.9
 72
     1
 11
-250.8566734859082
 21
0.0000000000000284
 31
0.0
  0
LINE
  8
SIZE
  6
CONTINUOUS
 62
    30
 10
126.8000000000002
 20
156.99999999994981
 30
0.0
 11
300.62195210448817
 21
156.99999999994969
 31
0.0
  0
LINE
  8
SIZE
  6
CONTINUOUS
 62
    30
 10
126.8000000000002
 20
-157.50000000005019
 30
0.0
 11
300.62195210448812
 21
-157.50000000005031
 31
0.0
  0
LINE
  8
SIZE
  6
CONTINUOUS
 62
    30
 10
280.62195210448817
 20
144.99999999994969
 30
0.0
 11
280.62195210448817
 21
-145.50000000005031
 31
0.0
  0
CIRCLE
  8
SIZE
  6
CONTINUOUS
 62
    30
 10
280.62195210448817
 20
156.99999999994969
 30
0.0
 40
6.0
  0
LINE
  8
SIZE
  6
CONTINUOUS
 62
    30
 10
280.62195210448817
 20
156.99999999994969
 30
0.0
 11
280.62195210448817
 21
144.99999999994969
 31
0.0
  0
CIRCLE
  8
SIZE
  6
CONTINUOUS
 62
    30
 10
280.62195210448817
 20
-157.50000000005031
 30
0.0
 40
6.0
  0
LINE
  8
SIZE
  6
CONTINUOUS
 62
    30
 10
280.62195210448817
 20
-157.50000000005031
 30
0.0
 11
280.62195210448817
 21
-145.50000000005031
 31
0.0
  0
TEXT
  8
SIZE
  6
CONTINUOUS
 62
    30
 10
255.6219521044882
 20
-105.30142857147879
 30
0.0
 40
64.0
  1
□315
 50
90.0
 41
0.9
 72
     1
 11
255.6219521044882
 21
-0.2500000000502212
 31
0.0
  0
LINE
  8
NOTE
  6
CONTINUOUS
 62
     4
 10
11.5404737321096
 20
-100.0
 30
0.0
 11
-11.5404737321096
 21
-100.0
 31
0.0
  0
LINE
  8
NOTE
  6
CONTINUOUS
 62
     4
 10
-5.0828666737598951
 20
-103.57059738234101
 30
0.0
 11
0.0
 21
-100.0
 31
0.0
  0
LINE
  8
NOTE
  6
CONTINUOUS
 62
     4
 10
0.0
 20
-100.0
 30
0.0
 11
-2.616584482741132
 21
-105.63366531972549
 31
0.0
  0
LINE
  8
NOTE
  6
CONTINUOUS
 62
     4
 10
0.0
 20
-100.0
 30
0.0
 11
-7.6994511565011408
 21
-109.2042627020666
 31
0.0
  0
LINE
  8
NOTE
  6
CONTINUOUS
 62
     4
 10
-7.6994511565011408
 20
-109.2042627020666
 30
0.0
 11
-128.35733636626159
 21
-251.36985243345759
 31
0.0
  0
LINE
  8
NOTE
  6
CONTINUOUS
 62
     4
 10
-128.35733636626159
 20
-251.36985243345759
 30
0.0
 11
-250.385907794833
 21
-251.36985243345759
 31
0.0
  0
TEXT
  8
NOTE
  6
CONTINUOUS
 62
     4
 10
-244.02685506958269
 20
-240.8066267282461
 30
0.0
 40
64.0
  1
EL
 41
0.9
 72
     2
 11
-158.99828364101131
 21
-240.8066267282461
 31
0.0
  0
LINE
  8
SIZE
  6
CONTINUOUS
 62
    30
 10
-40.0
 20
132.49999999999989
 30
0.0
 11
-381.87624929228639
 21
132.5
 31
0.0
  0
LINE
  8
SIZE
  6
CONTINUOUS
 62
    30
 10
-40.0
 20
-132.49999999999989
 30
0.0
 11
-381.8762492922865
 21
-132.4999999999998
 31
0.0
  0
LINE
  8
SIZE
  6
CONTINUOUS
 62
    30
 10
-361.8762492922865
 20
120.5
 30
0.0
 11
-361.8762492922865
 21
-120.4999999999998
 31
0.0
  0
CIRCLE
  8
SIZE
  6
CONTINUOUS
 62
    30
 10
-361.87624929228639
 20
132.5
 30
0.0
 40
6.0
  0
LINE
  8
SIZE
  6
CONTINUOUS
 62
    30
 10
-361.87624929228639
 20
132.5
 30
0.0
 11
-361.87624929228639
 21
120.5
 31
0.0
  0
CIRCLE
  8
SIZE
  6
CONTINUOUS
 62
    30
 10
-361.8762492922865
 20
-132.4999999999998
 30
0.0
 40
6.0
  0
LINE
  8
SIZE
  6
CONTINUOUS
 62
    30
 10
-361.8762492922865
 20
-132.4999999999998
 30
0.0
 11
-361.8762492922865
 21
-120.4999999999998
 31
0.0
  0
TEXT
  8
SIZE
  6
CONTINUOUS
 62
    30
 10
-386.8762492922865
 20
-72.263526458286748
 30
0.0
 40
64.0
  1
265
 50
90.0
 41
0.9
 72
     1
 11
-386.8762492922865
 21
1.793616398856102
 31
0.0
  0
LINE
  8
OUTLINE
  6
CONTINUOUS
 62
     3
 10
36.000002000532049
 20
141.9826972630612
 30
0.0
 11
36.0
 21
146.1889203994499
 31
0.0
  0
TEXT
  8
ETC
  6
CONTINUOUS
 62
    61
 10
368.27115862522811
 20
528.04172706744657
 30
0.0
 40
64.0
  1
EX-20EX9-C_5
 41
0.9
  0
TEXT
  8
ETC
  6
CONTINUOUS
 62
    61
 10
364.08516462522772
 20
410.08641705261539
 30
0.0
 40
64.0
  1
換気扇
 41
0.9
  0
TEXT
  8
ETC
  6
CONTINUOUS
 62
    61
 10
414.78656287378362
 20
301.9376441663901
 30
0.0
 40
40.0
  1
EX-20EX9-C
 50
0.0
 41
0.9
 51
0.0
  7
STANDARD
 71
     0
 11
0.0
 21
0.0
 31
0.0
210
0.0
220
0.0
230
1.0
  0
TEXT
  8
ETC
  6
CONTINUOUS
 62
    61
 10
414.78656287378362
 20
235.9376441663901
 30
0.0
 40
40.0
  1
EX-20LX9-C
 50
0.0
 41
0.9
 51
0.0
  7
STANDARD
 71
     0
 11
0.0
 21
0.0
 31
0.0
210
0.0
220
0.0
230
1.0
  0
ENDSEC
  0
EOF
