  0
SECTION
  2
HEADER
  9
$ACADVER
  1
AC1009
  9
$INSBASE
 10
0.0
 20
0.0
 30
0.0
  9
$EXTMIN
 10
-452.55883899999998
 20
-310.22733199999999
 30
0.0
  9
$EXTMAX
 10
972.16245556148272
 20
534.49355346427262
 30
50.0
  9
$LIMMIN
 10
-2970.0
 20
-2100.0
  9
$LIMMAX
 10
2970.0
 20
2100.0
  9
$ORTHOMODE
 70
     0
  9
$REGENMODE
 70
     0
  9
$FILLMODE
 70
     1
  9
$QTEXTMODE
 70
     0
  9
$MIRRTEXT
 70
     0
  9
$DRAGMODE
 70
     2
  9
$LTSCALE
 40
20.0
  9
$OSMODE
 70
   171
  9
$ATTMODE
 70
     1
  9
$TEXTSIZE
 40
64.0
  9
$TRACEWID
 40
0.05
  9
$TEXTSTYLE
  7
STANDARD
  9
$CLAYER
  8
SIZE
  9
$CELTYPE
  6
CONTINUOUS
  9
$CECOLOR
 62
     8
  9
$DIMSCALE
 40
1.0
  9
$DIMASZ
 40
12.0
  9
$DIMEXO
 40
20.0
  9
$DIMDLI
 40
200.0
  9
$DIMRND
 40
0.0
  9
$DIMDLE
 40
0.0
  9
$DIMEXE
 40
20.0
  9
$DIMTP
 40
0.0
  9
$DIMTM
 40
0.0
  9
$DIMTXT
 40
64.0
  9
$DIMCEN
 40
0.09
  9
$DIMTSZ
 40
0.0
  9
$DIMTOL
 70
     0
  9
$DIMLIM
 70
     0
  9
$DIMTIH
 70
     0
  9
$DIMTOH
 70
     0
  9
$DIMSE1
 70
     0
  9
$DIMSE2
 70
     0
  9
$DIMTAD
 70
     1
  9
$DIMZIN
 70
     8
  9
$DIMBLK
  1
DOT1
  9
$DIMASO
 70
     1
  9
$DIMSHO
 70
     0
  9
$DIMPOST
  1

  9
$DIMAPOST
  1

  9
$DIMALT
 70
     0
  9
$DIMALTD
 70
     2
  9
$DIMALTF
 40
25.399999999999999
  9
$DIMLFAC
 40
1.0
  9
$DIMTOFL
 70
     1
  9
$DIMTVP
 40
0.0
  9
$DIMTIX
 70
     1
  9
$DIMSOXD
 70
     0
  9
$DIMSAH
 70
     1
  9
$DIMBLK1
  1
ORIGIN
  9
$DIMBLK2
  1
ORIGIN
  9
$DIMSTYLE
  2
STANDARD
  9
$DIMCLRD
 70
     0
  9
$DIMCLRE
 70
     0
  9
$DIMCLRT
 70
     0
  9
$DIMTFAC
 40
1.0
  9
$DIMGAP
 40
0.09
  9
$LUNITS
 70
     2
  9
$LUPREC
 70
     4
  9
$SKETCHINC
 40
0.1
  9
$FILLETRAD
 40
15.0
  9
$AUNITS
 70
     1
  9
$AUPREC
 70
     3
  9
$MENU
  1
ACAD
  9
$ELEVATION
 40
0.0
  9
$PELEVATION
 40
0.0
  9
$THICKNESS
 40
50.0
  9
$LIMCHECK
 70
     0
  9
$BLIPMODE
 70
     0
  9
$CHAMFERA
 40
0.0
  9
$CHAMFERB
 40
0.0
  9
$SKPOLY
 70
     0
  9
$TDCREATE
 40
2451453.4938508091
  9
$TDUPDATE
 40
2453761.6510989931
  9
$TDINDWG
 40
0.7639415509
  9
$TDUSRTIMER
 40
0.7639415509
  9
$USRTIMER
 70
     1
  9
$ANGBASE
 50
0.0
  9
$ANGDIR
 70
     0
  9
$PDMODE
 70
     3
  9
$PDSIZE
 40
-2.0
  9
$PLINEWID
 40
0.0
  9
$COORDS
 70
     2
  9
$SPLFRAME
 70
     0
  9
$SPLINETYPE
 70
     6
  9
$SPLINESEGS
 70
     8
  9
$ATTDIA
 70
     0
  9
$ATTREQ
 70
     1
  9
$HANDLING
 70
 22529
  9
$HANDSEED
  5
101
  9
$SURFTAB1
 70
     6
  9
$SURFTAB2
 70
     6
  9
$SURFTYPE
 70
     6
  9
$SURFU
 70
     6
  9
$SURFV
 70
     6
  9
$UCSNAME
  2

  9
$UCSORG
 10
0.0
 20
0.0
 30
0.0
  9
$UCSXDIR
 10
1.0
 20
0.0
 30
0.0
  9
$UCSYDIR
 10
0.0
 20
1.0
 30
0.0
  9
$PUCSNAME
  2

  9
$PUCSORG
 10
0.0
 20
0.0
 30
0.0
  9
$PUCSXDIR
 10
1.0
 20
0.0
 30
0.0
  9
$PUCSYDIR
 10
0.0
 20
1.0
 30
0.0
  9
$USERI1
 70
     0
  9
$USERI2
 70
     0
  9
$USERI3
 70
     0
  9
$USERI4
 70
     0
  9
$USERI5
 70
     0
  9
$USERR1
 40
20.0
  9
$USERR2
 40
0.0
  9
$USERR3
 40
0.0
  9
$USERR4
 40
0.0
  9
$USERR5
 40
0.0
  9
$WORLDVIEW
 70
     1
  9
$SHADEDGE
 70
     3
  9
$SHADEDIF
 70
    70
  9
$TILEMODE
 70
     1
  9
$MAXACTVP
 70
    64
  9
$PLIMCHECK
 70
     0
  9
$PEXTMIN
 10
1.0000000000000000E+020
 20
1.0000000000000000E+020
 30
1.0000000000000000E+020
  9
$PEXTMAX
 10
-1.0000000000000000E+020
 20
-1.0000000000000000E+020
 30
-1.0000000000000000E+020
  9
$PLIMMIN
 10
0.0
 20
0.0
  9
$PLIMMAX
 10
12.0
 20
9.0
  9
$UNITMODE
 70
     0
  9
$VISRETAIN
 70
     1
  9
$PLINEGEN
 70
     0
  9
$PSLTSCALE
 70
     1
  0
ENDSEC
  0
SECTION
  2
TABLES
  0
TABLE
  2
VPORT
 70
     4
  0
VPORT
  2
*ACTIVE
 70
     0
 10
0.0
 20
0.0
 11
1.0
 21
1.0
 12
44.735694240797329
 22
151.60236679388899
 13
0.0
 23
0.0
 14
1.0
 24
1.0
 15
0.0
 25
0.0
 16
0.0
 26
0.0
 36
1.0
 17
0.0
 27
0.0
 37
0.0
 40
1866.123570479034
 41
1.4423558897243101
 42
50.0
 43
0.0
 44
0.0
 50
0.0
 51
0.0
 71
     0
 72
   100
 73
     1
 74
     0
 75
     0
 76
     0
 77
     0
 78
     0
  0
ENDTAB
  0
TABLE
  2
LTYPE
 70
     2
  0
LTYPE
  2
CONTINUOUS
 70
     0
  3
実線
 72
    65
 73
     0
 40
0.0
  0
LTYPE
  2
DASHDOT
 70
     0
  3
____ _ ____ _ ____ _ ____ _ ____ _ ____ _ ____
 72
    65
 73
     4
 40
5.5
 49
4.0
 49
-0.6
 49
0.3
 49
-0.6
  0
ENDTAB
  0
TABLE
  2
LAYER
 70
    12
  0
LAYER
  2
0
 70
     0
 62
     7
  6
CONTINUOUS
  0
LAYER
  2
SIZE
 70
     0
 62
    30
  6
CONTINUOUS
  0
LAYER
  2
BASIS
 70
     0
 62
     6
  6
DASHDOT
  0
LAYER
  2
OUTLINE
 70
     0
 62
     3
  6
CONTINUOUS
  0
LAYER
  2
DETAIL
 70
     0
 62
     5
  6
CONTINUOUS
  0
LAYER
  2
ARRANGE
 70
     0
 62
     1
  6
CONTINUOUS
  0
LAYER
  2
DEFPOINTS
 70
     0
 62
     7
  6
CONTINUOUS
  0
LAYER
  2
ETC
 70
     0
 62
    61
  6
CONTINUOUS
  0
LAYER
  2
FIX
 70
     0
 62
    11
  6
CONTINUOUS
  0
LAYER
  2
NOTE
 70
     0
 62
     4
  6
CONTINUOUS
  0
LAYER
  2
SERVICESPACE
 70
     0
 62
     2
  6
DASHDOT
  0
LAYER
  2
SYMBOLLINE
 70
     0
 62
    15
  6
CONTINUOUS
  0
ENDTAB
  0
TABLE
  2
STYLE
 70
     1
  0
STYLE
  2
STANDARD
 70
     0
 40
64.0
 41
0.9
 50
0.0
 71
     0
 42
64.0
  3
SIMPLEX.shx
  4
BIGFONT.shx
  0
ENDTAB
  0
TABLE
  2
VIEW
 70
     1
  0
VIEW
  2
ALL
 70
     0
 40
4282.6198079999986
 10
0.0
 20
41.309903999999989
 41
5940.0
 11
0.0
 21
0.0
 31
1.0
 12
0.0
 22
0.0
 32
0.0
 42
50.0
 43
0.0
 44
0.0
 50
0.0
 71
     0
  0
ENDTAB
  0
TABLE
  2
UCS
 70
     0
  0
ENDTAB
  0
TABLE
  2
APPID
 70
     1
  0
APPID
  2
ACAD
 70
     0
  0
ENDTAB
  0
TABLE
  2
DIMSTYLE
 70
     1
  0
DIMSTYLE
  2
STANDARD
 70
     0
  3

  4

  5

  6

  7

 40
1.0
 41
0.18
 42
0.0625
 43
0.38
 44
0.18
 45
0.0
 46
0.0
 47
0.0
 48
0.0
140
0.18
141
0.09
142
0.0
143
25.399999999999999
144
1.0
145
0.0
146
1.0
147
0.09
 71
     0
 72
     0
 73
     1
 74
     1
 75
     0
 76
     0
 77
     0
 78
     0
170
     0
171
     2
172
     0
173
     0
174
     0
175
     0
176
     0
177
     0
178
     0
  0
ENDTAB
  0
ENDSEC
  0
SECTION
  2
BLOCKS
  0
BLOCK
  8
0
  2
$MODEL_SPACE
 70
     0
 10
0.0
 20
0.0
 30
0.0
  3
$MODEL_SPACE
  1

  0
ENDBLK
  5
20
  8
0
  0
BLOCK
 67
     1
  8
0
  2
$PAPER_SPACE
 70
     0
 10
0.0
 20
0.0
 30
0.0
  3
$PAPER_SPACE
  1

  0
ENDBLK
  5
1C
 67
     1
  8
0
  0
BLOCK
  8
0
  2
DOT1
 70
     0
 10
0.0
 20
0.0
 30
0.0
  3
DOT1
  1

  0
CIRCLE
  5
34
  8
SIZE
  6
CONTINUOUS
 62
     7
 10
0.0
 20
0.0
 30
0.0
 40
3.0
  0
ENDBLK
  5
35
  8
0
  0
BLOCK
  8
0
  2
_ORIGIN
 70
     0
 10
0.0
 20
0.0
 30
0.0
  3
_ORIGIN
  1

  0
CIRCLE
  5
38
  8
0
  6
CONTINUOUS
 62
     7
 10
0.0
 20
0.0
 30
0.0
 40
0.5
  0
LINE
  5
39
  8
0
  6
CONTINUOUS
 62
     7
 10
0.0
 20
0.0
 30
0.0
 11
-1.0
 21
0.0
 31
0.0
  0
ENDBLK
  5
3A
  8
0
  0
ENDSEC
  0
SECTION
  2
ENTITIES
  0
TEXT
  5
3B
  8
ETC
  6
CONTINUOUS
 62
    61
 10
315.109193
 20
470.4935534642724
 30
0.0
 40
64.0
  1
EX-20LP5_1
 41
0.9
  0
TEXT
  5
3C
  8
ETC
  6
CONTINUOUS
 62
    61
 10
307.03571499999993
 20
372.47482846427238
 30
0.0
 40
64.0
  1
換気扇
 41
0.9
  0
LINE
  5
3D
  8
BASIS
  6
DASHDOT
 62
     6
 10
0.0
 20
-129.42241000000001
 30
0.0
 11
0.0
 21
178.75115099999991
 31
0.0
  0
POINT
  5
3E
  8
ARRANGE
  6
CONTINUOUS
 62
     1
 10
0.0
 20
0.0
 30
0.0
 39
50.0
  0
CIRCLE
  5
3F
  8
ARRANGE
  6
CONTINUOUS
 62
     1
 39
50.0
 10
0.0
 20
0.0
 30
0.0
 40
40.0
  0
LINE
  5
40
  8
DETAIL
  6
CONTINUOUS
 62
     5
 10
-120.0
 20
120.0
 30
0.0
 11
-120.0
 21
0.0
 31
0.0
  0
LINE
  5
41
  8
DETAIL
  6
CONTINUOUS
 62
     5
 10
-120.0
 20
120.0
 30
0.0
 11
120.0
 21
120.0
 31
0.0
  0
LINE
  5
42
  8
DETAIL
  6
CONTINUOUS
 62
     5
 10
120.0
 20
120.0
 30
0.0
 11
120.0
 21
0.0
 31
0.0
  0
CIRCLE
  5
43
  8
FIX
  6
CONTINUOUS
 62
    11
 39
50.0
 10
-60.0
 20
0.0
 30
0.0
 40
2.5
  0
LINE
  5
44
  8
NOTE
  6
CONTINUOUS
 62
     4
 10
-80.0
 20
0.0
 30
0.0
 11
-40.0
 21
0.0
 31
0.0
  0
LINE
  5
45
  8
NOTE
  6
CONTINUOUS
 62
     4
 10
-60.0
 20
-20.0
 30
0.0
 11
-60.0
 21
20.0
 31
0.0
  0
CIRCLE
  5
46
  8
FIX
  6
CONTINUOUS
 62
    11
 39
50.0
 10
60.0
 20
0.0
 30
0.0
 40
2.5
  0
LINE
  5
47
  8
NOTE
  6
CONTINUOUS
 62
     4
 10
40.0
 20
0.0
 30
0.0
 11
80.0
 21
0.0
 31
0.0
  0
LINE
  5
48
  8
NOTE
  6
CONTINUOUS
 62
     4
 10
60.0
 20
-20.0
 30
0.0
 11
60.0
 21
20.0
 31
0.0
  0
LINE
  5
49
  8
SIZE
  6
CONTINUOUS
 62
    30
 10
-120.0
 20
140.0
 30
0.0
 11
-120.0
 21
352.075154
 31
0.0
  0
LINE
  5
4A
  8
SIZE
  6
CONTINUOUS
 62
    30
 10
120.0
 20
140.0
 30
0.0
 11
120.0
 21
352.075154
 31
0.0
  0
LINE
  5
4B
  8
SIZE
  6
CONTINUOUS
 62
    30
 10
-132.0
 20
332.07515399999988
 30
0.0
 11
-144.0
 21
332.07515399999988
 31
0.0
  0
LINE
  5
4C
  8
SIZE
  6
CONTINUOUS
 62
    30
 10
132.0
 20
332.07515399999988
 30
0.0
 11
144.0
 21
332.07515399999988
 31
0.0
  0
LINE
  5
4D
  8
SIZE
  6
CONTINUOUS
 62
    30
 10
-120.0
 20
332.07515399999988
 30
0.0
 11
120.0
 21
332.07515399999988
 31
0.0
  0
CIRCLE
  5
4E
  8
SIZE
  6
CONTINUOUS
 62
    30
 10
-120.0
 20
332.07515399999988
 30
0.0
 40
6.0
  0
LINE
  5
4F
  8
SIZE
  6
CONTINUOUS
 62
    30
 10
-120.0
 20
332.07515399999988
 30
0.0
 11
-132.0
 21
332.07515399999988
 31
0.0
  0
CIRCLE
  5
50
  8
SIZE
  6
CONTINUOUS
 62
    30
 10
120.0
 20
332.07515399999988
 30
0.0
 40
6.0
  0
LINE
  5
51
  8
SIZE
  6
CONTINUOUS
 62
    30
 10
120.0
 20
332.07515399999988
 30
0.0
 11
132.0
 21
332.07515399999988
 31
0.0
  0
TEXT
  5
52
  8
SIZE
  6
CONTINUOUS
 62
    30
 10
-110.5371428571428
 20
357.07515399999988
 30
0.0
 40
64.0
  1
□240
 41
0.9
 72
     1
 11
0.0
 21
357.07515399999988
 31
0.0
  0
POINT
  5
53
  8
DEFPOINTS
  6
CONTINUOUS
 62
    30
 10
-120.0
 20
120.0
 30
0.0
  0
POINT
  5
54
  8
DEFPOINTS
  6
CONTINUOUS
 62
    30
 10
120.0
 20
120.0
 30
0.0
  0
POINT
  5
55
  8
DEFPOINTS
  6
CONTINUOUS
 62
    30
 10
120.0
 20
332.07515399999988
 30
0.0
  0
LINE
  5
56
  8
SIZE
  6
CONTINUOUS
 62
    30
 10
-168.0
 20
0.0
 30
0.0
 11
-383.55883899999998
 21
0.0
 31
0.0
  0
LINE
  5
57
  8
SIZE
  6
CONTINUOUS
 62
    30
 10
-140.0
 20
120.0
 30
0.0
 11
-383.55883899999998
 21
120.0
 31
0.0
  0
LINE
  5
58
  8
SIZE
  6
CONTINUOUS
 62
    30
 10
-363.55883899999998
 20
-12.0
 30
0.0
 11
-363.55883899999998
 21
-24.0
 31
0.0
  0
LINE
  5
59
  8
SIZE
  6
CONTINUOUS
 62
    30
 10
-363.55883899999998
 20
132.0
 30
0.0
 11
-363.55883899999998
 21
144.0
 31
0.0
  0
LINE
  5
5A
  8
SIZE
  6
CONTINUOUS
 62
    30
 10
-363.55883899999998
 20
0.0
 30
0.0
 11
-363.55883899999998
 21
120.0
 31
0.0
  0
CIRCLE
  5
5B
  8
SIZE
  6
CONTINUOUS
 62
    30
 10
-363.55883899999998
 20
0.0
 30
0.0
 40
6.0
  0
LINE
  5
5C
  8
SIZE
  6
CONTINUOUS
 62
    30
 10
-363.55883899999998
 20
0.0
 30
0.0
 11
-363.55883899999998
 21
-12.0
 31
0.0
  0
CIRCLE
  5
5D
  8
SIZE
  6
CONTINUOUS
 62
    30
 10
-363.55883899999998
 20
120.0
 30
0.0
 40
6.0
  0
LINE
  5
5E
  8
SIZE
  6
CONTINUOUS
 62
    30
 10
-363.55883899999998
 20
120.0
 30
0.0
 11
-363.55883899999998
 21
132.0
 31
0.0
  0
TEXT
  5
5F
  8
SIZE
  6
CONTINUOUS
 62
    30
 10
-388.55883899999998
 20
-8.5714285714285694
 30
0.0
 40
64.0
  1
120
 50
90.0
 41
0.9
 72
     1
 11
-388.55883899999998
 21
60.0
 31
0.0
  0
POINT
  5
60
  8
DEFPOINTS
  6
CONTINUOUS
 62
    30
 10
-148.0
 20
0.0
 30
0.0
  0
POINT
  5
61
  8
DEFPOINTS
  6
CONTINUOUS
 62
    30
 10
-120.0
 20
120.0
 30
0.0
  0
POINT
  5
62
  8
DEFPOINTS
  6
CONTINUOUS
 62
    30
 10
-363.55883899999998
 20
120.0
 30
0.0
  0
LINE
  5
63
  8
NOTE
  6
CONTINUOUS
 62
     4
 39
50.0
 10
60.0
 20
0.0
 30
0.0
 11
194.64531899999989
 21
115.24136299999989
 31
0.0
  0
LINE
  5
64
  8
NOTE
  6
CONTINUOUS
 62
     4
 39
50.0
 10
456.00480599999992
 20
115.24136299999989
 30
0.0
 11
194.64531899999989
 21
115.24136299999989
 31
0.0
  0
TEXT
  5
65
  8
NOTE
  6
CONTINUOUS
 62
     4
 10
204.85892100000001
 20
138.42816199999999
 30
0.0
 40
64.0
  1
4-φ5
 41
0.9
  0
LINE
  5
66
  8
NOTE
  6
CONTINUOUS
 62
     4
 10
96.196984
 20
17.02287699999999
 30
0.0
 11
60.0
 21
0.0
 31
0.0
  0
LINE
  5
67
  8
NOTE
  6
CONTINUOUS
 62
     4
 10
60.0
 20
0.0
 30
0.0
 11
82.836068999999995
 21
32.840736
 31
0.0
  0
LINE
  5
68
  8
SIZE
  6
CONTINUOUS
 62
    30
 10
-168.0
 20
0.0
 30
0.0
 11
-383.55883899999998
 21
0.0
 31
0.0
  0
LINE
  5
69
  8
SIZE
  6
CONTINUOUS
 62
    30
 10
-165.2996399999999
 20
-45.0
 30
0.0
 11
-383.55883899999998
 21
-45.0
 31
0.0
  0
LINE
  5
6A
  8
SIZE
  6
CONTINUOUS
 62
    30
 10
-363.55883899999998
 20
12.0
 30
0.0
 11
-363.55883899999998
 21
24.0
 31
0.0
  0
LINE
  5
6B
  8
SIZE
  6
CONTINUOUS
 62
    30
 10
-363.55883899999998
 20
-57.0
 30
0.0
 11
-363.55883899999998
 21
-69.0
 31
0.0
  0
LINE
  5
6C
  8
SIZE
  6
CONTINUOUS
 62
    30
 10
-363.55883899999998
 20
-233.91829799999991
 30
0.0
 11
-363.55883899999998
 21
-45.0
 31
0.0
  0
TEXT
  5
6D
  8
SIZE
  6
CONTINUOUS
 62
    30
 10
-388.55883899999998
 20
-208.91829742857129
 30
0.0
 40
64.0
  1
45
 50
90.0
 41
0.9
 72
     1
 11
-388.55883899999998
 21
-162.289726
 31
0.0
  0
LINE
  5
6E
  8
SIZE
  6
CONTINUOUS
 62
    30
 10
-363.55883899999998
 20
0.0
 30
0.0
 11
-363.55883899999998
 21
-45.0
 31
0.0
  0
LINE
  5
6F
  8
SIZE
  6
CONTINUOUS
 62
    30
 10
-363.55883899999998
 20
0.0
 30
0.0
 11
-363.55883899999998
 21
-45.0
 31
0.0
  0
CIRCLE
  5
70
  8
SIZE
  6
CONTINUOUS
 62
    30
 10
-363.55883899999998
 20
0.0
 30
0.0
 40
6.0
  0
LINE
  5
71
  8
SIZE
  6
CONTINUOUS
 62
    30
 10
-363.55883899999998
 20
0.0
 30
0.0
 11
-363.55883899999998
 21
12.0
 31
0.0
  0
CIRCLE
  5
72
  8
SIZE
  6
CONTINUOUS
 62
    30
 10
-363.55883899999998
 20
-45.0
 30
0.0
 40
6.0
  0
LINE
  5
73
  8
SIZE
  6
CONTINUOUS
 62
    30
 10
-363.55883899999998
 20
-45.0
 30
0.0
 11
-363.55883899999998
 21
-57.0
 31
0.0
  0
POINT
  5
74
  8
DEFPOINTS
  6
CONTINUOUS
 62
    30
 10
-148.0
 20
0.0
 30
0.0
  0
POINT
  5
75
  8
DEFPOINTS
  6
CONTINUOUS
 62
    30
 10
-145.2996399999999
 20
-45.0
 30
0.0
  0
POINT
  5
76
  8
DEFPOINTS
  6
CONTINUOUS
 62
    30
 10
-363.55883899999998
 20
-45.0
 30
0.0
  0
LINE
  5
77
  8
DETAIL
  6
CONTINUOUS
 62
     5
 10
146.817466
 20
-44.123682999999993
 30
0.0
 11
-146.817466
 21
-44.123682999999993
 31
0.0
  0
LINE
  5
78
  8
DETAIL
  6
CONTINUOUS
 62
     5
 10
147.09394099999989
 20
-30.299939999999999
 30
0.0
 11
-147.09394099999989
 21
-30.299939999999999
 31
0.0
  0
LINE
  5
79
  8
DETAIL
  6
CONTINUOUS
 62
     5
 10
147.40000000000001
 20
-30.0
 30
0.0
 11
-147.40000000000001
 21
-30.0
 31
0.0
  0
LINE
  5
7A
  8
DETAIL
  6
CONTINUOUS
 62
     5
 10
145.2996399999999
 20
-45.0
 30
0.0
 11
-145.2996399999999
 21
-45.0
 31
0.0
  0
LINE
  5
7B
  8
DETAIL
  6
CONTINUOUS
 62
     5
 10
148.0
 20
0.0
 30
0.0
 11
-148.0
 21
0.0
 31
0.0
  0
LINE
  5
7C
  8
DETAIL
  6
CONTINUOUS
 62
     5
 10
-145.2996399999999
 20
-45.0
 30
0.0
 11
-146.817466
 21
-44.123682999999993
 31
0.0
  0
LINE
  5
7D
  8
DETAIL
  6
CONTINUOUS
 62
     5
 10
-147.3999399999999
 20
-30.0
 30
0.0
 11
-147.09394099999989
 21
-30.299939999999999
 31
0.0
  0
LINE
  5
7E
  8
DETAIL
  6
CONTINUOUS
 62
     5
 10
-147.09394099999989
 20
-30.299939999999999
 30
0.0
 11
-146.817466
 21
-44.123682999999993
 31
0.0
  0
LINE
  5
7F
  8
DETAIL
  6
CONTINUOUS
 62
     5
 10
-147.3999399999999
 20
-30.0
 30
0.0
 11
-147.40000000000001
 21
-30.0
 31
0.0
  0
LINE
  5
80
  8
DETAIL
  6
CONTINUOUS
 62
     5
 10
-148.0
 20
0.0
 30
0.0
 11
-147.40000000000001
 21
-30.0
 31
0.0
  0
LINE
  5
81
  8
SIZE
  6
CONTINUOUS
 62
    30
 10
-148.0
 20
-20.0
 30
0.0
 11
-148.0
 21
-310.22733199999999
 31
0.0
  0
LINE
  5
82
  8
SIZE
  6
CONTINUOUS
 62
    30
 10
148.0
 20
-20.0
 30
0.0
 11
148.0
 21
-310.22733199999999
 31
0.0
  0
LINE
  5
83
  8
SIZE
  6
CONTINUOUS
 62
    30
 10
-136.0
 20
-290.22733199999988
 30
0.0
 11
136.0
 21
-290.22733199999988
 31
0.0
  0
CIRCLE
  5
84
  8
SIZE
  6
CONTINUOUS
 62
    30
 10
-148.0
 20
-290.22733199999988
 30
0.0
 40
6.0
  0
LINE
  5
85
  8
SIZE
  6
CONTINUOUS
 62
    30
 10
-148.0
 20
-290.22733199999988
 30
0.0
 11
-136.0
 21
-290.22733199999988
 31
0.0
  0
CIRCLE
  5
86
  8
SIZE
  6
CONTINUOUS
 62
    30
 10
148.0
 20
-290.22733199999988
 30
0.0
 40
6.0
  0
LINE
  5
87
  8
SIZE
  6
CONTINUOUS
 62
    30
 10
148.0
 20
-290.22733199999988
 30
0.0
 11
136.0
 21
-290.22733199999988
 31
0.0
  0
TEXT
  5
88
  8
SIZE
  6
CONTINUOUS
 62
    30
 10
-72.685714285714297
 20
-265.22733199999988
 30
0.0
 40
64.0
  1
296
 41
0.9
 72
     1
 11
0.0
 21
-265.22733199999988
 31
0.0
  0
POINT
  5
89
  8
DEFPOINTS
  6
CONTINUOUS
 62
    30
 10
-148.0
 20
0.0
 30
0.0
  0
POINT
  5
8A
  8
DEFPOINTS
  6
CONTINUOUS
 62
    30
 10
148.0
 20
0.0
 30
0.0
  0
POINT
  5
8B
  8
DEFPOINTS
  6
CONTINUOUS
 62
    30
 10
148.0
 20
-290.22733199999988
 30
0.0
  0
LINE
  5
8C
  8
OUTLINE
  6
CONTINUOUS
 62
     3
 10
120.0
 20
120.0
 30
0.0
 11
120.0
 21
0.0
 31
0.0
  0
LINE
  5
8D
  8
OUTLINE
  6
CONTINUOUS
 62
     3
 10
-120.0
 20
120.0
 30
0.0
 11
-120.0
 21
0.0
 31
0.0
  0
LINE
  5
8E
  8
OUTLINE
  6
CONTINUOUS
 62
     3
 10
148.0
 20
0.0
 30
0.0
 11
-148.0
 21
0.0
 31
0.0
  0
LINE
  5
8F
  8
OUTLINE
  6
CONTINUOUS
 62
     3
 10
145.2996399999999
 20
-45.0
 30
0.0
 11
-145.2996399999999
 21
-45.0
 31
0.0
  0
LINE
  5
90
  8
OUTLINE
  6
CONTINUOUS
 62
     3
 10
147.40000000000001
 20
-30.0
 30
0.0
 11
-147.40000000000001
 21
-30.0
 31
0.0
  0
LINE
  5
91
  8
OUTLINE
  6
CONTINUOUS
 62
     3
 10
147.09394099999989
 20
-30.299939999999999
 30
0.0
 11
-147.09394099999989
 21
-30.299939999999999
 31
0.0
  0
LINE
  5
92
  8
OUTLINE
  6
CONTINUOUS
 62
     3
 10
146.817466
 20
-44.123682999999993
 30
0.0
 11
-146.817466
 21
-44.123682999999993
 31
0.0
  0
LINE
  5
93
  8
OUTLINE
  6
CONTINUOUS
 62
     3
 10
-148.0
 20
0.0
 30
0.0
 11
-147.40000000000001
 21
-30.0
 31
0.0
  0
LINE
  5
94
  8
OUTLINE
  6
CONTINUOUS
 62
     3
 10
-147.3999399999999
 20
-30.0
 30
0.0
 11
-147.40000000000001
 21
-30.0
 31
0.0
  0
LINE
  5
95
  8
OUTLINE
  6
CONTINUOUS
 62
     3
 10
-147.09394099999989
 20
-30.299939999999999
 30
0.0
 11
-146.817466
 21
-44.123682999999993
 31
0.0
  0
LINE
  5
96
  8
OUTLINE
  6
CONTINUOUS
 62
     3
 10
-147.3999399999999
 20
-30.0
 30
0.0
 11
-147.09394099999989
 21
-30.299939999999999
 31
0.0
  0
LINE
  5
97
  8
OUTLINE
  6
CONTINUOUS
 62
     3
 10
-145.2996399999999
 20
-45.0
 30
0.0
 11
-146.817466
 21
-44.123682999999993
 31
0.0
  0
LINE
  5
98
  8
OUTLINE
  6
CONTINUOUS
 62
     3
 10
-120.0
 20
120.0
 30
0.0
 11
120.0
 21
120.0
 31
0.0
  0
LINE
  5
99
  8
DETAIL
  6
CONTINUOUS
 62
     5
 10
145.2996399999999
 20
-45.0
 30
0.0
 11
146.817466
 21
-44.123682999999993
 31
0.0
  0
LINE
  5
9A
  8
DETAIL
  6
CONTINUOUS
 62
     5
 10
147.3999399999999
 20
-30.0
 30
0.0
 11
147.09394099999989
 21
-30.299939999999999
 31
0.0
  0
LINE
  5
9B
  8
DETAIL
  6
CONTINUOUS
 62
     5
 10
147.09394099999989
 20
-30.299939999999999
 30
0.0
 11
146.817466
 21
-44.123682999999993
 31
0.0
  0
LINE
  5
9C
  8
DETAIL
  6
CONTINUOUS
 62
     5
 10
147.3999399999999
 20
-30.0
 30
0.0
 11
147.40000000000001
 21
-30.0
 31
0.0
  0
LINE
  5
9D
  8
DETAIL
  6
CONTINUOUS
 62
     5
 10
148.0
 20
0.0
 30
0.0
 11
147.40000000000001
 21
-30.0
 31
0.0
  0
LINE
  5
9E
  8
OUTLINE
  6
CONTINUOUS
 62
     3
 10
148.0
 20
0.0
 30
0.0
 11
147.40000000000001
 21
-30.0
 31
0.0
  0
LINE
  5
9F
  8
OUTLINE
  6
CONTINUOUS
 62
     3
 10
147.3999399999999
 20
-30.0
 30
0.0
 11
147.40000000000001
 21
-30.0
 31
0.0
  0
LINE
  5
A0
  8
OUTLINE
  6
CONTINUOUS
 62
     3
 10
147.09394099999989
 20
-30.299939999999999
 30
0.0
 11
146.817466
 21
-44.123682999999993
 31
0.0
  0
LINE
  5
A1
  8
OUTLINE
  6
CONTINUOUS
 62
     3
 10
147.3999399999999
 20
-30.0
 30
0.0
 11
147.09394099999989
 21
-30.299939999999999
 31
0.0
  0
LINE
  5
A2
  8
OUTLINE
  6
CONTINUOUS
 62
     3
 10
145.2996399999999
 20
-45.0
 30
0.0
 11
146.817466
 21
-44.123682999999993
 31
0.0
  0
LINE
  5
A3
  8
NOTE
  6
CONTINUOUS
 62
     4
 39
50.0
 10
-218.184665
 20
159.73901499999999
 30
0.0
 11
-336.93555299999991
 21
159.73901499999999
 31
0.0
  0
TEXT
  5
A4
  8
NOTE
  6
CONTINUOUS
 62
     4
 10
-317.2175529999999
 20
184.04810699999999
 30
0.0
 40
64.0
  1
EL
 41
0.9
  0
LINE
  5
A5
  8
NOTE
  6
CONTINUOUS
 62
     4
 10
-168.0
 20
0.0
 30
0.0
 11
-128.0
 21
0.0
 31
0.0
  0
LINE
  5
A6
  8
NOTE
  6
CONTINUOUS
 62
     4
 10
-148.0
 20
-20.0
 30
0.0
 11
-148.0
 21
20.0
 31
0.0
  0
LINE
  5
A7
  8
NOTE
  6
CONTINUOUS
 62
     4
 39
50.0
 10
-148.0
 20
0.0
 30
0.0
 11
-218.184665
 21
159.73901499999999
 31
0.0
  0
LINE
  5
A8
  8
NOTE
  6
CONTINUOUS
 62
     4
 10
-172.68735299999989
 20
31.47275999999999
 30
0.0
 11
-148.0
 21
0.0
 31
0.0
  0
LINE
  5
A9
  8
NOTE
  6
CONTINUOUS
 62
     4
 10
-148.0
 20
0.0
 30
0.0
 11
-153.643494
 21
39.599885999999991
 31
0.0
  0
LINE
  5
AA
  8
SIZE
  6
CONTINUOUS
 62
    30
 10
60.0
 20
40.0
 30
0.0
 11
60.0
 21
232.1602529999999
 31
0.0
  0
LINE
  5
AB
  8
SIZE
  6
CONTINUOUS
 62
    30
 10
-60.0
 20
40.0
 30
0.0
 11
-60.0
 21
232.1602529999999
 31
0.0
  0
LINE
  5
AC
  8
SIZE
  6
CONTINUOUS
 62
    30
 10
72.0
 20
212.1602529999999
 30
0.0
 11
84.0
 21
212.1602529999999
 31
0.0
  0
LINE
  5
AD
  8
SIZE
  6
CONTINUOUS
 62
    30
 10
-72.0
 20
212.1602529999999
 30
0.0
 11
-84.0
 21
212.1602529999999
 31
0.0
  0
LINE
  5
AE
  8
SIZE
  6
CONTINUOUS
 62
    30
 10
60.0
 20
212.1602529999999
 30
0.0
 11
-60.0
 21
212.1602529999999
 31
0.0
  0
CIRCLE
  5
AF
  8
SIZE
  6
CONTINUOUS
 62
    30
 10
60.0
 20
212.1602529999999
 30
0.0
 40
6.0
  0
LINE
  5
B0
  8
SIZE
  6
CONTINUOUS
 62
    30
 10
60.0
 20
212.1602529999999
 30
0.0
 11
72.0
 21
212.1602529999999
 31
0.0
  0
CIRCLE
  5
B1
  8
SIZE
  6
CONTINUOUS
 62
    30
 10
-60.0
 20
212.1602529999999
 30
0.0
 40
6.0
  0
LINE
  5
B2
  8
SIZE
  6
CONTINUOUS
 62
    30
 10
-60.0
 20
212.1602529999999
 30
0.0
 11
-72.0
 21
212.1602529999999
 31
0.0
  0
TEXT
  5
B3
  8
SIZE
  6
CONTINUOUS
 62
    30
 10
-68.571428571428569
 20
237.16025300000001
 30
0.0
 40
64.0
  1
120
 41
0.9
 72
     1
 11
0.0
 21
237.16025300000001
 31
0.0
  0
POINT
  5
B4
  8
DEFPOINTS
  6
CONTINUOUS
 62
    30
 10
60.0
 20
20.0
 30
0.0
  0
POINT
  5
B5
  8
DEFPOINTS
  6
CONTINUOUS
 62
    30
 10
-60.0
 20
20.0
 30
0.0
  0
POINT
  5
B6
  8
DEFPOINTS
  6
CONTINUOUS
 62
    30
 10
-60.0
 20
212.1602529999999
 30
0.0
  0
TEXT
  5
BF
  8
ETC
  6
CONTINUOUS
 62
    61
 10
445.53388413291151
 20
281.48302449261263
 30
0.0
 40
50.0
  1
EX-20LP5
 41
0.9
  0
ENDSEC
  0
EOF
