  0
SECTION
  2
HEADER
  9
$ACADVER
  1
AC1009
  9
$DWGCODEPAGE
  3
dos932
  9
$INSBASE
 10
0.0
 20
0.0
 30
0.0
  9
$EXTMIN
 10
-555.56611840494168
 20
-299.1462681549275
 30
0.0
  9
$EXTMAX
 10
894.27725567950267
 20
364.72622230116218
 30
0.0
  9
$LIMMIN
 10
-2970.0
 20
-2100.0
  9
$LIMMAX
 10
2970.0
 20
2100.0
  9
$ORTHOMODE
 70
     1
  9
$REGENMODE
 70
     1
  9
$FILLMODE
 70
     1
  9
$QTEXTMODE
 70
     0
  9
$MIRRTEXT
 70
     0
  9
$LTSCALE
 40
20.0
  9
$ATTMODE
 70
     1
  9
$TEXTSIZE
 40
64.0
  9
$TRACEWID
 40
0.05
  9
$TEXTSTYLE
  7
STANDARD
  9
$CLAYER
  8
NOTE
  9
$CELTYPE
  6
CONTINUOUS
  9
$CECOLOR
 62
     7
  9
$DIMSCALE
 40
1.0
  9
$DIMASZ
 40
12.0
  9
$DIMEXO
 40
20.0
  9
$DIMDLI
 40
200.0
  9
$DIMRND
 40
0.0
  9
$DIMDLE
 40
0.0
  9
$DIMEXE
 40
20.0
  9
$DIMTP
 40
0.0
  9
$DIMTM
 40
0.0
  9
$DIMTXT
 40
64.0
  9
$DIMCEN
 40
0.09
  9
$DIMTSZ
 40
0.0
  9
$DIMTOL
 70
     0
  9
$DIMLIM
 70
     0
  9
$DIMTIH
 70
     0
  9
$DIMTOH
 70
     0
  9
$DIMSE1
 70
     0
  9
$DIMSE2
 70
     0
  9
$DIMTAD
 70
     1
  9
$DIMZIN
 70
     8
  9
$DIMBLK
  1

  9
$DIMASO
 70
     1
  9
$DIMSHO
 70
     0
  9
$DIMPOST
  1

  9
$DIMAPOST
  1

  9
$DIMALT
 70
     0
  9
$DIMALTD
 70
     2
  9
$DIMALTF
 40
25.399999999999999
  9
$DIMLFAC
 40
1.0
  9
$DIMTOFL
 70
     1
  9
$DIMTVP
 40
0.0
  9
$DIMTIX
 70
     1
  9
$DIMSOXD
 70
     0
  9
$DIMSAH
 70
     0
  9
$DIMBLK1
  1

  9
$DIMBLK2
  1

  9
$DIMSTYLE
  2
STANDARD
  9
$DIMCLRD
 70
     7
  9
$DIMCLRE
 70
     7
  9
$DIMCLRT
 70
     7
  9
$DIMTFAC
 40
1.0
  9
$DIMGAP
 40
25.0
  9
$LUNITS
 70
     2
  9
$LUPREC
 70
     4
  9
$SKETCHINC
 40
0.1
  9
$FILLETRAD
 40
3.0
  9
$AUNITS
 70
     1
  9
$AUPREC
 70
     3
  9
$MENU
  1
ACAD
  9
$ELEVATION
 40
0.0
  9
$PELEVATION
 40
0.0
  9
$THICKNESS
 40
50.0
  9
$LIMCHECK
 70
     0
  9
$CHAMFERA
 40
0.0
  9
$CHAMFERB
 40
0.0
  9
$SKPOLY
 70
     0
  9
$TDCREATE
 40
2453019.62301037
  9
$TDUPDATE
 40
2459017.50893838
  9
$TDINDWG
 40
1.7107680556
  9
$TDUSRTIMER
 40
1.7107680556
  9
$USRTIMER
 70
     1
  9
$ANGBASE
 50
0.0
  9
$ANGDIR
 70
     0
  9
$PDMODE
 70
     3
  9
$PDSIZE
 40
-2.0
  9
$PLINEWID
 40
0.0
  9
$SPLFRAME
 70
     0
  9
$SPLINETYPE
 70
     6
  9
$SPLINESEGS
 70
     8
  9
$SURFTAB1
 70
     6
  9
$SURFTAB2
 70
     6
  9
$SURFTYPE
 70
     6
  9
$SURFU
 70
     6
  9
$SURFV
 70
     6
  9
$UCSNAME
  2

  9
$UCSORG
 10
0.0
 20
0.0
 30
0.0
  9
$UCSXDIR
 10
1.0
 20
0.0
 30
0.0
  9
$UCSYDIR
 10
0.0
 20
1.0
 30
0.0
  9
$PUCSNAME
  2

  9
$PUCSORG
 10
0.0
 20
0.0
 30
0.0
  9
$PUCSXDIR
 10
1.0
 20
0.0
 30
0.0
  9
$PUCSYDIR
 10
0.0
 20
1.0
 30
0.0
  9
$USERI1
 70
     0
  9
$USERI2
 70
     0
  9
$USERI3
 70
     0
  9
$USERI4
 70
     0
  9
$USERI5
 70
     0
  9
$USERR1
 40
20.0
  9
$USERR2
 40
0.0
  9
$USERR3
 40
0.0
  9
$USERR4
 40
0.0
  9
$USERR5
 40
0.0
  9
$WORLDVIEW
 70
     1
  9
$SHADEDGE
 70
     3
  9
$SHADEDIF
 70
    70
  9
$TILEMODE
 70
     1
  9
$MAXACTVP
 70
    48
  9
$PINSBASE
 10
0.0
 20
0.0
 30
0.0
  9
$PLIMCHECK
 70
     0
  9
$PEXTMIN
 10
-100000000000000000000.0
 20
-100000000000000000000.0
 30
-100000000000000000000.0
  9
$PEXTMAX
 10
100000000000000000000.0
 20
100000000000000000000.0
 30
100000000000000000000.0
  9
$PLIMMIN
 10
0.0
 20
0.0
  9
$PLIMMAX
 10
12.0
 20
9.0
  9
$UNITMODE
 70
     0
  9
$VISRETAIN
 70
     0
  9
$PLINEGEN
 70
     0
  9
$PSLTSCALE
 70
     0
  9
$TREEDEPTH
 70
  3020
  9
$ATTDIA
 70
     0
  9
$ATTREQ
 70
     1
  9
$BLIPMODE
 70
     1
  9
$COORDS
 70
     1
  9
$DRAGMODE
 70
     2
  9
$OSMODE
 70
     0
  9
$HANDLING
 70
     0
  9
$HANDSEED
  5
E95B
  0
ENDSEC
  0
SECTION
  2
TABLES
  0
TABLE
  2
LTYPE
 70
     2
  0
LTYPE
  2
CONTINUOUS
 70
     0
  3
実線
 72
    65
 73
     0
 40
0.0
  0
LTYPE
  2
DASHDOT
 70
     0
  3
____ _ ____ _ ____ _ ____ _ ____ _ ____ _ ____
 72
    65
 73
     4
 40
5.5
 49
4.0
 49
-0.6
 49
0.3
 49
-0.6
  0
ENDTAB
  0
TABLE
  2
LAYER
 70
    12
  0
LAYER
  2
0
 70
     0
 62
     7
  6
CONTINUOUS
  0
LAYER
  2
BASIS
 70
     0
 62
     6
  6
DASHDOT
  0
LAYER
  2
OUTLINE
 70
     0
 62
     3
  6
CONTINUOUS
  0
LAYER
  2
DETAIL
 70
     0
 62
     5
  6
CONTINUOUS
  0
LAYER
  2
SIZE
 70
     0
 62
    30
  6
CONTINUOUS
  0
LAYER
  2
ARRANGE
 70
     0
 62
     1
  6
CONTINUOUS
  0
LAYER
  2
ETC
 70
     0
 62
    61
  6
CONTINUOUS
  0
LAYER
  2
NOTE
 70
     0
 62
     4
  6
CONTINUOUS
  0
LAYER
  2
DEFPOINTS
 70
    64
 62
     7
  6
CONTINUOUS
  0
LAYER
  2
FIX
 70
    64
 62
    11
  6
CONTINUOUS
  0
LAYER
  2
SERVICESPACE
 70
    64
 62
     2
  6
DASHDOT
  0
LAYER
  2
SYMBOLLINE
 70
    64
 62
    15
  6
CONTINUOUS
  0
ENDTAB
  0
TABLE
  2
STYLE
 70
     1
  0
STYLE
  2
STANDARD
 70
     0
 40
64.0
 41
0.9
 50
0.0
 71
     0
 42
64.0
  3
SIMPLEX.shx
  4
BIGFONT.shx
  0
ENDTAB
  0
TABLE
  2
APPID
 70
    17
  0
APPID
  2
ACAD
 70
     0
  0
APPID
  2
AUTOCAD_POSTSCRIPT_FIGURE
 70
     0
  0
APPID
  2
ACAD_EXEMPT_FROM_CAD_STANDARDS
 70
     0
  0
APPID
  2
ACAD_PSEXT
 70
     0
  0
APPID
  2
ACAUTHENVIRON
 70
     0
  0
APPID
  2
GENIUS_GENOENT_13
 70
     0
  0
APPID
  2
GENIUS_GENCFG_13
 70
     0
  0
APPID
  2
GENIUS_GENCFG0_13
 70
     0
  0
APPID
  2
GENIUS_GENCFG1_13
 70
     0
  0
APPID
  2
GENIUS_GENCFG2_13
 70
     0
  0
APPID
  2
GENIUS_GENCFG3_13
 70
     0
  0
APPID
  2
GENIUS_GENCFG4_13
 70
     0
  0
APPID
  2
GENIUS_GEVCFG0_13
 70
     0
  0
APPID
  2
CONTENTBLOCKICON
 70
     0
  0
APPID
  2
CONTENTBLOCKDESCRIPTION
 70
     0
  0
APPID
  2
ACAD_NAV_VCDISPLAY
 70
     0
  0
APPID
  2
ACAD_MLEADERVER
 70
     0
  0
ENDTAB
  0
TABLE
  2
DIMSTYLE
 70
     1
  0
DIMSTYLE
  2
STANDARD
 70
     0
  3

  4

  5
_ORIGIN
  6

  7

 40
1.0
 41
12.0
 42
20.0
 43
200.0
 44
20.0
 45
0.0
 46
0.0
 47
0.0
 48
0.0
140
64.0
141
0.09
142
0.0
143
25.399999999999999
144
1.0
145
0.0
146
1.0
147
25.0
 71
     0
 72
     0
 73
     0
 74
     0
 75
     0
 76
     0
 77
     1
 78
     8
170
     0
171
     2
172
     1
173
     0
174
     1
175
     0
176
     7
177
     7
178
     7
  0
ENDTAB
  0
TABLE
  2
VIEW
 70
     1
  0
VIEW
  2
ALL
 70
     0
 40
4282.6198079999986
 10
0.0
 20
41.309904000000003
 41
5940.0
 11
0.0
 21
0.0
 31
1.0
 12
0.0
 22
0.0
 32
0.0
 42
50.0
 43
0.0
 44
0.0
 50
0.0
 71
     0
  0
ENDTAB
  0
TABLE
  2
UCS
 70
     0
  0
ENDTAB
  0
TABLE
  2
VPORT
 70
     1
  0
VPORT
  2
*ACTIVE
 70
     0
 10
0.0
 20
0.0
 11
1.0
 21
1.0
 12
169.3555686372805
 22
32.78997707311737
 13
0.0
 23
0.0
 14
1.0
 24
1.0
 15
0.0
 25
0.0
 16
0.0
 26
0.0
 36
1.0
 17
0.0
 27
0.0
 37
0.0
 40
579.65379358375151
 41
2.1112877583465819
 42
50.0
 43
0.0
 44
0.0
 50
0.0
 51
0.0
 71
     0
 72
  1000
 73
     1
 74
     3
 75
     0
 76
     0
 77
     0
 78
     0
  0
ENDTAB
  0
ENDSEC
  0
SECTION
  2
BLOCKS
  0
BLOCK
  8
0
  2
_ORIGIN
 70
     0
 10
0.0
 20
0.0
 30
0.0
  3
_ORIGIN
  1
_ORIGIN
  0
CIRCLE
  8
0
  6
CONTINUOUS
 62
     7
 10
0.0
 20
0.0
 30
0.0
 40
0.5
  0
LINE
  8
0
  6
CONTINUOUS
 62
     7
 10
0.0
 20
0.0
 30
0.0
 11
-1.0
 21
0.0
 31
0.0
  0
ENDBLK
  8
0
  0
ENDSEC
  0
SECTION
  2
ENTITIES
  0
CIRCLE
  8
ARRANGE
  6
CONTINUOUS
 62
     1
 10
0.0
 20
0.0
 30
0.0
 40
40.0
  0
POINT
  8
ARRANGE
  6
CONTINUOUS
 62
     1
 10
0.0
 20
0.0
 30
0.0
  0
TEXT
  8
NOTE
  6
CONTINUOUS
 62
     4
 10
-338.34282124053863
 20
-177.6221793008929
 30
0.0
 40
64.0
  1
EL
 50
359.94366598331629
 41
0.9
 72
     2
 11
-253.31429091094529
 21
-177.70578057537421
 31
0.0
  0
LINE
  8
NOTE
  6
CONTINUOUS
 62
     4
 10
-153.03500149215199
 20
-103.5909841039298
 30
0.0
 11
-147.93343066729719
 21
-100.04716209810179
 31
0.0
  0
LINE
  8
NOTE
  6
CONTINUOUS
 62
     4
 10
-147.93343066729719
 20
-100.04716209810179
 30
0.0
 11
-150.57960112914941
 21
-105.6669913817029
 31
0.0
  0
LINE
  8
NOTE
  6
CONTINUOUS
 62
     4
 10
-147.93343066729719
 20
-100.04716209810179
 30
0.0
 11
-155.6811719540041
 21
-109.210813387531
 31
0.0
  0
LINE
  8
NOTE
  6
CONTINUOUS
 62
     4
 10
-155.57826261654591
 20
-109.089097232074
 30
0.0
 11
-228.14486299336309
 21
-195.66256911776489
 31
0.0
  0
LINE
  8
NOTE
  6
CONTINUOUS
 62
     4
 10
-228.14486299336309
 20
-195.66256911776489
 30
0.0
 11
-350.17337543882451
 21
-195.54258892848111
 31
0.0
  0
LINE
  8
DETAIL
  6
CONTINUOUS
 62
     5
 10
15.6557360492186
 20
108.74230171997741
 30
0.0
 11
15.660255524232181
 21
108.741285355749
 31
0.0
  0
LINE
  8
DETAIL
  6
CONTINUOUS
 62
     5
 10
15.660255524232181
 20
108.741285355749
 30
0.0
 11
15.664695642863879
 21
108.7400157405867
 31
0.0
  0
LINE
  8
DETAIL
  6
CONTINUOUS
 62
     5
 10
15.664695642863879
 20
108.7400157405867
 30
0.0
 11
15.664695642863879
 21
108.7400157405867
 31
0.0
  0
LINE
  8
DETAIL
  6
CONTINUOUS
 62
     5
 10
15.664695642863879
 20
108.7400157405867
 30
0.0
 11
15.668996175335
 21
108.73830031119221
 31
0.0
  0
LINE
  8
DETAIL
  6
CONTINUOUS
 62
     5
 10
15.668996175335
 20
108.73830031119221
 30
0.0
 11
15.673173398282531
 21
108.7361892548072
 31
0.0
  0
LINE
  8
DETAIL
  6
CONTINUOUS
 62
     5
 10
15.673173398282531
 20
108.7361892548072
 30
0.0
 11
15.673173398282531
 21
108.7361892548072
 31
0.0
  0
LINE
  8
DETAIL
  6
CONTINUOUS
 62
     5
 10
15.673173398282531
 20
108.7361892548072
 30
0.0
 11
15.67724947452405
 21
108.7337851746224
 31
0.0
  0
LINE
  8
DETAIL
  6
CONTINUOUS
 62
     5
 10
15.67724947452405
 20
108.7337851746224
 30
0.0
 11
15.6811936051804
 21
108.7311575870843
 31
0.0
  0
LINE
  8
DETAIL
  6
CONTINUOUS
 62
     5
 10
15.6811936051804
 20
108.7311575870843
 30
0.0
 11
15.6811936051804
 21
108.7311575870843
 31
0.0
  0
LINE
  8
DETAIL
  6
CONTINUOUS
 62
     5
 10
15.6811936051804
 20
108.7311575870843
 30
0.0
 11
15.68499558604117
 21
108.72834013606099
 31
0.0
  0
LINE
  8
DETAIL
  6
CONTINUOUS
 62
     5
 10
15.68499558604117
 20
108.72834013606099
 30
0.0
 11
15.68878055326263
 21
108.7252560618592
 31
0.0
  0
LINE
  8
DETAIL
  6
CONTINUOUS
 62
     5
 10
15.68878055326263
 20
108.7252560618592
 30
0.0
 11
15.68878055326263
 21
108.7252560618592
 31
0.0
  0
LINE
  8
DETAIL
  6
CONTINUOUS
 62
     5
 10
15.68878055326263
 20
108.7252560618592
 30
0.0
 11
15.692585378150399
 21
108.7219196791422
 31
0.0
  0
LINE
  8
DETAIL
  6
CONTINUOUS
 62
     5
 10
15.692585378150399
 20
108.7219196791422
 30
0.0
 11
15.69595853223473
 21
108.718820003576
 31
0.0
  0
LINE
  8
DETAIL
  6
CONTINUOUS
 62
     5
 10
15.69595853223473
 20
108.718820003576
 30
0.0
 11
15.69595853223473
 21
108.718820003576
 31
0.0
  0
LINE
  8
DETAIL
  6
CONTINUOUS
 62
     5
 10
15.69595853223473
 20
108.718820003576
 30
0.0
 11
15.698523694760301
 21
108.7163718583234
 31
0.0
  0
LINE
  8
DETAIL
  6
CONTINUOUS
 62
     5
 10
15.698523694760301
 20
108.7163718583234
 30
0.0
 11
15.700693775605711
 21
108.7142185955242
 31
0.0
  0
LINE
  8
DETAIL
  6
CONTINUOUS
 62
     5
 10
15.700693775605711
 20
108.7142185955242
 30
0.0
 11
15.700693775605711
 21
108.7142185955242
 31
0.0
  0
LINE
  8
DETAIL
  6
CONTINUOUS
 62
     5
 10
15.700693775605711
 20
108.7142185955242
 30
0.0
 11
15.7029504000036
 21
108.7119269741606
 31
0.0
  0
LINE
  8
DETAIL
  6
CONTINUOUS
 62
     5
 10
15.7029504000036
 20
108.7119269741606
 30
0.0
 11
15.705260823973729
 21
108.70952885160639
 31
0.0
  0
LINE
  8
DETAIL
  6
CONTINUOUS
 62
     5
 10
15.705260823973729
 20
108.70952885160639
 30
0.0
 11
15.705260823973729
 21
108.70952885160639
 31
0.0
  0
LINE
  8
DETAIL
  6
CONTINUOUS
 62
     5
 10
15.705260823973729
 20
108.70952885160639
 30
0.0
 11
15.707498392644769
 21
108.70714135139031
 31
0.0
  0
LINE
  8
DETAIL
  6
CONTINUOUS
 62
     5
 10
15.707498392644769
 20
108.70714135139031
 30
0.0
 11
15.709675176803779
 21
108.7047575632771
 31
0.0
  0
LINE
  8
DETAIL
  6
CONTINUOUS
 62
     5
 10
15.709675176803779
 20
108.7047575632771
 30
0.0
 11
15.709675176803779
 21
108.7047575632771
 31
0.0
  0
LINE
  8
DETAIL
  6
CONTINUOUS
 62
     5
 10
15.709675176803779
 20
108.7047575632771
 30
0.0
 11
15.711827795297721
 21
108.7023473277564
 31
0.0
  0
LINE
  8
DETAIL
  6
CONTINUOUS
 62
     5
 10
15.711827795297721
 20
108.7023473277564
 30
0.0
 11
15.71395233356111
 21
108.69991152198919
 31
0.0
  0
LINE
  8
DETAIL
  6
CONTINUOUS
 62
     5
 10
15.71395233356111
 20
108.69991152198919
 30
0.0
 11
15.71395233356111
 21
108.69991152198919
 31
0.0
  0
LINE
  8
DETAIL
  6
CONTINUOUS
 62
     5
 10
15.71395233356111
 20
108.69991152198919
 30
0.0
 11
15.716040595673579
 21
108.6974587540727
 31
0.0
  0
LINE
  8
DETAIL
  6
CONTINUOUS
 62
     5
 10
15.716040595673579
 20
108.6974587540727
 30
0.0
 11
15.71810779371128
 21
108.69499751919609
 31
0.0
  0
LINE
  8
DETAIL
  6
CONTINUOUS
 62
     5
 10
15.71810779371128
 20
108.69499751919609
 30
0.0
 11
15.720608831885221
 21
108.6919328157388
 31
0.0
  0
LINE
  8
DETAIL
  6
CONTINUOUS
 62
     5
 10
15.720608831885221
 20
108.6919328157388
 30
0.0
 11
15.72309497964727
 21
108.68884493624429
 31
0.0
  0
LINE
  8
DETAIL
  6
CONTINUOUS
 62
     5
 10
15.72309497964727
 20
108.68884493624429
 30
0.0
 11
15.72309497964727
 21
108.68884493624429
 31
0.0
  0
LINE
  8
DETAIL
  6
CONTINUOUS
 62
     5
 10
15.72309497964727
 20
108.68884493624429
 30
0.0
 11
15.725549639147861
 21
108.6857238172349
 31
0.0
  0
LINE
  8
DETAIL
  6
CONTINUOUS
 62
     5
 10
15.725549639147861
 20
108.6857238172349
 30
0.0
 11
15.727949382780929
 21
108.6826118454766
 31
0.0
  0
LINE
  8
DETAIL
  6
CONTINUOUS
 62
     5
 10
15.727949382780929
 20
108.6826118454766
 30
0.0
 11
15.727949382780929
 21
108.6826118454766
 31
0.0
  0
LINE
  8
DETAIL
  6
CONTINUOUS
 62
     5
 10
15.727949382780929
 20
108.6826118454766
 30
0.0
 11
15.730296152739699
 21
108.6795237327012
 31
0.0
  0
LINE
  8
DETAIL
  6
CONTINUOUS
 62
     5
 10
15.730296152739699
 20
108.6795237327012
 30
0.0
 11
15.73270020016901
 21
108.67631104025951
 31
0.0
  0
LINE
  8
DETAIL
  6
CONTINUOUS
 62
     5
 10
15.73270020016901
 20
108.67631104025951
 30
0.0
 11
15.73270020016901
 21
108.67631104025951
 31
0.0
  0
LINE
  8
DETAIL
  6
CONTINUOUS
 62
     5
 10
15.73270020016901
 20
108.67631104025951
 30
0.0
 11
15.73519225193832
 21
108.6729345797269
 31
0.0
  0
LINE
  8
DETAIL
  6
CONTINUOUS
 62
     5
 10
15.73519225193832
 20
108.6729345797269
 30
0.0
 11
15.73737662886936
 21
108.6699553139574
 31
0.0
  0
LINE
  8
DETAIL
  6
CONTINUOUS
 62
     5
 10
15.73737662886936
 20
108.6699553139574
 30
0.0
 11
15.73737662886936
 21
108.6699553139574
 31
0.0
  0
LINE
  8
DETAIL
  6
CONTINUOUS
 62
     5
 10
15.73737662886936
 20
108.6699553139574
 30
0.0
 11
15.739150379082391
 21
108.6675248799403
 31
0.0
  0
LINE
  8
DETAIL
  6
CONTINUOUS
 62
     5
 10
15.739150379082391
 20
108.6675248799403
 30
0.0
 11
15.742007865938829
 21
108.6635574599353
 31
0.0
  0
LINE
  8
DETAIL
  6
CONTINUOUS
 62
     5
 10
15.742007865938829
 20
108.6635574599353
 30
0.0
 11
15.742007865938829
 21
108.6635574599353
 31
0.0
  0
LINE
  8
DETAIL
  6
CONTINUOUS
 62
     5
 10
15.742007865938829
 20
108.6635574599353
 30
0.0
 11
15.74721029796569
 21
108.6562867617594
 31
0.0
  0
LINE
  8
DETAIL
  6
CONTINUOUS
 62
     5
 10
15.74721029796569
 20
108.6562867617594
 30
0.0
 11
15.75348894910633
 21
108.6474620501849
 31
0.0
  0
LINE
  8
DETAIL
  6
CONTINUOUS
 62
     5
 10
15.75348894910633
 20
108.6474620501849
 30
0.0
 11
15.75348894910633
 21
108.6474620501849
 31
0.0
  0
LINE
  8
DETAIL
  6
CONTINUOUS
 62
     5
 10
15.75348894910633
 20
108.6474620501849
 30
0.0
 11
15.759344829995941
 21
108.6391573392455
 31
0.0
  0
LINE
  8
DETAIL
  6
CONTINUOUS
 62
     5
 10
15.759344829995941
 20
108.6391573392455
 30
0.0
 11
15.76488783262198
 21
108.6312300830504
 31
0.0
  0
LINE
  8
DETAIL
  6
CONTINUOUS
 62
     5
 10
15.76488783262198
 20
108.6312300830504
 30
0.0
 11
15.76488783262198
 21
108.6312300830504
 31
0.0
  0
LINE
  8
DETAIL
  6
CONTINUOUS
 62
     5
 10
15.76488783262198
 20
108.6312300830504
 30
0.0
 11
15.770522359340591
 21
108.6231319182786
 31
0.0
  0
LINE
  8
DETAIL
  6
CONTINUOUS
 62
     5
 10
15.770522359340591
 20
108.6231319182786
 30
0.0
 11
15.776221972638719
 21
108.6149077718034
 31
0.0
  0
LINE
  8
DETAIL
  6
CONTINUOUS
 62
     5
 10
15.776221972638719
 20
108.6149077718034
 30
0.0
 11
15.776221972638719
 21
108.6149077718034
 31
0.0
  0
LINE
  8
DETAIL
  6
CONTINUOUS
 62
     5
 10
15.776221972638719
 20
108.6149077718034
 30
0.0
 11
15.78188114456748
 21
108.6067117428347
 31
0.0
  0
LINE
  8
DETAIL
  6
CONTINUOUS
 62
     5
 10
15.78188114456748
 20
108.6067117428347
 30
0.0
 11
15.78750882530926
 21
108.5985413297177
 31
0.0
  0
LINE
  8
DETAIL
  6
CONTINUOUS
 62
     5
 10
15.78750882530926
 20
108.5985413297177
 30
0.0
 11
15.78750882530926
 21
108.5985413297177
 31
0.0
  0
LINE
  8
DETAIL
  6
CONTINUOUS
 62
     5
 10
15.78750882530926
 20
108.5985413297177
 30
0.0
 11
15.793135816415999
 21
108.59036315889691
 31
0.0
  0
LINE
  8
DETAIL
  6
CONTINUOUS
 62
     5
 10
15.793135816415999
 20
108.59036315889691
 30
0.0
 11
15.79876584678675
 21
108.58217697006739
 31
0.0
  0
LINE
  8
DETAIL
  6
CONTINUOUS
 62
     5
 10
-128.4759934060709
 20
-171.79192763336849
 30
0.0
 11
-128.4470029219363
 21
-171.79114780489419
 31
0.0
  0
LINE
  8
DETAIL
  6
CONTINUOUS
 62
     5
 10
-128.52765224346339
 20
-171.79299975970071
 30
0.0
 11
-128.4759934060709
 21
-171.79192763336849
 31
0.0
  0
LINE
  8
DETAIL
  6
CONTINUOUS
 62
     5
 10
-128.58908331634649
 20
-171.79393483335241
 30
0.0
 11
-128.52765224346339
 21
-171.79299975970071
 31
0.0
  0
LINE
  8
DETAIL
  6
CONTINUOUS
 62
     5
 10
-128.68483659924379
 20
-171.7949139284427
 30
0.0
 11
-128.58908331634649
 21
-171.79393483335241
 31
0.0
  0
LINE
  8
DETAIL
  6
CONTINUOUS
 62
     5
 10
-128.8206306364888
 20
-171.79560029971529
 30
0.0
 11
-128.68483659924379
 21
-171.7949139284427
 31
0.0
  0
LINE
  8
DETAIL
  6
CONTINUOUS
 62
     5
 10
145.8580748905184
 20
-171.80027335783129
 30
0.0
 11
45.255754013676551
 21
-171.79859508713761
 31
0.0
  0
LINE
  8
DETAIL
  6
CONTINUOUS
 62
     5
 10
-128.8206306364888
 20
-171.79560029971529
 30
0.0
 11
-146.1506224411888
 21
-171.795402002522
 31
0.0
  0
LINE
  8
DETAIL
  6
CONTINUOUS
 62
     5
 10
-44.297056824039878
 20
-171.58838327346359
 30
0.0
 11
43.767385975893383
 21
-171.58952051563989
 31
0.0
  0
LINE
  8
DETAIL
  6
CONTINUOUS
 62
     5
 10
145.25651916200741
 20
-171.43254399457729
 30
0.0
 11
-145.55317218217141
 21
-171.4469190702535
 31
0.0
  0
LINE
  8
DETAIL
  6
CONTINUOUS
 62
     5
 10
145.25652029159369
 20
-171.36483339046569
 30
0.0
 11
-145.55317105258541
 21
-171.37920846624101
 31
0.0
  0
LINE
  8
DETAIL
  6
CONTINUOUS
 62
     5
 10
-145.5535902527397
 20
-167.78125954778881
 30
0.0
 11
145.26117663201279
 21
-167.786110985704
 31
0.0
  0
LINE
  8
DETAIL
  6
CONTINUOUS
 62
     5
 10
-145.5535741706409
 20
-166.81722921343609
 30
0.0
 11
-91.679274986383859
 21
-166.81812795667071
 31
0.0
  0
LINE
  8
DETAIL
  6
CONTINUOUS
 62
     5
 10
91.386893529954364
 20
-166.82118190801791
 30
0.0
 11
145.26119271421129
 21
-166.822080651352
 31
0.0
  0
LINE
  8
DETAIL
  6
CONTINUOUS
 62
     5
 10
-91.679258336499117
 20
-165.82009031431841
 30
0.0
 11
91.3869101795392
 21
-165.82314426566441
 31
0.0
  0
LINE
  8
DETAIL
  6
CONTINUOUS
 62
     5
 10
-146.54723784522781
 20
-165.78863521985531
 30
0.0
 11
-147.54512348158599
 21
-165.7886185726141
 31
0.0
  0
LINE
  8
DETAIL
  6
CONTINUOUS
 62
     5
 10
146.2548907067071
 20
-165.79351981143071
 30
0.0
 11
147.25277634316549
 21
-165.79353645837261
 31
0.0
  0
LINE
  8
DETAIL
  6
CONTINUOUS
 62
     5
 10
94.395041002150379
 20
-163.70749675039801
 30
0.0
 11
93.397155365692129
 21
-163.70748010335581
 31
0.0
  0
LINE
  8
DETAIL
  6
CONTINUOUS
 62
     5
 10
-94.687318570464299
 20
-163.70434243551969
 30
0.0
 11
-93.689432934005822
 21
-163.70435908246131
 31
0.0
  0
LINE
  8
DETAIL
  6
CONTINUOUS
 62
     5
 10
-129.75104819070191
 20
-171.7952983208757
 30
0.0
 11
-45.548301564446938
 21
-171.7970802733152
 31
0.0
  0
LINE
  8
DETAIL
  6
CONTINUOUS
 62
     5
 10
-148.1464364218476
 20
-169.79952143155279
 30
0.0
 11
-148.1502228462106
 21
-107.61402400928429
 31
0.0
  0
LINE
  8
DETAIL
  6
CONTINUOUS
 62
     5
 10
-148.149925060529
 20
-89.763548976730192
 30
0.0
 11
-148.14116547879809
 21
146.16207931642759
 31
0.0
  0
LINE
  8
DETAIL
  6
CONTINUOUS
 62
     5
 10
-147.94111701754059
 20
-93.021345463030286
 30
0.0
 11
-147.94111270147889
 21
-104.13742709410459
 31
0.0
  0
LINE
  8
DETAIL
  6
CONTINUOUS
 62
     5
 10
-147.53992947831449
 20
145.56089926045149
 30
0.0
 11
-147.5451234815863
 21
-165.7886185729138
 31
0.0
  0
LINE
  8
DETAIL
  6
CONTINUOUS
 62
     5
 10
-145.55317218217141
 20
-171.4469190702535
 30
0.0
 11
-145.55317105258541
 21
-171.37920846624101
 31
0.0
  0
LINE
  8
DETAIL
  6
CONTINUOUS
 62
     5
 10
-145.5535741706409
 20
-166.81722921343609
 30
0.0
 11
-145.5535902527397
 21
-167.78125954778881
 31
0.0
  0
LINE
  8
DETAIL
  6
CONTINUOUS
 62
     5
 10
-147.54891016110491
 20
-169.45111450355321
 30
0.0
 11
-147.5451234815863
 21
-165.7886185729138
 31
0.0
  0
LINE
  8
DETAIL
  6
CONTINUOUS
 62
     5
 10
-145.55317105258541
 20
-171.37920846624101
 30
0.0
 11
-145.5535902527397
 21
-167.78125954778881
 31
0.0
  0
LINE
  8
DETAIL
  6
CONTINUOUS
 62
     5
 10
94.395330467893018
 20
-146.35574742216389
 30
0.0
 11
93.397444831534472
 21
-146.3557307752219
 31
0.0
  0
LINE
  8
DETAIL
  6
CONTINUOUS
 62
     5
 10
-94.687029104621843
 20
-146.35259310738539
 30
0.0
 11
-93.68914346826341
 21
-146.35260975442739
 31
0.0
  0
LINE
  8
DETAIL
  6
CONTINUOUS
 62
     5
 10
91.441983674673338
 20
-142.33743165420029
 30
0.0
 11
-91.733554790202049
 21
-142.33437587824989
 31
0.0
  0
LINE
  8
DETAIL
  6
CONTINUOUS
 62
     5
 10
91.442022098769939
 20
-141.7229783272829
 30
0.0
 11
-91.733566167308766
 21
-141.7199225505731
 31
0.0
  0
LINE
  8
DETAIL
  6
CONTINUOUS
 62
     5
 10
-94.687318570464299
 20
-163.70434243551969
 30
0.0
 11
-94.647445392598797
 21
-144.36738599650641
 31
0.0
  0
LINE
  8
DETAIL
  6
CONTINUOUS
 62
     5
 10
-93.689432933754517
 20
-163.70434207788841
 30
0.0
 11
-93.649268082911533
 21
-144.07074616164499
 31
0.0
  0
LINE
  8
DETAIL
  6
CONTINUOUS
 62
     5
 10
-91.733576417787219
 20
-142.3343758779441
 30
0.0
 11
-91.73356616760833
 21
-141.71992255067241
 31
0.0
  0
LINE
  8
DETAIL
  6
CONTINUOUS
 62
     5
 10
-91.679274986383859
 20
-166.81812795667071
 30
0.0
 11
-91.679258336499117
 21
-165.82009031431841
 31
0.0
  0
LINE
  8
DETAIL
  6
CONTINUOUS
 62
     5
 10
-3.575177276901627
 20
-37.948202888585122
 30
0.0
 11
3.2134325354589919
 21
-37.954877547432773
 31
0.0
  0
LINE
  8
DETAIL
  6
CONTINUOUS
 62
     5
 10
-3.5744339888539121
 20
-37.192225294887407
 30
0.0
 11
3.214175823506821
 21
-37.198899953735122
 31
0.0
  0
LINE
  8
DETAIL
  6
CONTINUOUS
 62
     5
 10
6.7872607755381296
 20
-34.995157462283878
 30
0.0
 11
-7.143178499218493
 21
-34.98146085394626
 31
0.0
  0
LINE
  8
DETAIL
  6
CONTINUOUS
 62
     5
 10
-3.5744339888539121
 20
-37.192225294887407
 30
0.0
 11
-3.575177276901627
 21
-37.948202888585122
 31
0.0
  0
LINE
  8
DETAIL
  6
CONTINUOUS
 62
     5
 10
145.62008360876141
 20
-171.79612057167529
 30
0.0
 11
145.25651916200741
 21
-171.43254399457729
 31
0.0
  0
LINE
  8
DETAIL
  6
CONTINUOUS
 62
     5
 10
3.214175823506821
 20
-37.198899953735122
 30
0.0
 11
3.2134325295706958
 21
-37.954877547426968
 31
0.0
  0
LINE
  8
DETAIL
  6
CONTINUOUS
 62
     5
 10
-148.1464364218476
 20
-169.79952143155271
 30
0.0
 11
-147.54891016110491
 21
-169.45111450355321
 31
0.0
  0
LINE
  8
DETAIL
  6
CONTINUOUS
 62
     5
 10
-145.9167487592695
 20
-171.81048351700741
 30
0.0
 11
-145.55317218217141
 21
-171.4469190702535
 31
0.0
  0
LINE
  8
DETAIL
  6
CONTINUOUS
 62
     5
 10
91.386893529954364
 20
-166.82118190801791
 30
0.0
 11
91.3869101795392
 21
-165.82314426566441
 31
0.0
  0
LINE
  8
DETAIL
  6
CONTINUOUS
 62
     5
 10
91.442011848291031
 20
-142.3374316546543
 30
0.0
 11
91.442022098769939
 21
-141.7229783272829
 31
0.0
  0
LINE
  8
DETAIL
  6
CONTINUOUS
 62
     5
 10
93.399684611989414
 20
-144.0777160437045
 30
0.0
 11
93.397155366006018
 21
-163.70746303540739
 31
0.0
  0
LINE
  8
DETAIL
  6
CONTINUOUS
 62
     5
 10
94.39727667123725
 20
-144.37631814772541
 30
0.0
 11
94.395041002150379
 21
-163.70749675039801
 31
0.0
  0
LINE
  8
DETAIL
  6
CONTINUOUS
 62
     5
 10
145.25652029159369
 20
-171.36483339046569
 30
0.0
 11
145.26117663201279
 21
-167.786110985704
 31
0.0
  0
LINE
  8
DETAIL
  6
CONTINUOUS
 62
     5
 10
147.25232372870769
 20
-169.43680601564461
 30
0.0
 11
147.25277634316549
 21
-165.79353645837261
 31
0.0
  0
LINE
  8
DETAIL
  6
CONTINUOUS
 62
     5
 10
145.26119271421129
 20
-166.822080651352
 30
0.0
 11
145.26117663141389
 21
-167.7861109857034
 31
0.0
  0
LINE
  8
DETAIL
  6
CONTINUOUS
 62
     5
 10
145.25651916200741
 20
-171.43254399457729
 30
0.0
 11
145.25652029159369
 21
-171.36483339046569
 31
0.0
  0
LINE
  8
DETAIL
  6
CONTINUOUS
 62
     5
 10
147.85508507605999
 20
-102.0907999277382
 30
0.0
 11
147.85395546148769
 21
-169.80445937717249
 31
0.0
  0
ARC
  8
DETAIL
  6
CONTINUOUS
 62
     5
 10
-91.591279326073845
 20
-146.35081159225891
 30
0.0
 40
3.095750291097632
 50
174.83920125881559
 51
180.03297207241519
  0
ARC
  8
DETAIL
  6
CONTINUOUS
 62
     5
 10
-91.444415052333738
 20
-146.348186821171
 30
0.0
 40
2.244732773288455
 50
175.13660360951539
 51
180.11299210141661
  0
ARC
  8
DETAIL
  6
CONTINUOUS
 62
     5
 10
-145.5485633343402
 20
-165.7848506633004
 30
0.0
 40
1.996487508679315
 50
180.10812850381959
 51
269.85573065411847
  0
ARC
  8
DETAIL
  6
CONTINUOUS
 62
     5
 10
-93.978872258923616
 20
-146.149086553133
 30
0.0
 40
0.2979675973667601
 50
358.39909435101822
 51
4.6797242969178159
  0
ARC
  8
DETAIL
  6
CONTINUOUS
 62
     5
 10
91.298605732029159
 20
-146.35388452724669
 30
0.0
 40
3.0967252962270919
 50
359.96553261431552
 51
5.1593034279181644
  0
ARC
  8
DETAIL
  6
CONTINUOUS
 62
     5
 10
91.152716564274442
 20
-146.3512329479461
 30
0.0
 40
2.244732773487736
 50
359.88509625631463
 51
4.8614860502196864
  0
ARC
  8
DETAIL
  6
CONTINUOUS
 62
     5
 10
93.688275769888151
 20
-146.15224672890719
 30
0.0
 40
0.2990624413672301
 50
175.3298614692186
 51
181.58749093091259
  0
ARC
  8
DETAIL
  6
CONTINUOUS
 62
     5
 10
3.218338957941
 20
-32.964691746964768
 30
0.0
 40
4.9901882125000014
 50
269.94366598331419
 51
348.63373350931897
  0
ARC
  8
DETAIL
  6
CONTINUOUS
 62
     5
 10
-3.5702708544197321
 20
-32.958017088117117
 30
0.0
 40
4.9901882125000414
 50
191.2535984573137
 51
269.94366598331419
  0
ARC
  8
DETAIL
  6
CONTINUOUS
 62
     5
 10
3.2179540277943488
 20
-33.206492803969752
 30
0.0
 40
3.992415383719047
 50
269.94577830221539
 51
333.38345953381662
  0
ARC
  8
DETAIL
  6
CONTINUOUS
 62
     5
 10
-3.5703614373003352
 20
-33.199818577946871
 30
0.0
 40
3.99241525257702
 50
206.5038709957164
 51
269.94155406701822
  0
ARC
  8
DETAIL
  6
CONTINUOUS
 62
     5
 10
145.25621423376219
 20
-165.78970003592869
 30
0.0
 40
1.996489928720915
 50
270.14241751742361
 51
359.8899054838148
  0
ARC
  8
DETAIL
  6
CONTINUOUS
 62
     5
 10
145.86037804846899
 20
-169.8042323683552
 30
0.0
 40
1.993501422968494
 50
270.00624906672232
 51
359.99347550921777
  0
CIRCLE
  8
DETAIL
  6
CONTINUOUS
 62
     5
 10
-0.1433219673594976
 20
5.1454498899282726
 30
0.0
 40
109.2979278416129
  0
ARC
  8
DETAIL
  6
CONTINUOUS
 62
     5
 10
-0.1386704819595934
 20
5.1450285553555659
 30
0.0
 40
45.909731555000207
 50
332.89102397011948
 51
44.891023970114027
  0
ARC
  8
DETAIL
  6
CONTINUOUS
 62
     5
 10
-0.1386704819594797
 20
5.1450285553558501
 30
0.0
 40
45.909731555000192
 50
260.89102397011288
 51
332.89102397011948
  0
ARC
  8
DETAIL
  6
CONTINUOUS
 62
     5
 10
-0.138670481959366
 20
5.1450285553560207
 30
0.0
 40
45.909731554999688
 50
44.891023970114027
 51
116.8910239701151
  0
ARC
  8
DETAIL
  6
CONTINUOUS
 62
     5
 10
-0.138670481959366
 20
5.1450285553556796
 30
0.0
 40
45.909731555000008
 50
188.89102397011541
 51
260.89102397011288
  0
ARC
  8
DETAIL
  6
CONTINUOUS
 62
     5
 10
-0.1386704819594797
 20
5.1450285553557364
 30
0.0
 40
45.909731554999887
 50
116.8910239701151
 51
188.89102397011541
  0
ARC
  8
DETAIL
  6
CONTINUOUS
 62
     5
 10
-0.1387169248129112
 20
5.1454498131346904
 30
0.0
 40
42.045510472006207
 50
279.68052091601248
 51
260.20543449071329
  0
ARC
  8
DETAIL
  6
CONTINUOUS
 62
     5
 10
-0.1387169248129112
 20
5.1454498131346904
 30
0.0
 40
39.843112046649168
 50
256.97013226731758
 51
283.02795609031591
  0
CIRCLE
  8
DETAIL
  6
CONTINUOUS
 62
     5
 10
-0.1387169248129112
 20
5.1454498131346904
 30
0.0
 40
39.829077301887672
  0
CIRCLE
  8
DETAIL
  6
CONTINUOUS
 62
     5
 10
-0.1387169248129112
 20
5.1454498131346904
 30
0.0
 40
24.35051156463668
  0
CIRCLE
  8
DETAIL
  6
CONTINUOUS
 62
     5
 10
-0.1387169248129112
 20
5.1454498131346904
 30
0.0
 40
23.539868732776931
  0
LINE
  8
DETAIL
  6
CONTINUOUS
 62
     5
 10
147.85787922230381
 20
68.46644493012991
 30
0.0
 11
147.85526637661141
 21
-91.222917279736237
 31
0.0
  0
LINE
  8
DETAIL
  6
CONTINUOUS
 62
     5
 10
147.25277634316549
 20
-165.79353645837261
 30
0.0
 11
147.25668527364471
 21
68.523531957899024
 31
0.0
  0
LINE
  8
DETAIL
  6
CONTINUOUS
 62
     5
 10
146.2548907067071
 20
-165.79351981143071
 30
0.0
 11
146.25880131478411
 21
68.624110577711861
 31
0.0
  0
LINE
  8
DETAIL
  6
CONTINUOUS
 62
     5
 10
48.285445217976189
 20
147.55340373044569
 30
0.0
 11
-145.54412491161449
 21
147.55663723928501
 31
0.0
  0
LINE
  8
DETAIL
  6
CONTINUOUS
 62
     5
 10
-146.14528490910001
 20
148.15781729448821
 30
0.0
 11
48.136273480580599
 21
148.1545762454725
 31
0.0
  0
LINE
  8
DETAIL
  6
CONTINUOUS
 62
     5
 10
48.53683285443401
 20
146.5555139001037
 30
0.0
 11
-145.54414155855599
 21
146.55875160292649
 31
0.0
  0
CIRCLE
  8
DETAIL
  6
CONTINUOUS
 62
     5
 10
-0.1433219673594976
 20
5.1454498899282726
 30
0.0
 40
108.78610303249999
  0
LINE
  8
DETAIL
  6
CONTINUOUS
 62
     5
 10
-178.457726792953
 20
-167.21521249244361
 30
0.0
 11
-179.8175506566844
 21
-166.87070371727731
 31
0.0
  0
LINE
  8
DETAIL
  6
CONTINUOUS
 62
     5
 10
-179.8175506566844
 20
-166.87070371727731
 30
0.0
 11
-181.06242983716189
 21
-166.81186695411509
 31
0.0
  0
LINE
  8
DETAIL
  6
CONTINUOUS
 62
     5
 10
-181.06242983716189
 20
-166.81186695411509
 30
0.0
 11
-181.06242983716189
 21
-166.81186695411509
 31
0.0
  0
LINE
  8
DETAIL
  6
CONTINUOUS
 62
     5
 10
-181.06242983716189
 20
-166.81186695411509
 30
0.0
 11
-182.11735275963781
 21
-167.17654564682471
 31
0.0
  0
LINE
  8
DETAIL
  6
CONTINUOUS
 62
     5
 10
-182.11735275963781
 20
-167.17654564682471
 30
0.0
 11
-183.06704028339271
 21
-167.51126896672761
 31
0.0
  0
LINE
  8
DETAIL
  6
CONTINUOUS
 62
     5
 10
-183.06704028339271
 20
-167.51126896672761
 30
0.0
 11
-183.06704028339271
 21
-167.51126896672761
 31
0.0
  0
LINE
  8
DETAIL
  6
CONTINUOUS
 62
     5
 10
-183.06704028339271
 20
-167.51126896672761
 30
0.0
 11
-184.0137525008281
 21
-167.36755864728039
 31
0.0
  0
LINE
  8
DETAIL
  6
CONTINUOUS
 62
     5
 10
-184.0137525008281
 20
-167.36755864728039
 30
0.0
 11
-184.97017400279731
 21
-166.9082209430222
 31
0.0
  0
LINE
  8
DETAIL
  6
CONTINUOUS
 62
     5
 10
-178.4553707284681
 20
-164.8189248550371
 30
0.0
 11
-179.81519459219959
 21
-164.47441607987031
 31
0.0
  0
LINE
  8
DETAIL
  6
CONTINUOUS
 62
     5
 10
-179.81519459219959
 20
-164.47441607987031
 30
0.0
 11
-181.06007377267699
 21
-164.41557931670809
 31
0.0
  0
LINE
  8
DETAIL
  6
CONTINUOUS
 62
     5
 10
-181.06007377267699
 20
-164.41557931670809
 30
0.0
 11
-181.06007377267699
 21
-164.41557931670809
 31
0.0
  0
LINE
  8
DETAIL
  6
CONTINUOUS
 62
     5
 10
-181.06007377267699
 20
-164.41557931670809
 30
0.0
 11
-182.11499669515291
 21
-164.78025800941771
 31
0.0
  0
LINE
  8
DETAIL
  6
CONTINUOUS
 62
     5
 10
-182.11499669515291
 20
-164.78025800941771
 30
0.0
 11
-183.0646842189077
 21
-165.1149813293207
 31
0.0
  0
LINE
  8
DETAIL
  6
CONTINUOUS
 62
     5
 10
-183.0646842189077
 20
-165.1149813293207
 30
0.0
 11
-183.0646842189077
 21
-165.1149813293207
 31
0.0
  0
LINE
  8
DETAIL
  6
CONTINUOUS
 62
     5
 10
-183.0646842189077
 20
-165.1149813293207
 30
0.0
 11
-184.0113964363432
 21
-164.97127100987331
 31
0.0
  0
LINE
  8
DETAIL
  6
CONTINUOUS
 62
     5
 10
-184.0113964363432
 20
-164.97127100987331
 30
0.0
 11
-184.96781793831241
 21
-164.51193330561509
 31
0.0
  0
LINE
  8
DETAIL
  6
CONTINUOUS
 62
     5
 10
-161.81098319236821
 20
-205.8249643519174
 30
0.0
 11
-161.80603545695001
 21
-200.79276031336289
 31
0.0
  0
ARC
  8
DETAIL
  6
CONTINUOUS
 62
     5
 10
-165.88748081185349
 20
-203.3048518291823
 30
0.0
 40
4.7925775913297004
 50
328.27542272977541
 51
31.61190923685389
  0
LINE
  8
DETAIL
  6
CONTINUOUS
 62
     5
 10
-183.0392782888249
 20
-181.32199669081109
 30
0.0
 11
-183.02569361868609
 21
-167.50540664370561
 31
0.0
  0
LINE
  8
DETAIL
  6
CONTINUOUS
 62
     5
 10
-180.6429906514183
 20
-181.32435275529599
 30
0.0
 11
-180.62869259105389
 21
-166.78219335763899
 31
0.0
  0
LINE
  8
DETAIL
  6
CONTINUOUS
 62
     5
 10
-174.67740291240631
 20
-206.8906443821817
 30
0.0
 11
-183.46379091623149
 21
-206.8820054790705
 31
0.0
  0
ARC
  8
DETAIL
  6
CONTINUOUS
 62
     5
 10
-185.8601736581895
 20
-206.97637760771661
 30
0.0
 40
1.5975258637766561
 50
179.9436659833174
 51
266.36733160831687
  0
CIRCLE
  8
DETAIL
  6
CONTINUOUS
 62
     5
 10
-165.3283470297919
 20
-203.30540157756209
 30
0.0
 40
1.5575877171821439
  0
CIRCLE
  8
DETAIL
  6
CONTINUOUS
 62
     5
 10
-165.3283470297919
 20
-203.30540157756209
 30
0.0
 40
1.238082544426836
  0
LINE
  8
DETAIL
  6
CONTINUOUS
 62
     5
 10
-161.81098319236821
 20
-205.8249643519174
 30
0.0
 11
-174.6763426833881
 21
-205.81231494534839
 31
0.0
  0
LINE
  8
DETAIL
  6
CONTINUOUS
 62
     5
 10
-174.67975897689109
 20
-209.28693201958839
 30
0.0
 11
-185.9613921863164
 21
-208.57069366640749
 31
0.0
  0
LINE
  8
DETAIL
  6
CONTINUOUS
 62
     5
 10
-180.6429906514183
 20
-181.32435275529599
 30
0.0
 11
-180.64290179634679
 21
-181.23398073421981
 31
0.0
  0
LINE
  8
DETAIL
  6
CONTINUOUS
 62
     5
 10
-183.0392782888249
 20
-181.32199669081109
 30
0.0
 11
-183.03918943375359
 21
-181.23162466973491
 31
0.0
  0
LINE
  8
DETAIL
  6
CONTINUOUS
 62
     5
 10
-183.46379091623149
 20
-206.8820054790705
 30
0.0
 11
-183.45672272277679
 21
-199.6931425668495
 31
0.0
  0
LINE
  8
DETAIL
  6
CONTINUOUS
 62
     5
 10
-174.67033471895161
 20
-199.70178146996071
 30
0.0
 11
-183.45672272277679
 21
-199.6931425668495
 31
0.0
  0
LINE
  8
DETAIL
  6
CONTINUOUS
 62
     5
 10
-181.0498327951878
 20
-188.91220426300359
 30
0.0
 11
-181.0486547629454
 21
-187.71406044430009
 31
0.0
  0
LINE
  8
DETAIL
  6
CONTINUOUS
 62
     5
 10
-181.04512066621811
 20
-184.1196289881897
 30
0.0
 11
-181.04394263397569
 21
-182.9214851694862
 31
0.0
  0
LINE
  8
DETAIL
  6
CONTINUOUS
 62
     5
 10
-182.64500182230771
 20
-186.51434591594011
 30
0.0
 11
-182.64382379006531
 21
-185.3162020972367
 31
0.0
  0
LINE
  8
DETAIL
  6
CONTINUOUS
 62
     5
 10
-181.0545449241576
 20
-193.7047795378173
 30
0.0
 11
-181.05336689191509
 21
-192.5066357191138
 31
0.0
  0
LINE
  8
DETAIL
  6
CONTINUOUS
 62
     5
 10
-182.64971395127739
 20
-191.30692119075371
 30
0.0
 11
-182.648535919035
 21
-190.10877737205061
 31
0.0
  0
LINE
  8
DETAIL
  6
CONTINUOUS
 62
     5
 10
-178.00045283726649
 20
-193.70778236510199
 30
0.0
 11
-181.85330746995999
 21
-193.70399418298899
 31
0.0
  0
LINE
  8
DETAIL
  6
CONTINUOUS
 62
     5
 10
-178.14023290134219
 20
-192.50949995436989
 30
0.0
 11
-181.85212943771759
 21
-192.50585036428549
 31
0.0
  0
LINE
  8
DETAIL
  6
CONTINUOUS
 62
     5
 10
-181.85095140547509
 20
-191.30770654558199
 30
0.0
 11
-185.4218898455326
 21
-191.30419554752609
 31
0.0
  0
LINE
  8
DETAIL
  6
CONTINUOUS
 62
     5
 10
-181.84977337323269
 20
-190.10956272687889
 30
0.0
 11
-185.27975371697201
 21
-190.10619032085151
 31
0.0
  0
LINE
  8
DETAIL
  6
CONTINUOUS
 62
     5
 10
-178.55957309356901
 20
-188.9146527221742
 30
0.0
 11
-181.8485953409903
 21
-188.91141890817539
 31
0.0
  0
LINE
  8
DETAIL
  6
CONTINUOUS
 62
     5
 10
-178.69935315764459
 20
-187.7163703114422
 30
0.0
 11
-181.84741730874791
 21
-187.71327508947189
 31
0.0
  0
LINE
  8
DETAIL
  6
CONTINUOUS
 62
     5
 10
-181.8462392765054
 20
-186.51513127076831
 30
0.0
 11
-184.85334533129031
 21
-186.51217464082649
 31
0.0
  0
LINE
  8
DETAIL
  6
CONTINUOUS
 62
     5
 10
-181.84506124426301
 20
-185.31698745206501
 30
0.0
 11
-184.7112092027298
 21
-185.31416941415171
 31
0.0
  0
LINE
  8
DETAIL
  6
CONTINUOUS
 62
     5
 10
-179.11869334987151
 20
-184.12152307924609
 30
0.0
 11
-181.8438832120205
 21
-184.11884363336139
 31
0.0
  0
LINE
  8
DETAIL
  6
CONTINUOUS
 62
     5
 10
-179.25847341394689
 20
-182.9232406685141
 30
0.0
 11
-181.84270517977811
 21
-182.92069981465789
 31
0.0
  0
ARC
  8
DETAIL
  6
CONTINUOUS
 62
     5
 10
-179.80038913716939
 20
-181.72456287221581
 30
0.0
 40
0.3993814659442887
 50
6.6535027910609497
 51
89.943665983314148
  0
ARC
  8
DETAIL
  6
CONTINUOUS
 62
     5
 10
-183.8826651579021
 20
-181.720549119693
 30
0.0
 40
0.3993814659441091
 50
89.943665983314148
 51
173.23382917556461
  0
ARC
  8
DETAIL
  6
CONTINUOUS
 62
     5
 10
-177.06362665867439
 20
-196.65258463705791
 30
0.0
 40
0.7987629318882142
 50
179.9436659833174
 51
273.52000035832208
  0
ARC
  8
DETAIL
  6
CONTINUOUS
 62
     5
 10
-186.64945648253561
 20
-197.33403130362689
 30
0.0
 40
0.7987629318882462
 50
289.41488661779613
 51
359.94366598331737
  0
LINE
  8
DETAIL
  6
CONTINUOUS
 62
     5
 10
-177.86067277319111
 20
-194.9060647758339
 30
0.0
 11
-179.40369750371309
 21
-181.67828865384669
 31
0.0
  0
LINE
  8
DETAIL
  6
CONTINUOUS
 62
     5
 10
-185.8482982312139
 20
-194.89821122755151
 30
0.0
 11
-184.27926502951979
 21
-181.67349492570159
 31
0.0
  0
LINE
  8
DETAIL
  6
CONTINUOUS
 62
     5
 10
-179.79999645975519
 20
-181.3251815993149
 30
0.0
 11
-183.8822724804879
 21
-181.32116784679209
 31
0.0
  0
LINE
  8
DETAIL
  6
CONTINUOUS
 62
     5
 10
-177.86238920447681
 20
-196.6517992822296
 30
0.0
 11
-177.86067277319111
 21
-194.9060647758339
 31
0.0
  0
LINE
  8
DETAIL
  6
CONTINUOUS
 62
     5
 10
-185.85069393673339
 20
-197.3348166584552
 30
0.0
 11
-185.8482982312139
 21
-194.89821122755151
 31
0.0
  0
ARC
  8
DETAIL
  6
CONTINUOUS
 62
     5
 10
-185.8529152556323
 20
-199.5940583092335
 30
0.0
 40
1.5975258637765479
 50
93.520000358315613
 51
179.9436659833174
  0
LINE
  8
DETAIL
  6
CONTINUOUS
 62
     5
 10
-161.80603545695001
 20
-200.79276031336289
 30
0.0
 11
-174.67139494796979
 21
-200.78011090679391
 31
0.0
  0
LINE
  8
DETAIL
  6
CONTINUOUS
 62
     5
 10
-185.95099848211359
 20
-197.99954629418991
 30
0.0
 11
-174.66797865446679
 21
-197.30549383255411
 31
0.0
  0
LINE
  8
DETAIL
  6
CONTINUOUS
 62
     5
 10
-187.45769874979419
 20
-206.97480689806011
 30
0.0
 11
-187.45044034723699
 21
-199.59248759957691
 31
0.0
  0
LINE
  8
DETAIL
  6
CONTINUOUS
 62
     5
 10
-174.67975897689109
 20
-209.28693201958839
 30
0.0
 11
-174.66797865446679
 21
-197.30549383255411
 31
0.0
  0
LINE
  8
DETAIL
  6
CONTINUOUS
 62
     5
 10
-165.5166773602102
 20
-97.726659714032422
 30
0.0
 11
-165.52153779631459
 21
-102.6700740495
 31
0.0
  0
LINE
  8
DETAIL
  6
CONTINUOUS
 62
     5
 10
-165.5166773602102
 20
-97.726659714032422
 30
0.0
 11
-147.94029343775719
 21
-97.743941067608546
 31
0.0
  0
LINE
  8
DETAIL
  6
CONTINUOUS
 62
     5
 10
-165.52153779631459
 20
-102.6700740495
 30
0.0
 11
-147.9396869754124
 21
-102.6873607782093
 31
0.0
  0
LINE
  8
DETAIL
  6
CONTINUOUS
 62
     5
 10
-172.8135822085878
 20
-99.060346277470103
 30
0.0
 11
-165.51799571274981
 21
-99.067519403087715
 31
0.0
  0
LINE
  8
DETAIL
  6
CONTINUOUS
 62
     5
 10
-172.81546736487951
 20
-100.9773763870962
 30
0.0
 11
-165.51988056433771
 21
-100.98454951301341
 31
0.0
  0
LINE
  8
DETAIL
  6
CONTINUOUS
 62
     5
 10
-180.8659732563419
 20
-164.3934622376446
 30
0.0
 11
-180.81094637118551
 21
-108.9571482968361
 31
0.0
  0
LINE
  8
DETAIL
  6
CONTINUOUS
 62
     5
 10
-182.78365393231991
 20
-165.05355992430779
 30
0.0
 11
-182.72797617640711
 21
-108.9552634455478
 31
0.0
  0
ARC
  8
DETAIL
  6
CONTINUOUS
 62
     5
 10
-172.82332091316241
 20
-108.965001845119
 30
0.0
 40
7.987629318882874
 50
89.943665983314148
 51
179.9436659833174
  0
ARC
  8
DETAIL
  6
CONTINUOUS
 62
     5
 10
-172.8233206084586
 20
-108.9650018454186
 30
0.0
 40
9.9046603554147516
 50
89.943665983314148
 51
179.9436659833174
  0
LINE
  8
DETAIL
  6
CONTINUOUS
 62
     5
 10
147.85499105574959
 20
-84.238489332460688
 30
0.0
 11
147.85883456764091
 21
146.1571413774715
 31
0.0
  0
LINE
  8
DETAIL
  6
CONTINUOUS
 62
     5
 10
147.25757850944839
 20
145.55598138174
 30
0.0
 11
147.25238450655249
 21
-165.7935364516247
 31
0.0
  0
LINE
  8
DETAIL
  6
CONTINUOUS
 62
     5
 10
146.2596928730899
 20
145.55599802870651
 30
0.0
 11
146.25449887019391
 21
-165.79351980465859
 31
0.0
  0
LINE
  8
DETAIL
  6
CONTINUOUS
 62
     5
 10
-48.567729599026563
 20
147.5550194570163
 30
0.0
 11
145.26184053056389
 21
147.5517859483889
 31
0.0
  0
LINE
  8
DETAIL
  6
CONTINUOUS
 62
     5
 10
145.86302058575819
 20
148.1529459458834
 30
0.0
 11
-48.418537803922391
 21
148.15618699467569
 31
0.0
  0
LINE
  8
DETAIL
  6
CONTINUOUS
 62
     5
 10
-48.819150529392182
 20
146.5571380146408
 30
0.0
 11
145.2618238835978
 21
146.55390031203081
 31
0.0
  0
ARC
  8
DETAIL
  6
CONTINUOUS
 62
     5
 10
145.25621349909781
 20
-165.7904472425972
 30
0.0
 40
1.996489928720915
 50
270.14241751741707
 51
359.8899054838148
  0
ARC
  8
DETAIL
  6
CONTINUOUS
 62
     5
 10
-145.54421868954711
 20
145.56017851110661
 30
0.0
 40
0.997823122991688
 50
89.995613277696336
 51
180.0024750771189
  0
ARC
  8
DETAIL
  6
CONTINUOUS
 62
     5
 10
-145.5438550212005
 20
145.55981483073731
 30
0.0
 40
1.996075220327189
 50
90.007768082414074
 51
179.9903202752192
  0
ARC
  8
DETAIL
  6
CONTINUOUS
 62
     5
 10
-145.54856406900481
 20
-165.785597869969
 30
0.0
 40
1.996487508679315
 50
180.10812850382609
 51
269.85573065411847
  0
LINE
  8
DETAIL
  6
CONTINUOUS
 62
     5
 10
-148.14091081101529
 20
146.19262012660579
 30
0.0
 11
-148.14115786437489
 21
146.16133210963369
 31
0.0
  0
LINE
  8
DETAIL
  6
CONTINUOUS
 62
     5
 10
-146.14528564256969
 20
148.15713586152481
 30
0.0
 11
-146.18841019373579
 21
148.15667160665251
 31
0.0
  0
LINE
  8
DETAIL
  6
CONTINUOUS
 62
     5
 10
-146.5420445766205
 20
145.56013540684151
 30
0.0
 11
-147.53993021297899
 21
145.56015205378301
 31
0.0
  0
LINE
  8
DETAIL
  6
CONTINUOUS
 62
     5
 10
147.85508507605999
 20
-102.0907999277382
 30
0.0
 11
147.85526637661141
 21
-91.222917279736237
 31
0.0
  0
LINE
  8
DETAIL
  6
CONTINUOUS
 62
     5
 10
145.2565184273428
 20
-171.43329120124579
 30
0.0
 11
145.25651955692931
 21
-171.36558059713431
 31
0.0
  0
LINE
  8
DETAIL
  6
CONTINUOUS
 62
     5
 10
145.26119197954679
 20
-166.8228278580205
 30
0.0
 11
145.26117589674971
 21
-167.78685819237199
 31
0.0
  0
LINE
  8
DETAIL
  6
CONTINUOUS
 62
     5
 10
147.25232299404311
 20
-169.43755322231311
 30
0.0
 11
147.25277560850131
 21
-165.79428366504121
 31
0.0
  0
LINE
  8
DETAIL
  6
CONTINUOUS
 62
     5
 10
145.25651955692931
 20
-171.36558059713431
 30
0.0
 11
145.26117589734861
 21
-167.78685819237259
 31
0.0
  0
LINE
  8
DETAIL
  6
CONTINUOUS
 62
     5
 10
-145.54412564627879
 20
147.5558900326165
 30
0.0
 11
-146.14528564376431
 21
148.15707008781919
 31
0.0
  0
LINE
  8
DETAIL
  6
CONTINUOUS
 62
     5
 10
-147.53993021297899
 20
145.56015205378301
 30
0.0
 11
-148.1410902104646
 21
146.161332108886
 31
0.0
  0
LINE
  8
DETAIL
  6
CONTINUOUS
 62
     5
 10
147.8538794585123
 20
-169.8044593760292
 30
0.0
 11
147.25232299404311
 21
-169.43755322231311
 31
0.0
  0
LINE
  8
DETAIL
  6
CONTINUOUS
 62
     5
 10
145.62008287409719
 20
-171.79686777834391
 30
0.0
 11
145.2565184273428
 21
-171.43329120124579
 31
0.0
  0
LINE
  8
DETAIL
  6
CONTINUOUS
 62
     5
 10
-145.55317178724991
 20
-171.3799556729096
 30
0.0
 11
-145.55359098740419
 21
-167.78200675445771
 31
0.0
  0
LINE
  8
DETAIL
  6
CONTINUOUS
 62
     5
 10
-147.5489108957689
 20
-169.45186171022169
 30
0.0
 11
-147.5451242162508
 21
-165.7893657795822
 31
0.0
  0
LINE
  8
DETAIL
  6
CONTINUOUS
 62
     5
 10
-145.5441422932204
 20
146.55800439625801
 30
0.0
 11
-145.54412564627879
 21
147.5558900326165
 31
0.0
  0
LINE
  8
DETAIL
  6
CONTINUOUS
 62
     5
 10
-147.94111775220469
 20
-93.02209266969885
 30
0.0
 11
-147.9411134361435
 21
-104.1381743007731
 31
0.0
  0
LINE
  8
DETAIL
  6
CONTINUOUS
 62
     5
 10
146.25488997204249
 20
-165.79426701809959
 30
0.0
 11
147.25277560850131
 21
-165.79428366504121
 31
0.0
  0
ARC
  8
DETAIL
  6
CONTINUOUS
 62
     5
 10
145.2618662533454
 20
145.55532721821291
 30
0.0
 40
0.997823122991688
 50
359.99561328057553
 51
90.002475079971958
  0
ARC
  8
DETAIL
  6
CONTINUOUS
 62
     5
 10
145.26150257286449
 20
145.55496354997749
 30
0.0
 40
1.996075220327189
 50
0.007768082469453
 51
89.990320275268061
  0
LINE
  8
DETAIL
  6
CONTINUOUS
 62
     5
 10
147.8585794744362
 20
146.18768219614961
 30
0.0
 11
147.85882548388801
 21
146.15639417095201
 31
0.0
  0
LINE
  8
DETAIL
  6
CONTINUOUS
 62
     5
 10
145.86301985209269
 20
148.15226451291619
 30
0.0
 11
145.9061443877456
 21
148.15179881921679
 31
0.0
  0
LINE
  8
DETAIL
  6
CONTINUOUS
 62
     5
 10
146.25969213842461
 20
145.55525082203351
 30
0.0
 11
147.25757777478319
 21
145.55523417506689
 31
0.0
  0
LINE
  8
DETAIL
  6
CONTINUOUS
 62
     5
 10
145.26183979589871
 20
147.55103874171579
 30
0.0
 11
145.86301985109279
 21
148.15219873921029
 31
0.0
  0
LINE
  8
DETAIL
  6
CONTINUOUS
 62
     5
 10
147.25757777478319
 20
145.55523417506689
 30
0.0
 11
147.85875782997741
 21
146.1563941724614
 31
0.0
  0
LINE
  8
DETAIL
  6
CONTINUOUS
 62
     5
 10
145.26182314893211
 20
146.5531531053573
 30
0.0
 11
145.26183979589871
 21
147.55103874171579
 31
0.0
  0
ARC
  8
DETAIL
  6
CONTINUOUS
 62
     5
 10
53.1978964507299
 20
44.483529197390681
 30
0.0
 40
74.43351127333446
 50
120.2844854385332
 51
177.41840332124289
  0
ARC
  8
DETAIL
  6
CONTINUOUS
 62
     5
 10
-24.270437731383709
 20
47.809716592090922
 30
0.0
 40
3.1104788227151201
 50
296.88315606417581
 51
0.4873244067966185
  0
ARC
  8
DETAIL
  6
CONTINUOUS
 62
     5
 10
-2.4789096609366652
 20
1.5464657471960661
 30
0.0
 40
108.73664816259461
 50
34.212855785722113
 51
80.396487747686862
  0
ARC
  8
DETAIL
  6
CONTINUOUS
 62
     5
 10
84.901904144124501
 20
61.04765066837399
 30
0.0
 40
3.021916330610964
 50
260.72627184591278
 51
32.823871254645731
  0
ARC
  8
DETAIL
  6
CONTINUOUS
 62
     5
 10
75.243032689980964
 20
29.603264040679509
 30
0.0
 40
29.903295599344709
 50
72.138433742193399
 51
101.3050754021105
  0
ARC
  8
DETAIL
  6
CONTINUOUS
 62
     5
 10
65.748192890747873
 20
73.264812986362074
 30
0.0
 40
14.791506545392281
 50
250.681438818836
 51
284.21734570946398
  0
ARC
  8
DETAIL
  6
CONTINUOUS
 62
     5
 10
54.548115626625297
 20
47.301098172915538
 30
0.0
 40
13.560847459991111
 50
62.285219331715687
 51
98.168725450938993
  0
ARC
  8
DETAIL
  6
CONTINUOUS
 62
     5
 10
53.997188514952313
 20
12.83542545063546
 30
0.0
 40
47.908692864838287
 50
91.645734440262217
 51
126.6351630549722
  0
ARC
  8
DETAIL
  6
CONTINUOUS
 62
     5
 10
28.30125568426638
 20
47.286387700790897
 30
0.0
 40
4.9313910661161833
 50
125.48628639479421
 51
236.8696216612793
  0
ARC
  8
DETAIL
  6
CONTINUOUS
 62
     5
 10
-21.07024486999239
 20
68.027203162737692
 30
0.0
 40
74.433511273334432
 50
192.28448543853301
 51
249.4184033212529
  0
ARC
  8
DETAIL
  6
CONTINUOUS
 62
     5
 10
-48.172668854331498
 20
-4.6217124362541986
 30
0.0
 40
3.1104788227151192
 50
8.8831560641865046
 51
72.487324406802685
  0
ARC
  8
DETAIL
  6
CONTINUOUS
 62
     5
 10
2.5602498338698751
 20
1.8071316090695291
 30
0.0
 40
108.73664816259461
 50
106.2128557857292
 51
152.3964877476885
  0
ARC
  8
DETAIL
  6
CONTINUOUS
 62
     5
 10
-27.026583364622411
 20
103.2981013036372
 30
0.0
 40
3.021916330610964
 50
332.72627184592409
 51
104.8238712546374
  0
ARC
  8
DETAIL
  6
CONTINUOUS
 62
     5
 10
-0.1059499872632159
 20
84.395118821462518
 30
0.0
 40
29.903295599344709
 50
144.1384337422169
 51
173.30507540211269
  0
ARC
  8
DETAIL
  6
CONTINUOUS
 62
     5
 10
-44.564617480425113
 20
88.857150184172895
 30
0.0
 40
14.791506545392281
 50
322.68143881884401
 51
356.21734570946211
  0
ARC
  8
DETAIL
  6
CONTINUOUS
 62
     5
 10
-23.33267153279348
 20
70.18201460466048
 30
0.0
 40
13.560847459991111
 50
134.28521933169759
 51
170.16872545093901
  0
ARC
  8
DETAIL
  6
CONTINUOUS
 62
     5
 10
9.2758852580579969
 20
59.007573191350623
 30
0.0
 40
47.908692864838287
 50
163.64573444027229
 51
198.63516305497461
  0
ARC
  8
DETAIL
  6
CONTINUOUS
 62
     5
 10
-31.429406813589711
 20
45.215221638311959
 30
0.0
 40
4.9313910661161824
 50
197.48628639476971
 51
308.86962166129649
  0
ARC
  8
DETAIL
  6
CONTINUOUS
 62
     5
 10
-66.411725365893631
 20
4.6693988139508056
 30
0.0
 40
74.43351127333446
 50
264.28448543853699
 51
321.41840332125417
  0
ARC
  8
DETAIL
  6
CONTINUOUS
 62
     5
 10
-5.6936103836117127
 20
-43.556287666748972
 30
0.0
 40
3.1104788227151201
 50
80.883156064181406
 51
144.48732440680041
  0
ARC
  8
DETAIL
  6
CONTINUOUS
 62
     5
 10
3.8695296437343809
 20
6.6802073065281888
 30
0.0
 40
108.73664816259461
 50
178.21285578572801
 51
224.3964877476833
  0
ARC
  8
DETAIL
  6
CONTINUOUS
 62
     5
 10
-101.796952697469
 20
9.9038912077787131
 30
0.0
 40
3.021916330610964
 50
44.726271845950343
 51
176.82387125465689
  0
ARC
  8
DETAIL
  6
CONTINUOUS
 62
     5
 10
-75.50021481744227
 20
29.665592172745509
 30
0.0
 40
29.903295599344709
 50
216.13843374219871
 51
245.3050754021196
  0
ARC
  8
DETAIL
  6
CONTINUOUS
 62
     5
 10
-93.482342623513262
 20
-11.238269731914389
 30
0.0
 40
14.791506545392281
 50
34.68143881884815
 51
68.217345709448679
  0
ARC
  8
DETAIL
  6
CONTINUOUS
 62
     5
 10
-69.160201116454175
 20
3.1835765488813759
 30
0.0
 40
13.560847459991111
 50
206.28521933169449
 51
242.16872545095259
  0
ARC
  8
DETAIL
  6
CONTINUOUS
 62
     5
 10
-48.45607758395397
 20
30.743064672441449
 30
0.0
 40
47.908692864838287
 50
235.64573444026479
 51
270.63516305495108
  0
ARC
  8
DETAIL
  6
CONTINUOUS
 62
     5
 10
-47.917398775537777
 20
-12.23203962227927
 30
0.0
 40
4.9313910661161833
 50
269.48628639477772
 51
20.869621661276909
  0
ARC
  8
DETAIL
  6
CONTINUOUS
 62
     5
 10
-20.16616271059252
 20
-58.031551668003857
 30
0.0
 40
74.43351127333446
 50
336.2844854385412
 51
33.418403321244298
  0
ARC
  8
DETAIL
  6
CONTINUOUS
 62
     5
 10
44.46212006562132
 20
-15.187749444880639
 30
0.0
 40
3.1104788227151201
 50
152.88315606418331
 51
216.4873244067783
  0
ARC
  8
DETAIL
  6
CONTINUOUS
 62
     5
 10
-0.3604530465054268
 20
9.4312678789441406
 30
0.0
 40
108.73664816259461
 50
250.21285578574449
 51
296.39648774767198
  0
ARC
  8
DETAIL
  6
CONTINUOUS
 62
     5
 10
-36.079097406517462
 20
-90.067355595664822
 30
0.0
 40
3.021916330610964
 50
116.7262718459279
 51
248.82387125466889
  0
ARC
  8
DETAIL
  6
CONTINUOUS
 62
     5
 10
-46.747452980773907
 20
-58.950970241629143
 30
0.0
 40
29.903295599344709
 50
288.13843374219948
 51
317.30507540212238
  0
ARC
  8
DETAIL
  6
CONTINUOUS
 62
     5
 10
-13.40235166180832
 20
-88.692978532551081
 30
0.0
 40
14.791506545392281
 50
106.6814388188449
 51
140.21734570945009
  0
ARC
  8
DETAIL
  6
CONTINUOUS
 62
     5
 10
-19.602387478892521
 20
-61.104651770980922
 30
0.0
 40
13.560847459991111
 50
278.28521933169912
 51
314.16872545094992
  0
ARC
  8
DETAIL
  6
CONTINUOUS
 62
     5
 10
-39.415092219382252
 20
-32.897509984761882
 30
0.0
 40
47.908692864838287
 50
307.64573444024637
 51
342.63516305496017
  0
ARC
  8
DETAIL
  6
CONTINUOUS
 62
     5
 10
1.623121664885957
 20
-45.665233555931927
 30
0.0
 40
4.9313910661161833
 50
341.48628639479091
 51
92.869621661288221
  0
ARC
  8
DETAIL
  6
CONTINUOUS
 62
     5
 10
53.756650364765278
 20
-33.425066207203663
 30
0.0
 40
74.43351127333446
 50
48.284485438539079
 51
105.4184033212286
  0
ARC
  8
DETAIL
  6
CONTINUOUS
 62
     5
 10
32.981010772722932
 20
41.279546254664069
 30
0.0
 40
3.1104788227151201
 50
224.88315606417311
 51
288.48732440678941
  0
ARC
  8
DETAIL
  6
CONTINUOUS
 62
     5
 10
-4.2840029011446177
 20
6.2584407571332576
 30
0.0
 40
108.73664816259461
 50
322.21285578571582
 51
8.3964877476779147
  0
ARC
  8
DETAIL
  6
CONTINUOUS
 62
     5
 10
79.307143193501588
 20
-58.458774285253668
 30
0.0
 40
3.021916330610964
 50
188.7262718459296
 51
320.82387125467261
  0
ARC
  8
DETAIL
  6
CONTINUOUS
 62
     5
 10
46.416998964514853
 20
-58.989491494386982
 30
0.0
 40
29.903295599344709
 50
0.138433742198656
 51
29.30507540212966
  0
ARC
  8
DETAIL
  6
CONTINUOUS
 62
     5
 10
85.007532744015521
 20
-36.467201607198092
 30
0.0
 40
14.791506545392281
 50
178.68143881885209
 51
212.21734570946981
  0
ARC
  8
DETAIL
  6
CONTINUOUS
 62
     5
 10
56.853558370531573
 20
-33.83852425660524
 30
0.0
 40
13.560847459991111
 50
350.28521933170259
 51
26.16872545093408
  0
ARC
  8
DETAIL
  6
CONTINUOUS
 62
     5
 10
23.90450989934266
 20
-43.965040030794427
 30
0.0
 40
47.908692864838287
 50
19.64573444027176
 51
54.635163054976061
  0
ARC
  8
DETAIL
  6
CONTINUOUS
 62
     5
 10
48.728842108991898
 20
-8.8808228620201817
 30
0.0
 40
4.9313910661161833
 50
53.486286394794362
 51
164.86962166128151
  0
ARC
  8
DETAIL
  6
CONTINUOUS
 62
     5
 10
-14.603803849139689
 20
1.0568646915664319
 30
0.0
 40
30.93556718906687
 50
189.6735878187387
 51
201.88711338104761
  0
ARC
  8
DETAIL
  6
CONTINUOUS
 62
     5
 10
-146.19910325205049
 20
146.21476719418541
 30
0.0
 40
1.941933852801166
 50
89.684505109813585
 51
180.65345223174009
  0
ARC
  8
DETAIL
  6
CONTINUOUS
 62
     5
 10
145.8626826279957
 20
146.15612354734719
 30
0.0
 40
1.996075220327189
 50
0.007768082469453
 51
89.990320275268061
  0
ARC
  8
DETAIL
  6
CONTINUOUS
 62
     5
 10
145.15955786702
 20
-165.73034978494141
 30
0.0
 40
1.0971954397407151
 50
275.31497438844559
 51
356.66033770899821
  0
ARC
  8
DETAIL
  6
CONTINUOUS
 62
     5
 10
144.69773520246659
 20
-168.8786847647645
 30
0.0
 40
2.615005303573025
 50
282.3382967526494
 51
347.65979160642507
  0
ARC
  8
DETAIL
  6
CONTINUOUS
 62
     5
 10
90.637968707073924
 20
-145.2144109879855
 30
0.0
 40
2.9864946234369301
 50
22.371580989795081
 51
74.382338619894853
  0
ARC
  8
DETAIL
  6
CONTINUOUS
 62
     5
 10
91.631449785993482
 20
-144.485205515969
 30
0.0
 40
2.7679694395169361
 50
2.2545035247539689
 51
93.924154223118009
  0
ARC
  8
DETAIL
  6
CONTINUOUS
 62
     5
 10
91.403040792414231
 20
-163.82634649027051
 30
0.0
 40
1.9976101160481861
 50
269.5373130271837
 51
3.3903813729583669
  0
ARC
  8
DETAIL
  6
CONTINUOUS
 62
     5
 10
91.3276526022388
 20
-163.75476079446071
 30
0.0
 40
3.0677403581575708
 50
271.10648999928179
 51
0.868822094137883
  0
ARC
  8
DETAIL
  6
CONTINUOUS
 62
     5
 10
-90.88979274503987
 20
-145.21286962060029
 30
0.0
 40
2.9864946234369301
 50
105.50499334674009
 51
157.51575097683909
  0
ARC
  8
DETAIL
  6
CONTINUOUS
 62
     5
 10
-91.881837973905363
 20
-144.48171195054829
 30
0.0
 40
2.7679694395169361
 50
85.963177743514166
 51
177.63282844187859
  0
ARC
  8
DETAIL
  6
CONTINUOUS
 62
     5
 10
-91.691462361374192
 20
-163.82326467990049
 30
0.0
 40
1.9976101160481861
 50
176.4969505936732
 51
270.35001893942268
  0
ARC
  8
DETAIL
  6
CONTINUOUS
 62
     5
 10
-92.040384269262347
 20
-164.16028079863489
 30
0.0
 40
2.6827455460497149
 50
170.1052043711519
 51
277.69414746869961
  0
ARC
  8
DETAIL
  6
CONTINUOUS
 62
     5
 10
-145.44979197637039
 20
-165.72495310862541
 30
0.0
 40
1.0971954397407151
 50
183.22699425763611
 51
264.5723575781879
  0
ARC
  8
DETAIL
  6
CONTINUOUS
 62
     5
 10
-145.57740312842691
 20
-169.41220132838239
 30
0.0
 40
1.9679035337892721
 50
179.07105894550389
 51
270.70551662868581
  0
ARC
  8
DETAIL
  6
CONTINUOUS
 62
     5
 10
-146.14860815695781
 20
-169.79757757101169
 30
0.0
 40
1.9977494439899799
 50
179.95758533710369
 51
269.94223002391658
  0
LINE
  8
DETAIL
  6
CONTINUOUS
 62
     5
 10
-148.15022358087481
 20
-107.6147712159528
 30
0.0
 11
-147.9411134361435
 21
-104.1381743007731
 31
0.0
  0
LINE
  8
DETAIL
  6
CONTINUOUS
 62
     5
 10
-148.14992579519321
 20
-89.764296183398699
 30
0.0
 11
-147.94111775220469
 21
-93.02209266969885
 31
0.0
  0
LINE
  8
OUTLINE
  6
CONTINUOUS
 62
     3
 10
-128.47119243279471
 20
-171.7911851463632
 30
0.0
 11
-128.4422019486602
 21
-171.79040531788871
 31
0.0
  0
LINE
  8
OUTLINE
  6
CONTINUOUS
 62
     3
 10
-128.5228512701872
 20
-171.79225727269539
 30
0.0
 11
-128.47119243279471
 21
-171.7911851463632
 31
0.0
  0
LINE
  8
OUTLINE
  6
CONTINUOUS
 62
     3
 10
-128.5842823430705
 20
-171.7931923463471
 30
0.0
 11
-128.5228512701872
 21
-171.79225727269539
 31
0.0
  0
LINE
  8
OUTLINE
  6
CONTINUOUS
 62
     3
 10
-128.68003562596761
 20
-171.79417144143741
 30
0.0
 11
-128.5842823430705
 21
-171.7931923463471
 31
0.0
  0
LINE
  8
OUTLINE
  6
CONTINUOUS
 62
     3
 10
-128.81582966321261
 20
-171.79485781271009
 30
0.0
 11
-128.68003562596761
 21
-171.79417144143741
 31
0.0
  0
LINE
  8
OUTLINE
  6
CONTINUOUS
 62
     3
 10
145.86287586379461
 20
-171.799530870826
 30
0.0
 11
45.260554986952798
 21
-171.79785260013239
 31
0.0
  0
LINE
  8
OUTLINE
  6
CONTINUOUS
 62
     3
 10
-128.81582966321261
 20
-171.79485781271009
 30
0.0
 11
-146.14582146791261
 21
-171.79465951551671
 31
0.0
  0
LINE
  8
OUTLINE
  6
CONTINUOUS
 62
     3
 10
-44.292255850763688
 20
-171.58764078645831
 30
0.0
 11
43.772186949169622
 21
-171.58877802863469
 31
0.0
  0
LINE
  8
OUTLINE
  6
CONTINUOUS
 62
     3
 10
-129.74624721742569
 20
-171.79455583387031
 30
0.0
 11
-45.543500591170748
 21
-171.79633778630981
 31
0.0
  0
LINE
  8
OUTLINE
  6
CONTINUOUS
 62
     3
 10
-148.1463566999247
 20
-169.7994749471184
 30
0.0
 11
-148.1502228462106
 21
-107.61402400928429
 31
0.0
  0
LINE
  8
OUTLINE
  6
CONTINUOUS
 62
     3
 10
-148.149925060529
 20
-89.763548976730192
 30
0.0
 11
-148.1410902104646
 21
146.161332108886
 31
0.0
  0
LINE
  8
OUTLINE
  6
CONTINUOUS
 62
     3
 10
-147.94111775220469
 20
-93.02209266969885
 30
0.0
 11
-147.9411134361435
 21
-104.1381743007731
 31
0.0
  0
LINE
  8
OUTLINE
  6
CONTINUOUS
 62
     3
 10
147.85508507605999
 20
-102.0907999277382
 30
0.0
 11
147.85395546148769
 21
-169.80445937717249
 31
0.0
  0
LINE
  8
OUTLINE
  6
CONTINUOUS
 62
     3
 10
147.86268019558011
 20
68.467187417135165
 30
0.0
 11
147.86006734988749
 21
-91.222174792730925
 31
0.0
  0
LINE
  8
OUTLINE
  6
CONTINUOUS
 62
     3
 10
-146.14048393582371
 20
148.15855978149349
 30
0.0
 11
48.141074453856852
 21
148.15531873247781
 31
0.0
  0
LINE
  8
OUTLINE
  6
CONTINUOUS
 62
     3
 10
147.85979202902561
 20
-84.237746845455376
 30
0.0
 11
147.8636355409171
 21
146.15788386447679
 31
0.0
  0
LINE
  8
OUTLINE
  6
CONTINUOUS
 62
     3
 10
145.86782155903441
 20
148.1536884328888
 30
0.0
 11
-48.413736830646201
 21
148.15692948168109
 31
0.0
  0
LINE
  8
OUTLINE
  6
CONTINUOUS
 62
     3
 10
-148.14091081101529
 20
146.19262012661011
 30
0.0
 11
-148.1410902104646
 21
146.161332108886
 31
0.0
  0
LINE
  8
OUTLINE
  6
CONTINUOUS
 62
     3
 10
-146.14048466929339
 20
148.15787834853009
 30
0.0
 11
-146.18360922045969
 21
148.15741409365779
 31
0.0
  0
LINE
  8
OUTLINE
  6
CONTINUOUS
 62
     3
 10
147.85508507605999
 20
-102.0907999277382
 30
0.0
 11
147.85526637661141
 21
-91.222917279736237
 31
0.0
  0
LINE
  8
OUTLINE
  6
CONTINUOUS
 62
     3
 10
-147.94111701753869
 20
-93.021350182693538
 30
0.0
 11
-147.9411134361435
 21
-104.1381743007731
 31
0.0
  0
LINE
  8
OUTLINE
  6
CONTINUOUS
 62
     3
 10
147.8633804477123
 20
146.18842468315481
 30
0.0
 11
147.8636264571644
 21
146.1571366579573
 31
0.0
  0
LINE
  8
OUTLINE
  6
CONTINUOUS
 62
     3
 10
145.86782082536891
 20
148.15300699992139
 30
0.0
 11
145.9109453610217
 21
148.15254130622199
 31
0.0
  0
ARC
  8
OUTLINE
  6
CONTINUOUS
 62
     3
 10
-146.19096668011991
 20
146.20742762106539
 30
0.0
 40
1.9500003526938161
 50
89.783819327975181
 51
180.4350845834575
  0
ARC
  8
OUTLINE
  6
CONTINUOUS
 62
     3
 10
145.8674836012718
 20
146.15686603435239
 30
0.0
 40
1.996075220327189
 50
0.007768082469453
 51
89.990320275268061
  0
LINE
  8
OUTLINE
  6
CONTINUOUS
 62
     3
 10
-148.1502228462106
 20
-107.61402400928429
 30
0.0
 11
-147.9411134361435
 21
-104.1381743007731
 31
0.0
  0
LINE
  8
OUTLINE
  6
CONTINUOUS
 62
     3
 10
-148.149925060529
 20
-89.763548976730192
 30
0.0
 11
-147.94111701753869
 21
-93.021350182693538
 31
0.0
  0
ARC
  8
OUTLINE
  6
CONTINUOUS
 62
     3
 10
-146.14868752524879
 20
-169.8010003164234
 30
0.0
 40
1.9977494439899799
 50
179.95758533710369
 51
269.94223002391658
  0
LINE
  8
OUTLINE
  6
CONTINUOUS
 62
     3
 10
-44.292255850763688
 20
-171.58764078645831
 30
0.0
 11
-45.548301564446938
 21
-171.7970802733152
 31
0.0
  0
LINE
  8
DETAIL
  6
CONTINUOUS
 62
     5
 10
-44.292255850763688
 20
-171.58764078645831
 30
0.0
 11
-45.548301564446938
 21
-171.7970802733152
 31
0.0
  0
LINE
  8
DETAIL
  6
CONTINUOUS
 62
     5
 10
43.767385975893383
 20
-171.58952051563989
 30
0.0
 11
45.255754013676551
 21
-171.79859508713761
 31
0.0
  0
LINE
  8
OUTLINE
  6
CONTINUOUS
 62
     3
 10
43.767385975893383
 20
-171.58952051563989
 30
0.0
 11
45.260554986952798
 21
-171.79785260013239
 31
0.0
  0
ARC
  8
OUTLINE
  6
CONTINUOUS
 62
     3
 10
145.86037804846899
 20
-169.8042323683552
 30
0.0
 40
1.993501422968494
 50
270.00624906672232
 51
359.99347550921777
  0
LINE
  8
SIZE
  6
CONTINUOUS
 62
    30
 10
-191.8860101861714
 20
5.0196642782717618
 30
0.0
 11
-244.5434639054441
 21
5.0714378444477006
 31
0.0
  0
LINE
  8
SIZE
  6
CONTINUOUS
 62
    30
 10
-191.8860101861714
 20
0.0196642782717618
 30
0.0
 11
-244.5483799726359
 21
0.0714426779956625
 31
0.0
  0
LINE
  8
SIZE
  6
CONTINUOUS
 62
    30
 10
-224.56018820669729
 20
-11.948215800017071
 30
0.0
 11
-224.57198677366031
 21
-23.948209999758092
 31
0.0
  0
LINE
  8
SIZE
  6
CONTINUOUS
 62
    30
 10
-224.53167500557939
 20
17.05176776591691
 30
0.0
 11
-224.43265202534221
 21
117.7652859591803
 31
0.0
  0
LINE
  8
SIZE
  6
CONTINUOUS
 62
    30
 10
-224.54838963973421
 20
0.0517783997239007
 30
0.0
 11
-224.5434735725425
 21
5.0517735661759389
 31
0.0
  0
CIRCLE
  8
SIZE
  6
CONTINUOUS
 62
    30
 10
-224.54838963973421
 20
0.0517783997239007
 30
0.0
 40
6.0
  0
LINE
  8
SIZE
  6
CONTINUOUS
 62
    30
 10
-224.54838963973421
 20
0.0517783997239007
 30
0.0
 11
-224.56018820669729
 21
-11.948215800017071
 31
0.0
  0
CIRCLE
  8
SIZE
  6
CONTINUOUS
 62
    30
 10
-224.5434735725425
 20
5.0517735661759389
 30
0.0
 40
6.0
  0
LINE
  8
SIZE
  6
CONTINUOUS
 62
    30
 10
-224.5434735725425
 20
5.0517735661759389
 30
0.0
 11
-224.53167500557939
 21
17.05176776591691
 31
0.0
  0
TEXT
  8
SIZE
  6
CONTINUOUS
 62
    30
 10
-249.49497570359091
 20
54.389896951721703
 30
0.0
 40
64.0
  1
5
 50
89.943665983316464
 41
0.9
 72
     1
 11
-249.47609799644999
 21
73.589887671307281
 31
0.0
  0
LINE
  8
SIZE
  6
CONTINUOUS
 62
    30
 10
165.8630109186598
 20
148.13328166761161
 30
0.0
 11
346.72142658112358
 21
147.9554590709914
 31
0.0
  0
LINE
  8
SIZE
  6
CONTINUOUS
 62
    30
 10
165.4382909836215
 20
-171.63474376806661
 30
0.0
 11
346.40702595078068
 21
-171.81267483221461
 31
0.0
  0
LINE
  8
SIZE
  6
CONTINUOUS
 62
    30
 10
326.70963768125898
 20
135.97512914952219
 30
0.0
 11
326.41883418484213
 21
-159.7930163542018
 31
0.0
  0
CIRCLE
  8
SIZE
  6
CONTINUOUS
 62
    30
 10
326.72143624822178
 20
147.97512334926321
 30
0.0
 40
6.0
  0
LINE
  8
SIZE
  6
CONTINUOUS
 62
    30
 10
326.72143624822178
 20
147.97512334926321
 30
0.0
 11
326.70963768125881
 21
135.97512914952219
 31
0.0
  0
CIRCLE
  8
SIZE
  6
CONTINUOUS
 62
    30
 10
326.40703561787922
 20
-171.79301055394279
 30
0.0
 40
6.0
  0
LINE
  8
SIZE
  6
CONTINUOUS
 62
    30
 10
326.40703561787922
 20
-171.79301055394279
 30
0.0
 11
326.41883418484213
 21
-159.7930163542018
 31
0.0
  0
TEXT
  8
SIZE
  6
CONTINUOUS
 62
    30
 10
301.49143400366557
 20
-85.941470315758778
 30
0.0
 40
64.0
  1
320
 50
89.943665983316464
 41
0.9
 72
     1
 11
301.56424801692327
 21
-11.884363254500039
 31
0.0
  0
LINE
  8
BASIS
  6
DASHDOT
 62
     6
 10
0.0
 20
-188.8987988195594
 30
0.0
 11
0.0
 21
188.8987988195594
 31
0.0
  0
LINE
  8
BASIS
  6
DASHDOT
 62
     6
 10
-171.8860198532698
 20
0.0
 30
0.0
 11
171.8860198532698
 21
0.0
 31
0.0
  0
LINE
  8
BASIS
  6
DASHDOT
 62
     6
 10
-171.8860198532698
 20
5.0
 30
0.0
 11
171.8860198532698
 21
5.0
 31
0.0
  0
LINE
  8
SIZE
  6
CONTINUOUS
 62
    30
 10
-191.8860198532698
 20
0.0
 30
0.0
 11
-395.79568224600598
 21
0.0000000000000568
 31
0.0
  0
LINE
  8
SIZE
  6
CONTINUOUS
 62
    30
 10
-208.52861561833609
 20
-100.0034110120704
 30
0.0
 11
-395.79568224600598
 21
-100.0034110120703
 31
0.0
  0
LINE
  8
SIZE
  6
CONTINUOUS
 62
    30
 10
-375.79568224600598
 20
-11.99999999999994
 30
0.0
 11
-375.79568224600598
 21
-88.003411012070274
 31
0.0
  0
LINE
  8
SIZE
  6
CONTINUOUS
 62
    30
 10
-375.79568224600598
 20
-100.0034110120703
 30
0.0
 11
-375.79568224600598
 21
-299.1462681549275
 31
0.0
  0
CIRCLE
  8
SIZE
  6
CONTINUOUS
 62
    30
 10
-375.79568224600598
 20
0.0000000000000568
 30
0.0
 40
6.0
  0
LINE
  8
SIZE
  6
CONTINUOUS
 62
    30
 10
-375.79568224600598
 20
0.0000000000000568
 30
0.0
 11
-375.79568224600598
 21
-11.99999999999994
 31
0.0
  0
CIRCLE
  8
SIZE
  6
CONTINUOUS
 62
    30
 10
-375.79568224600598
 20
-100.0034110120703
 30
0.0
 40
6.0
  0
LINE
  8
SIZE
  6
CONTINUOUS
 62
    30
 10
-375.79568224600598
 20
-100.0034110120703
 30
0.0
 11
-375.79568224600598
 21
-88.003411012070274
 31
0.0
  0
TEXT
  8
SIZE
  6
CONTINUOUS
 62
    30
 10
-400.79568224600598
 20
-274.14626815492738
 30
0.0
 40
64.0
  1
100
 50
90.0
 41
0.9
 72
     1
 11
-400.79568224600598
 21
-205.57483958349891
 31
0.0
  0
LINE
  8
SIZE
  6
CONTINUOUS
 62
    30
 10
-166.14048393582371
 20
148.15855978149349
 30
0.0
 11
-395.79568224600592
 21
148.15855978149361
 31
0.0
  0
LINE
  8
SIZE
  6
CONTINUOUS
 62
    30
 10
-191.8860198532698
 20
0.0
 30
0.0
 11
-395.79568224600598
 21
0.0000000000000568
 31
0.0
  0
LINE
  8
SIZE
  6
CONTINUOUS
 62
    30
 10
-375.79568224600592
 20
160.15855978149349
 30
0.0
 11
-375.79568224600592
 21
172.15855978149349
 31
0.0
  0
LINE
  8
SIZE
  6
CONTINUOUS
 62
    30
 10
-375.79568224600598
 20
-11.99999999999994
 30
0.0
 11
-375.79568224600598
 21
-23.99999999999994
 31
0.0
  0
LINE
  8
SIZE
  6
CONTINUOUS
 62
    30
 10
-375.79568224600592
 20
148.15855978149349
 30
0.0
 11
-375.79568224600598
 21
0.0000000000000568
 31
0.0
  0
CIRCLE
  8
SIZE
  6
CONTINUOUS
 62
    30
 10
-375.79568224600592
 20
148.15855978149349
 30
0.0
 40
6.0
  0
LINE
  8
SIZE
  6
CONTINUOUS
 62
    30
 10
-375.79568224600592
 20
148.15855978149349
 30
0.0
 11
-375.79568224600592
 21
160.15855978149349
 31
0.0
  0
CIRCLE
  8
SIZE
  6
CONTINUOUS
 62
    30
 10
-375.79568224600598
 20
0.0000000000000568
 30
0.0
 40
6.0
  0
LINE
  8
SIZE
  6
CONTINUOUS
 62
    30
 10
-375.79568224600598
 20
0.0000000000000568
 30
0.0
 11
-375.79568224600598
 21
-11.99999999999994
 31
0.0
  0
TEXT
  8
SIZE
  6
CONTINUOUS
 62
    30
 10
-400.79568224600598
 20
5.5078513193181919
 30
0.0
 40
64.0
  1
148
 50
90.0
 41
0.9
 72
     1
 11
-400.79568224600598
 21
74.079279890746761
 31
0.0
  0
LINE
  8
NOTE
  6
CONTINUOUS
 62
     4
 10
-188.52861561833609
 20
-100.0034110120704
 30
0.0
 11
-132.37333590288739
 21
-100.0034110120704
 31
0.0
  0
LINE
  8
SIZE
  6
CONTINUOUS
 62
    30
 10
-148.14115786437489
 20
166.16133210963369
 30
0.0
 11
-148.14115786437489
 21
259.31227329888168
 31
0.0
  0
LINE
  8
SIZE
  6
CONTINUOUS
 62
    30
 10
147.8636264571644
 20
166.1571366579573
 30
0.0
 11
147.8636264571644
 21
259.31227329888168
 31
0.0
  0
LINE
  8
SIZE
  6
CONTINUOUS
 62
    30
 10
-136.14115786437489
 20
239.31227329888179
 30
0.0
 11
135.8636264571644
 21
239.31227329888179
 31
0.0
  0
CIRCLE
  8
SIZE
  6
CONTINUOUS
 62
    30
 10
-148.14115786437489
 20
239.31227329888179
 30
0.0
 40
6.0
  0
LINE
  8
SIZE
  6
CONTINUOUS
 62
    30
 10
-148.14115786437489
 20
239.31227329888179
 30
0.0
 11
-136.14115786437489
 21
239.31227329888179
 31
0.0
  0
CIRCLE
  8
SIZE
  6
CONTINUOUS
 62
    30
 10
147.8636264571644
 20
239.31227329888179
 30
0.0
 40
6.0
  0
LINE
  8
SIZE
  6
CONTINUOUS
 62
    30
 10
147.8636264571644
 20
239.31227329888179
 30
0.0
 11
135.8636264571644
 21
239.31227329888179
 31
0.0
  0
TEXT
  8
SIZE
  6
CONTINUOUS
 62
    30
 10
-72.824479989319556
 20
264.31227329888168
 30
0.0
 40
64.0
  1
296
 41
0.9
 72
     1
 11
-0.1387657036052588
 21
264.31227329888168
 31
0.0
  0
LINE
  8
NOTE
  6
CONTINUOUS
 62
     4
 10
-159.37617292371661
 20
11.175641641142191
 30
0.0
 11
-160.04411724040099
 21
5.0
 31
0.0
  0
LINE
  8
NOTE
  6
CONTINUOUS
 62
     4
 10
-160.04411724040099
 20
5.0
 30
0.0
 11
-162.55348987721521
 21
10.682230922763379
 31
0.0
  0
LINE
  8
NOTE
  6
CONTINUOUS
 62
     4
 10
-160.04411724040099
 20
5.0
 30
0.0
 11
-161.8855455605308
 21
16.85787256390557
 31
0.0
  0
LINE
  8
NOTE
  6
CONTINUOUS
 62
     4
 10
-161.8855455605308
 20
16.85787256390557
 30
0.0
 11
-193.2402354160138
 21
219.9070091644339
 31
0.0
  0
LINE
  8
NOTE
  6
CONTINUOUS
 62
     4
 10
-193.2402354160138
 20
219.9070091644339
 30
0.0
 11
-555.56611840494168
 21
219.9070091644339
 31
0.0
  0
TEXT
  8
NOTE
  6
CONTINUOUS
 62
     4
 10
-547.76845575628818
 20
233.89909123185859
 30
0.0
 40
64.0
  1
羽根中心線
 41
0.9
 72
     2
 11
-217.5284557562882
 21
233.89909123185859
 31
0.0
  0
TEXT
  8
ETC
  6
CONTINUOUS
 62
    61
 10
389.5915413937887
 20
300.72622230116212
 30
0.0
 40
64.0
  1
EX-20P9_2
 41
0.9
  0
TEXT
  8
ETC
  6
CONTINUOUS
 62
    61
 10
385.40554739378831
 20
182.77091228633091
 30
0.0
 40
64.0
  1
換気扇
 41
0.9
  0
TEXT
  8
ETC
  6
CONTINUOUS
 62
    61
 10
436.10694564234427
 20
74.622139400105695
 30
0.0
 40
40.0
  1
EX-20P9
 50
0.0
 41
0.9
 51
0.0
  7
STANDARD
 71
     0
 11
0.0
 21
0.0
 31
0.0
210
0.0
220
0.0
230
1.0
  0
ENDSEC
  0
EOF
