  0
SECTION
  2
HEADER
  9
$ACADVER
  1
AC1009
  9
$DWGCODEPAGE
  3
dos932
  9
$INSBASE
 10
0.0
 20
0.0
 30
0.0
  9
$EXTMIN
 10
-589.21340600888539
 20
-299.14626815492761
 30
0.0
  9
$EXTMAX
 10
1044.2454224351991
 20
482.46882656563457
 30
0.0
  9
$LIMMIN
 10
-2970.0
 20
-2100.0
  9
$LIMMAX
 10
2970.0
 20
2100.0
  9
$ORTHOMODE
 70
     1
  9
$REGENMODE
 70
     1
  9
$FILLMODE
 70
     1
  9
$QTEXTMODE
 70
     0
  9
$MIRRTEXT
 70
     0
  9
$LTSCALE
 40
20.0
  9
$ATTMODE
 70
     1
  9
$TEXTSIZE
 40
64.0
  9
$TRACEWID
 40
0.05
  9
$TEXTSTYLE
  7
STANDARD
  9
$CLAYER
  8
NOTE
  9
$CELTYPE
  6
CONTINUOUS
  9
$CECOLOR
 62
     7
  9
$DIMSCALE
 40
1.0
  9
$DIMASZ
 40
12.0
  9
$DIMEXO
 40
20.0
  9
$DIMDLI
 40
200.0
  9
$DIMRND
 40
0.0
  9
$DIMDLE
 40
0.0
  9
$DIMEXE
 40
20.0
  9
$DIMTP
 40
0.0
  9
$DIMTM
 40
0.0
  9
$DIMTXT
 40
64.0
  9
$DIMCEN
 40
0.09
  9
$DIMTSZ
 40
0.0
  9
$DIMTOL
 70
     0
  9
$DIMLIM
 70
     0
  9
$DIMTIH
 70
     0
  9
$DIMTOH
 70
     0
  9
$DIMSE1
 70
     0
  9
$DIMSE2
 70
     0
  9
$DIMTAD
 70
     1
  9
$DIMZIN
 70
     8
  9
$DIMBLK
  1

  9
$DIMASO
 70
     1
  9
$DIMSHO
 70
     0
  9
$DIMPOST
  1

  9
$DIMAPOST
  1

  9
$DIMALT
 70
     0
  9
$DIMALTD
 70
     2
  9
$DIMALTF
 40
25.399999999999999
  9
$DIMLFAC
 40
1.0
  9
$DIMTOFL
 70
     1
  9
$DIMTVP
 40
0.0
  9
$DIMTIX
 70
     1
  9
$DIMSOXD
 70
     0
  9
$DIMSAH
 70
     0
  9
$DIMBLK1
  1

  9
$DIMBLK2
  1

  9
$DIMSTYLE
  2
STANDARD
  9
$DIMCLRD
 70
     7
  9
$DIMCLRE
 70
     7
  9
$DIMCLRT
 70
     7
  9
$DIMTFAC
 40
1.0
  9
$DIMGAP
 40
25.0
  9
$LUNITS
 70
     2
  9
$LUPREC
 70
     4
  9
$SKETCHINC
 40
0.1
  9
$FILLETRAD
 40
3.0
  9
$AUNITS
 70
     1
  9
$AUPREC
 70
     3
  9
$MENU
  1
ACAD
  9
$ELEVATION
 40
0.0
  9
$PELEVATION
 40
0.0
  9
$THICKNESS
 40
50.0
  9
$LIMCHECK
 70
     0
  9
$CHAMFERA
 40
0.0
  9
$CHAMFERB
 40
0.0
  9
$SKPOLY
 70
     0
  9
$TDCREATE
 40
2453019.62301037
  9
$TDUPDATE
 40
2459017.508993831
  9
$TDINDWG
 40
1.711751169
  9
$TDUSRTIMER
 40
1.711751169
  9
$USRTIMER
 70
     1
  9
$ANGBASE
 50
0.0
  9
$ANGDIR
 70
     0
  9
$PDMODE
 70
     3
  9
$PDSIZE
 40
-2.0
  9
$PLINEWID
 40
0.0
  9
$SPLFRAME
 70
     0
  9
$SPLINETYPE
 70
     6
  9
$SPLINESEGS
 70
     8
  9
$SURFTAB1
 70
     6
  9
$SURFTAB2
 70
     6
  9
$SURFTYPE
 70
     6
  9
$SURFU
 70
     6
  9
$SURFV
 70
     6
  9
$UCSNAME
  2

  9
$UCSORG
 10
0.0
 20
0.0
 30
0.0
  9
$UCSXDIR
 10
1.0
 20
0.0
 30
0.0
  9
$UCSYDIR
 10
0.0
 20
1.0
 30
0.0
  9
$PUCSNAME
  2

  9
$PUCSORG
 10
0.0
 20
0.0
 30
0.0
  9
$PUCSXDIR
 10
1.0
 20
0.0
 30
0.0
  9
$PUCSYDIR
 10
0.0
 20
1.0
 30
0.0
  9
$USERI1
 70
     0
  9
$USERI2
 70
     0
  9
$USERI3
 70
     0
  9
$USERI4
 70
     0
  9
$USERI5
 70
     0
  9
$USERR1
 40
20.0
  9
$USERR2
 40
0.0
  9
$USERR3
 40
0.0
  9
$USERR4
 40
0.0
  9
$USERR5
 40
0.0
  9
$WORLDVIEW
 70
     1
  9
$SHADEDGE
 70
     3
  9
$SHADEDIF
 70
    70
  9
$TILEMODE
 70
     1
  9
$MAXACTVP
 70
    48
  9
$PINSBASE
 10
0.0
 20
0.0
 30
0.0
  9
$PLIMCHECK
 70
     0
  9
$PEXTMIN
 10
-100000000000000000000.0
 20
-100000000000000000000.0
 30
-100000000000000000000.0
  9
$PEXTMAX
 10
100000000000000000000.0
 20
100000000000000000000.0
 30
100000000000000000000.0
  9
$PLIMMIN
 10
0.0
 20
0.0
  9
$PLIMMAX
 10
12.0
 20
9.0
  9
$UNITMODE
 70
     0
  9
$VISRETAIN
 70
     0
  9
$PLINEGEN
 70
     0
  9
$PSLTSCALE
 70
     0
  9
$TREEDEPTH
 70
  3020
  9
$ATTDIA
 70
     0
  9
$ATTREQ
 70
     1
  9
$BLIPMODE
 70
     1
  9
$COORDS
 70
     1
  9
$DRAGMODE
 70
     2
  9
$OSMODE
 70
     0
  9
$HANDLING
 70
     0
  9
$HANDSEED
  5
ECBB
  0
ENDSEC
  0
SECTION
  2
TABLES
  0
TABLE
  2
LTYPE
 70
     2
  0
LTYPE
  2
CONTINUOUS
 70
     0
  3
実線
 72
    65
 73
     0
 40
0.0
  0
LTYPE
  2
DASHDOT
 70
     0
  3
____ _ ____ _ ____ _ ____ _ ____ _ ____ _ ____
 72
    65
 73
     4
 40
5.5
 49
4.0
 49
-0.6
 49
0.3
 49
-0.6
  0
ENDTAB
  0
TABLE
  2
LAYER
 70
    12
  0
LAYER
  2
0
 70
     0
 62
     7
  6
CONTINUOUS
  0
LAYER
  2
BASIS
 70
     0
 62
     6
  6
DASHDOT
  0
LAYER
  2
OUTLINE
 70
     0
 62
     3
  6
CONTINUOUS
  0
LAYER
  2
DETAIL
 70
     0
 62
     5
  6
CONTINUOUS
  0
LAYER
  2
SIZE
 70
     0
 62
    30
  6
CONTINUOUS
  0
LAYER
  2
ARRANGE
 70
     0
 62
     1
  6
CONTINUOUS
  0
LAYER
  2
ETC
 70
     0
 62
    61
  6
CONTINUOUS
  0
LAYER
  2
FIX
 70
     0
 62
    11
  6
CONTINUOUS
  0
LAYER
  2
NOTE
 70
     0
 62
     4
  6
CONTINUOUS
  0
LAYER
  2
DEFPOINTS
 70
    64
 62
     7
  6
CONTINUOUS
  0
LAYER
  2
SERVICESPACE
 70
    64
 62
     2
  6
DASHDOT
  0
LAYER
  2
SYMBOLLINE
 70
    64
 62
    15
  6
CONTINUOUS
  0
ENDTAB
  0
TABLE
  2
STYLE
 70
     1
  0
STYLE
  2
STANDARD
 70
     0
 40
64.0
 41
0.9
 50
0.0
 71
     0
 42
64.0
  3
SIMPLEX.shx
  4
BIGFONT.shx
  0
ENDTAB
  0
TABLE
  2
APPID
 70
    17
  0
APPID
  2
ACAD
 70
     0
  0
APPID
  2
AUTOCAD_POSTSCRIPT_FIGURE
 70
     0
  0
APPID
  2
ACAD_EXEMPT_FROM_CAD_STANDARDS
 70
     0
  0
APPID
  2
ACAD_PSEXT
 70
     0
  0
APPID
  2
ACAUTHENVIRON
 70
     0
  0
APPID
  2
GENIUS_GENOENT_13
 70
     0
  0
APPID
  2
GENIUS_GENCFG_13
 70
     0
  0
APPID
  2
GENIUS_GENCFG0_13
 70
     0
  0
APPID
  2
GENIUS_GENCFG1_13
 70
     0
  0
APPID
  2
GENIUS_GENCFG2_13
 70
     0
  0
APPID
  2
GENIUS_GENCFG3_13
 70
     0
  0
APPID
  2
GENIUS_GENCFG4_13
 70
     0
  0
APPID
  2
GENIUS_GEVCFG0_13
 70
     0
  0
APPID
  2
CONTENTBLOCKICON
 70
     0
  0
APPID
  2
CONTENTBLOCKDESCRIPTION
 70
     0
  0
APPID
  2
ACAD_NAV_VCDISPLAY
 70
     0
  0
APPID
  2
ACAD_MLEADERVER
 70
     0
  0
ENDTAB
  0
TABLE
  2
DIMSTYLE
 70
     1
  0
DIMSTYLE
  2
STANDARD
 70
     0
  3

  4

  5
_ORIGIN
  6

  7

 40
1.0
 41
12.0
 42
20.0
 43
200.0
 44
20.0
 45
0.0
 46
0.0
 47
0.0
 48
0.0
140
64.0
141
0.09
142
0.0
143
25.399999999999999
144
1.0
145
0.0
146
1.0
147
25.0
 71
     0
 72
     0
 73
     0
 74
     0
 75
     0
 76
     0
 77
     1
 78
     8
170
     0
171
     2
172
     1
173
     0
174
     1
175
     0
176
     7
177
     7
178
     7
  0
ENDTAB
  0
TABLE
  2
VIEW
 70
     1
  0
VIEW
  2
ALL
 70
     0
 40
4282.6198079999986
 10
0.0
 20
41.309904000000003
 41
5940.0
 11
0.0
 21
0.0
 31
1.0
 12
0.0
 22
0.0
 32
0.0
 42
50.0
 43
0.0
 44
0.0
 50
0.0
 71
     0
  0
ENDTAB
  0
TABLE
  2
UCS
 70
     0
  0
ENDTAB
  0
TABLE
  2
VPORT
 70
     1
  0
VPORT
  2
*ACTIVE
 70
     0
 10
0.0
 20
0.0
 11
1.0
 21
1.0
 12
227.51600821315691
 22
91.66127920535348
 13
0.0
 23
0.0
 14
1.0
 24
1.0
 15
0.0
 25
0.0
 16
0.0
 26
0.0
 36
1.0
 17
0.0
 27
0.0
 37
0.0
 40
626.11221408844972
 41
2.1592039800995031
 42
50.0
 43
0.0
 44
0.0
 50
0.0
 51
0.0
 71
     0
 72
  1000
 73
     1
 74
     3
 75
     0
 76
     0
 77
     0
 78
     0
  0
ENDTAB
  0
ENDSEC
  0
SECTION
  2
BLOCKS
  0
BLOCK
  8
0
  2
_ORIGIN
 70
     0
 10
0.0
 20
0.0
 30
0.0
  3
_ORIGIN
  1
_ORIGIN
  0
CIRCLE
  8
0
  6
CONTINUOUS
 62
     7
 10
0.0
 20
0.0
 30
0.0
 40
0.5
  0
LINE
  8
0
  6
CONTINUOUS
 62
     7
 10
0.0
 20
0.0
 30
0.0
 11
-1.0
 21
0.0
 31
0.0
  0
ENDBLK
  8
0
  0
ENDSEC
  0
SECTION
  2
ENTITIES
  0
CIRCLE
  8
ARRANGE
  6
CONTINUOUS
 62
     1
 10
0.0
 20
0.0
 30
0.0
 40
40.0
  0
POINT
  8
ARRANGE
  6
CONTINUOUS
 62
     1
 10
0.0
 20
0.0
 30
0.0
  0
TEXT
  8
NOTE
  6
CONTINUOUS
 62
     4
 10
253.3142909109452
 20
-177.70578057537409
 30
0.0
 40
64.0
  1
EL
 50
0.056334016683639
 41
0.9
 72
     2
 11
338.34282124053863
 21
-177.62217930089301
 31
0.0
  0
LINE
  8
NOTE
  6
CONTINUOUS
 62
     4
 10
153.03500149215199
 20
-103.5909841039298
 30
0.0
 11
147.93343066729719
 21
-100.04716209810179
 31
0.0
  0
LINE
  8
NOTE
  6
CONTINUOUS
 62
     4
 10
147.93343066729719
 20
-100.04716209810179
 30
0.0
 11
150.57960112914941
 21
-105.6669913817029
 31
0.0
  0
LINE
  8
NOTE
  6
CONTINUOUS
 62
     4
 10
147.93343066729719
 20
-100.04716209810179
 30
0.0
 11
155.6811719540041
 21
-109.210813387531
 31
0.0
  0
LINE
  8
NOTE
  6
CONTINUOUS
 62
     4
 10
155.57826261654591
 20
-109.089097232074
 30
0.0
 11
228.14486299336309
 21
-195.66256911776489
 31
0.0
  0
LINE
  8
NOTE
  6
CONTINUOUS
 62
     4
 10
228.14486299336309
 20
-195.66256911776489
 30
0.0
 11
350.17337543882451
 21
-195.54258892848111
 31
0.0
  0
LINE
  8
DETAIL
  6
CONTINUOUS
 62
     5
 10
-15.6557360492186
 20
108.74230171997741
 30
0.0
 11
-15.660255524232181
 21
108.741285355749
 31
0.0
  0
LINE
  8
DETAIL
  6
CONTINUOUS
 62
     5
 10
-15.660255524232181
 20
108.741285355749
 30
0.0
 11
-15.664695642863879
 21
108.7400157405867
 31
0.0
  0
LINE
  8
DETAIL
  6
CONTINUOUS
 62
     5
 10
-15.664695642863879
 20
108.7400157405867
 30
0.0
 11
-15.664695642863879
 21
108.7400157405867
 31
0.0
  0
LINE
  8
DETAIL
  6
CONTINUOUS
 62
     5
 10
-15.664695642863879
 20
108.7400157405867
 30
0.0
 11
-15.668996175335
 21
108.73830031119221
 31
0.0
  0
LINE
  8
DETAIL
  6
CONTINUOUS
 62
     5
 10
-15.668996175335
 20
108.73830031119221
 30
0.0
 11
-15.673173398282531
 21
108.7361892548072
 31
0.0
  0
LINE
  8
DETAIL
  6
CONTINUOUS
 62
     5
 10
-15.673173398282531
 20
108.7361892548072
 30
0.0
 11
-15.673173398282531
 21
108.7361892548072
 31
0.0
  0
LINE
  8
DETAIL
  6
CONTINUOUS
 62
     5
 10
-15.673173398282531
 20
108.7361892548072
 30
0.0
 11
-15.67724947452405
 21
108.7337851746224
 31
0.0
  0
LINE
  8
DETAIL
  6
CONTINUOUS
 62
     5
 10
-15.67724947452405
 20
108.7337851746224
 30
0.0
 11
-15.6811936051804
 21
108.7311575870843
 31
0.0
  0
LINE
  8
DETAIL
  6
CONTINUOUS
 62
     5
 10
-15.6811936051804
 20
108.7311575870843
 30
0.0
 11
-15.6811936051804
 21
108.7311575870843
 31
0.0
  0
LINE
  8
DETAIL
  6
CONTINUOUS
 62
     5
 10
-15.6811936051804
 20
108.7311575870843
 30
0.0
 11
-15.68499558604117
 21
108.72834013606099
 31
0.0
  0
LINE
  8
DETAIL
  6
CONTINUOUS
 62
     5
 10
-15.68499558604117
 20
108.72834013606099
 30
0.0
 11
-15.68878055326263
 21
108.7252560618592
 31
0.0
  0
LINE
  8
DETAIL
  6
CONTINUOUS
 62
     5
 10
-15.68878055326263
 20
108.7252560618592
 30
0.0
 11
-15.68878055326263
 21
108.7252560618592
 31
0.0
  0
LINE
  8
DETAIL
  6
CONTINUOUS
 62
     5
 10
-15.68878055326263
 20
108.7252560618592
 30
0.0
 11
-15.692585378150399
 21
108.7219196791422
 31
0.0
  0
LINE
  8
DETAIL
  6
CONTINUOUS
 62
     5
 10
-15.692585378150399
 20
108.7219196791422
 30
0.0
 11
-15.69595853223473
 21
108.718820003576
 31
0.0
  0
LINE
  8
DETAIL
  6
CONTINUOUS
 62
     5
 10
-15.69595853223473
 20
108.718820003576
 30
0.0
 11
-15.69595853223473
 21
108.718820003576
 31
0.0
  0
LINE
  8
DETAIL
  6
CONTINUOUS
 62
     5
 10
-15.69595853223473
 20
108.718820003576
 30
0.0
 11
-15.698523694760301
 21
108.7163718583234
 31
0.0
  0
LINE
  8
DETAIL
  6
CONTINUOUS
 62
     5
 10
-15.698523694760301
 20
108.7163718583234
 30
0.0
 11
-15.700693775605711
 21
108.7142185955242
 31
0.0
  0
LINE
  8
DETAIL
  6
CONTINUOUS
 62
     5
 10
-15.700693775605711
 20
108.7142185955242
 30
0.0
 11
-15.700693775605711
 21
108.7142185955242
 31
0.0
  0
LINE
  8
DETAIL
  6
CONTINUOUS
 62
     5
 10
-15.700693775605711
 20
108.7142185955242
 30
0.0
 11
-15.7029504000036
 21
108.7119269741606
 31
0.0
  0
LINE
  8
DETAIL
  6
CONTINUOUS
 62
     5
 10
-15.7029504000036
 20
108.7119269741606
 30
0.0
 11
-15.705260823973729
 21
108.70952885160639
 31
0.0
  0
LINE
  8
DETAIL
  6
CONTINUOUS
 62
     5
 10
-15.705260823973729
 20
108.70952885160639
 30
0.0
 11
-15.705260823973729
 21
108.70952885160639
 31
0.0
  0
LINE
  8
DETAIL
  6
CONTINUOUS
 62
     5
 10
-15.705260823973729
 20
108.70952885160639
 30
0.0
 11
-15.707498392644769
 21
108.70714135139031
 31
0.0
  0
LINE
  8
DETAIL
  6
CONTINUOUS
 62
     5
 10
-15.707498392644769
 20
108.70714135139031
 30
0.0
 11
-15.709675176803779
 21
108.7047575632771
 31
0.0
  0
LINE
  8
DETAIL
  6
CONTINUOUS
 62
     5
 10
-15.709675176803779
 20
108.7047575632771
 30
0.0
 11
-15.709675176803779
 21
108.7047575632771
 31
0.0
  0
LINE
  8
DETAIL
  6
CONTINUOUS
 62
     5
 10
-15.709675176803779
 20
108.7047575632771
 30
0.0
 11
-15.711827795297721
 21
108.7023473277564
 31
0.0
  0
LINE
  8
DETAIL
  6
CONTINUOUS
 62
     5
 10
-15.711827795297721
 20
108.7023473277564
 30
0.0
 11
-15.71395233356111
 21
108.69991152198919
 31
0.0
  0
LINE
  8
DETAIL
  6
CONTINUOUS
 62
     5
 10
-15.71395233356111
 20
108.69991152198919
 30
0.0
 11
-15.71395233356111
 21
108.69991152198919
 31
0.0
  0
LINE
  8
DETAIL
  6
CONTINUOUS
 62
     5
 10
-15.71395233356111
 20
108.69991152198919
 30
0.0
 11
-15.716040595673579
 21
108.6974587540727
 31
0.0
  0
LINE
  8
DETAIL
  6
CONTINUOUS
 62
     5
 10
-15.716040595673579
 20
108.6974587540727
 30
0.0
 11
-15.71810779371128
 21
108.69499751919609
 31
0.0
  0
LINE
  8
DETAIL
  6
CONTINUOUS
 62
     5
 10
-15.71810779371128
 20
108.69499751919609
 30
0.0
 11
-15.720608831885221
 21
108.6919328157388
 31
0.0
  0
LINE
  8
DETAIL
  6
CONTINUOUS
 62
     5
 10
-15.720608831885221
 20
108.6919328157388
 30
0.0
 11
-15.72309497964727
 21
108.68884493624429
 31
0.0
  0
LINE
  8
DETAIL
  6
CONTINUOUS
 62
     5
 10
-15.72309497964727
 20
108.68884493624429
 30
0.0
 11
-15.72309497964727
 21
108.68884493624429
 31
0.0
  0
LINE
  8
DETAIL
  6
CONTINUOUS
 62
     5
 10
-15.72309497964727
 20
108.68884493624429
 30
0.0
 11
-15.725549639147861
 21
108.6857238172349
 31
0.0
  0
LINE
  8
DETAIL
  6
CONTINUOUS
 62
     5
 10
-15.725549639147861
 20
108.6857238172349
 30
0.0
 11
-15.727949382780929
 21
108.6826118454766
 31
0.0
  0
LINE
  8
DETAIL
  6
CONTINUOUS
 62
     5
 10
-15.727949382780929
 20
108.6826118454766
 30
0.0
 11
-15.727949382780929
 21
108.6826118454766
 31
0.0
  0
LINE
  8
DETAIL
  6
CONTINUOUS
 62
     5
 10
-15.727949382780929
 20
108.6826118454766
 30
0.0
 11
-15.730296152739699
 21
108.6795237327012
 31
0.0
  0
LINE
  8
DETAIL
  6
CONTINUOUS
 62
     5
 10
-15.730296152739699
 20
108.6795237327012
 30
0.0
 11
-15.73270020016901
 21
108.67631104025951
 31
0.0
  0
LINE
  8
DETAIL
  6
CONTINUOUS
 62
     5
 10
-15.73270020016901
 20
108.67631104025951
 30
0.0
 11
-15.73270020016901
 21
108.67631104025951
 31
0.0
  0
LINE
  8
DETAIL
  6
CONTINUOUS
 62
     5
 10
-15.73270020016901
 20
108.67631104025951
 30
0.0
 11
-15.73519225193832
 21
108.6729345797269
 31
0.0
  0
LINE
  8
DETAIL
  6
CONTINUOUS
 62
     5
 10
-15.73519225193832
 20
108.6729345797269
 30
0.0
 11
-15.73737662886936
 21
108.6699553139574
 31
0.0
  0
LINE
  8
DETAIL
  6
CONTINUOUS
 62
     5
 10
-15.73737662886936
 20
108.6699553139574
 30
0.0
 11
-15.73737662886936
 21
108.6699553139574
 31
0.0
  0
LINE
  8
DETAIL
  6
CONTINUOUS
 62
     5
 10
-15.73737662886936
 20
108.6699553139574
 30
0.0
 11
-15.739150379082391
 21
108.6675248799403
 31
0.0
  0
LINE
  8
DETAIL
  6
CONTINUOUS
 62
     5
 10
-15.739150379082391
 20
108.6675248799403
 30
0.0
 11
-15.742007865938829
 21
108.6635574599353
 31
0.0
  0
LINE
  8
DETAIL
  6
CONTINUOUS
 62
     5
 10
-15.742007865938829
 20
108.6635574599353
 30
0.0
 11
-15.742007865938829
 21
108.6635574599353
 31
0.0
  0
LINE
  8
DETAIL
  6
CONTINUOUS
 62
     5
 10
-15.742007865938829
 20
108.6635574599353
 30
0.0
 11
-15.74721029796569
 21
108.6562867617594
 31
0.0
  0
LINE
  8
DETAIL
  6
CONTINUOUS
 62
     5
 10
-15.74721029796569
 20
108.6562867617594
 30
0.0
 11
-15.75348894910633
 21
108.6474620501849
 31
0.0
  0
LINE
  8
DETAIL
  6
CONTINUOUS
 62
     5
 10
-15.75348894910633
 20
108.6474620501849
 30
0.0
 11
-15.75348894910633
 21
108.6474620501849
 31
0.0
  0
LINE
  8
DETAIL
  6
CONTINUOUS
 62
     5
 10
-15.75348894910633
 20
108.6474620501849
 30
0.0
 11
-15.759344829995941
 21
108.6391573392455
 31
0.0
  0
LINE
  8
DETAIL
  6
CONTINUOUS
 62
     5
 10
-15.759344829995941
 20
108.6391573392455
 30
0.0
 11
-15.76488783262198
 21
108.6312300830504
 31
0.0
  0
LINE
  8
DETAIL
  6
CONTINUOUS
 62
     5
 10
-15.76488783262198
 20
108.6312300830504
 30
0.0
 11
-15.76488783262198
 21
108.6312300830504
 31
0.0
  0
LINE
  8
DETAIL
  6
CONTINUOUS
 62
     5
 10
-15.76488783262198
 20
108.6312300830504
 30
0.0
 11
-15.770522359340591
 21
108.6231319182786
 31
0.0
  0
LINE
  8
DETAIL
  6
CONTINUOUS
 62
     5
 10
-15.770522359340591
 20
108.6231319182786
 30
0.0
 11
-15.776221972638719
 21
108.6149077718034
 31
0.0
  0
LINE
  8
DETAIL
  6
CONTINUOUS
 62
     5
 10
-15.776221972638719
 20
108.6149077718034
 30
0.0
 11
-15.776221972638719
 21
108.6149077718034
 31
0.0
  0
LINE
  8
DETAIL
  6
CONTINUOUS
 62
     5
 10
-15.776221972638719
 20
108.6149077718034
 30
0.0
 11
-15.78188114456748
 21
108.6067117428347
 31
0.0
  0
LINE
  8
DETAIL
  6
CONTINUOUS
 62
     5
 10
-15.78188114456748
 20
108.6067117428347
 30
0.0
 11
-15.78750882530926
 21
108.5985413297177
 31
0.0
  0
LINE
  8
DETAIL
  6
CONTINUOUS
 62
     5
 10
-15.78750882530926
 20
108.5985413297177
 30
0.0
 11
-15.78750882530926
 21
108.5985413297177
 31
0.0
  0
LINE
  8
DETAIL
  6
CONTINUOUS
 62
     5
 10
-15.78750882530926
 20
108.5985413297177
 30
0.0
 11
-15.793135816415999
 21
108.59036315889691
 31
0.0
  0
LINE
  8
DETAIL
  6
CONTINUOUS
 62
     5
 10
-15.793135816415999
 20
108.59036315889691
 30
0.0
 11
-15.79876584678675
 21
108.58217697006739
 31
0.0
  0
LINE
  8
DETAIL
  6
CONTINUOUS
 62
     5
 10
128.4759934060709
 20
-171.79192763336849
 30
0.0
 11
128.44700292193619
 21
-171.79114780489419
 31
0.0
  0
LINE
  8
DETAIL
  6
CONTINUOUS
 62
     5
 10
128.52765224346339
 20
-171.79299975970071
 30
0.0
 11
128.4759934060709
 21
-171.79192763336849
 31
0.0
  0
LINE
  8
DETAIL
  6
CONTINUOUS
 62
     5
 10
128.58908331634649
 20
-171.79393483335241
 30
0.0
 11
128.52765224346339
 21
-171.79299975970071
 31
0.0
  0
LINE
  8
DETAIL
  6
CONTINUOUS
 62
     5
 10
128.68483659924379
 20
-171.7949139284427
 30
0.0
 11
128.58908331634649
 21
-171.79393483335241
 31
0.0
  0
LINE
  8
DETAIL
  6
CONTINUOUS
 62
     5
 10
128.8206306364888
 20
-171.79560029971529
 30
0.0
 11
128.68483659924379
 21
-171.7949139284427
 31
0.0
  0
LINE
  8
DETAIL
  6
CONTINUOUS
 62
     5
 10
-145.8580748905184
 20
-171.80027335783129
 30
0.0
 11
-45.255754013676551
 21
-171.79859508713761
 31
0.0
  0
LINE
  8
DETAIL
  6
CONTINUOUS
 62
     5
 10
128.8206306364888
 20
-171.79560029971529
 30
0.0
 11
146.1506224411888
 21
-171.795402002522
 31
0.0
  0
LINE
  8
DETAIL
  6
CONTINUOUS
 62
     5
 10
44.297056824039828
 20
-171.58838327346359
 30
0.0
 11
-43.767385975893383
 21
-171.58952051563989
 31
0.0
  0
LINE
  8
DETAIL
  6
CONTINUOUS
 62
     5
 10
-145.25651916200741
 20
-171.43254399457729
 30
0.0
 11
145.55317218217149
 21
-171.4469190702535
 31
0.0
  0
LINE
  8
DETAIL
  6
CONTINUOUS
 62
     5
 10
-145.25652029159369
 20
-171.36483339046569
 30
0.0
 11
145.55317105258541
 21
-171.37920846624101
 31
0.0
  0
LINE
  8
DETAIL
  6
CONTINUOUS
 62
     5
 10
145.5535902527397
 20
-167.78125954778881
 30
0.0
 11
-145.26117663201279
 21
-167.786110985704
 31
0.0
  0
LINE
  8
DETAIL
  6
CONTINUOUS
 62
     5
 10
145.5535741706409
 20
-166.81722921343609
 30
0.0
 11
91.679274986383803
 21
-166.81812795667071
 31
0.0
  0
LINE
  8
DETAIL
  6
CONTINUOUS
 62
     5
 10
-91.386893529954364
 20
-166.82118190801791
 30
0.0
 11
-145.2611927142114
 21
-166.822080651352
 31
0.0
  0
LINE
  8
DETAIL
  6
CONTINUOUS
 62
     5
 10
91.679258336499061
 20
-165.82009031431841
 30
0.0
 11
-91.3869101795392
 21
-165.82314426566441
 31
0.0
  0
LINE
  8
DETAIL
  6
CONTINUOUS
 62
     5
 10
146.54723784522781
 20
-165.78863521985531
 30
0.0
 11
147.54512348158599
 21
-165.7886185726141
 31
0.0
  0
LINE
  8
DETAIL
  6
CONTINUOUS
 62
     5
 10
-146.2548907067071
 20
-165.79351981143071
 30
0.0
 11
-147.25277634316549
 21
-165.79353645837261
 31
0.0
  0
LINE
  8
DETAIL
  6
CONTINUOUS
 62
     5
 10
129.75104819070191
 20
-171.7952983208757
 30
0.0
 11
45.548301564446888
 21
-171.7970802733152
 31
0.0
  0
LINE
  8
DETAIL
  6
CONTINUOUS
 62
     5
 10
148.1464364218476
 20
-169.79952143155279
 30
0.0
 11
148.1502228462106
 21
-107.61402400928429
 31
0.0
  0
LINE
  8
DETAIL
  6
CONTINUOUS
 62
     5
 10
148.149925060529
 20
-89.763548976730192
 30
0.0
 11
148.141165478798
 21
146.16207931642759
 31
0.0
  0
LINE
  8
DETAIL
  6
CONTINUOUS
 62
     5
 10
147.94111701754059
 20
-93.021345463030286
 30
0.0
 11
147.94111270147889
 21
-104.13742709410459
 31
0.0
  0
LINE
  8
DETAIL
  6
CONTINUOUS
 62
     5
 10
147.53992947831449
 20
145.56089926045149
 30
0.0
 11
147.5451234815863
 21
-165.7886185729138
 31
0.0
  0
LINE
  8
DETAIL
  6
CONTINUOUS
 62
     5
 10
145.55317218217149
 20
-171.4469190702535
 30
0.0
 11
145.55317105258541
 21
-171.37920846624101
 31
0.0
  0
LINE
  8
DETAIL
  6
CONTINUOUS
 62
     5
 10
145.5535741706409
 20
-166.81722921343609
 30
0.0
 11
145.5535902527397
 21
-167.78125954778881
 31
0.0
  0
LINE
  8
DETAIL
  6
CONTINUOUS
 62
     5
 10
147.54891016110491
 20
-169.45111450355321
 30
0.0
 11
147.5451234815863
 21
-165.7886185729138
 31
0.0
  0
LINE
  8
DETAIL
  6
CONTINUOUS
 62
     5
 10
145.55317105258541
 20
-171.37920846624101
 30
0.0
 11
145.5535902527397
 21
-167.78125954778881
 31
0.0
  0
LINE
  8
DETAIL
  6
CONTINUOUS
 62
     5
 10
91.679274986383803
 20
-166.81812795667071
 30
0.0
 11
91.679258336499061
 21
-165.82009031431841
 31
0.0
  0
LINE
  8
DETAIL
  6
CONTINUOUS
 62
     5
 10
-145.62008360876141
 20
-171.79612057167529
 30
0.0
 11
-145.25651916200741
 21
-171.43254399457729
 31
0.0
  0
LINE
  8
DETAIL
  6
CONTINUOUS
 62
     5
 10
148.1464364218476
 20
-169.79952143155271
 30
0.0
 11
147.54891016110491
 21
-169.45111450355321
 31
0.0
  0
LINE
  8
DETAIL
  6
CONTINUOUS
 62
     5
 10
145.90166959030901
 20
-171.7954048511472
 30
0.0
 11
145.55317218217149
 21
-171.4469190702535
 31
0.0
  0
LINE
  8
DETAIL
  6
CONTINUOUS
 62
     5
 10
-91.386893529954364
 20
-166.82118190801791
 30
0.0
 11
-91.3869101795392
 21
-165.82314426566441
 31
0.0
  0
LINE
  8
DETAIL
  6
CONTINUOUS
 62
     5
 10
-145.25652029159369
 20
-171.36483339046569
 30
0.0
 11
-145.26117663201279
 21
-167.786110985704
 31
0.0
  0
LINE
  8
DETAIL
  6
CONTINUOUS
 62
     5
 10
-147.25232372870769
 20
-169.43680601564461
 30
0.0
 11
-147.25277634316549
 21
-165.79353645837261
 31
0.0
  0
LINE
  8
DETAIL
  6
CONTINUOUS
 62
     5
 10
-145.2611927142114
 20
-166.822080651352
 30
0.0
 11
-145.26117663141389
 21
-167.7861109857034
 31
0.0
  0
LINE
  8
DETAIL
  6
CONTINUOUS
 62
     5
 10
-145.25651916200741
 20
-171.43254399457729
 30
0.0
 11
-145.25652029159369
 21
-171.36483339046569
 31
0.0
  0
LINE
  8
DETAIL
  6
CONTINUOUS
 62
     5
 10
-147.85508507605999
 20
-102.0907999277382
 30
0.0
 11
-147.8539554614876
 21
-169.80445937717249
 31
0.0
  0
ARC
  8
DETAIL
  6
CONTINUOUS
 62
     5
 10
145.5485633343402
 20
-165.7848506633004
 30
0.0
 40
1.996487508679315
 50
270.14426934588153
 51
359.89187149618039
  0
ARC
  8
DETAIL
  6
CONTINUOUS
 62
     5
 10
-145.25621423376219
 20
-165.78970003592869
 30
0.0
 40
1.996489928720915
 50
180.1100945161852
 51
269.85758248257639
  0
ARC
  8
DETAIL
  6
CONTINUOUS
 62
     5
 10
-145.86037804846899
 20
-169.8042323683552
 30
0.0
 40
1.993501422968494
 50
180.0065244907822
 51
269.99375093327768
  0
CIRCLE
  8
DETAIL
  6
CONTINUOUS
 62
     5
 10
0.1433219673594976
 20
5.1454498899282726
 30
0.0
 40
109.2979278416129
  0
ARC
  8
DETAIL
  6
CONTINUOUS
 62
     5
 10
0.1386704819595934
 20
5.1450285553555659
 30
0.0
 40
45.909731555000207
 50
135.1089760298847
 51
207.10897602988231
  0
ARC
  8
DETAIL
  6
CONTINUOUS
 62
     5
 10
0.1386704819594797
 20
5.1450285553558501
 30
0.0
 40
45.909731555000192
 50
207.10897602988231
 51
279.10897602988712
  0
ARC
  8
DETAIL
  6
CONTINUOUS
 62
     5
 10
0.138670481959366
 20
5.1450285553560207
 30
0.0
 40
45.909731554999688
 50
63.108976029885127
 51
135.1089760298847
  0
ARC
  8
DETAIL
  6
CONTINUOUS
 62
     5
 10
0.138670481959366
 20
5.1450285553556796
 30
0.0
 40
45.909731555000008
 50
279.10897602988712
 51
351.10897602988439
  0
ARC
  8
DETAIL
  6
CONTINUOUS
 62
     5
 10
0.1386704819594797
 20
5.1450285553557364
 30
0.0
 40
45.909731554999887
 50
351.10897602988439
 51
63.108976029885127
  0
LINE
  8
DETAIL
  6
CONTINUOUS
 62
     5
 10
-147.85787922230381
 20
68.46644493012991
 30
0.0
 11
-147.85526637661141
 21
-91.222917279736237
 31
0.0
  0
LINE
  8
DETAIL
  6
CONTINUOUS
 62
     5
 10
-147.25277634316549
 20
-165.79353645837261
 30
0.0
 11
-147.25668527364471
 21
68.523531957899024
 31
0.0
  0
LINE
  8
DETAIL
  6
CONTINUOUS
 62
     5
 10
-146.2548907067071
 20
-165.79351981143071
 30
0.0
 11
-146.25880131478411
 21
68.624110577711861
 31
0.0
  0
LINE
  8
DETAIL
  6
CONTINUOUS
 62
     5
 10
-48.285445217976189
 20
147.55340373044569
 30
0.0
 11
145.54412491161449
 21
147.55663723928501
 31
0.0
  0
LINE
  8
DETAIL
  6
CONTINUOUS
 62
     5
 10
146.1452849090999
 20
148.15781729448821
 30
0.0
 11
-48.136273480580599
 21
148.1545762454725
 31
0.0
  0
LINE
  8
DETAIL
  6
CONTINUOUS
 62
     5
 10
-48.53683285443401
 20
146.5555139001037
 30
0.0
 11
145.54414155855599
 21
146.55875160292649
 31
0.0
  0
CIRCLE
  8
DETAIL
  6
CONTINUOUS
 62
     5
 10
0.1433219673594976
 20
5.1454498899282726
 30
0.0
 40
108.78610303249999
  0
LINE
  8
DETAIL
  6
CONTINUOUS
 62
     5
 10
178.45772679295311
 20
-167.21521249244361
 30
0.0
 11
179.8175506566844
 21
-166.87070371727731
 31
0.0
  0
LINE
  8
DETAIL
  6
CONTINUOUS
 62
     5
 10
179.8175506566844
 20
-166.87070371727731
 30
0.0
 11
181.06242983716189
 21
-166.81186695411509
 31
0.0
  0
LINE
  8
DETAIL
  6
CONTINUOUS
 62
     5
 10
181.06242983716189
 20
-166.81186695411509
 30
0.0
 11
181.06242983716189
 21
-166.81186695411509
 31
0.0
  0
LINE
  8
DETAIL
  6
CONTINUOUS
 62
     5
 10
181.06242983716189
 20
-166.81186695411509
 30
0.0
 11
182.11735275963781
 21
-167.17654564682471
 31
0.0
  0
LINE
  8
DETAIL
  6
CONTINUOUS
 62
     5
 10
182.11735275963781
 20
-167.17654564682471
 30
0.0
 11
183.0670402833928
 21
-167.51126896672761
 31
0.0
  0
LINE
  8
DETAIL
  6
CONTINUOUS
 62
     5
 10
183.0670402833928
 20
-167.51126896672761
 30
0.0
 11
183.0670402833928
 21
-167.51126896672761
 31
0.0
  0
LINE
  8
DETAIL
  6
CONTINUOUS
 62
     5
 10
183.0670402833928
 20
-167.51126896672761
 30
0.0
 11
184.0137525008281
 21
-167.36755864728039
 31
0.0
  0
LINE
  8
DETAIL
  6
CONTINUOUS
 62
     5
 10
184.0137525008281
 20
-167.36755864728039
 30
0.0
 11
184.97017400279731
 21
-166.9082209430222
 31
0.0
  0
LINE
  8
DETAIL
  6
CONTINUOUS
 62
     5
 10
178.4553707284681
 20
-164.8189248550371
 30
0.0
 11
179.8151945921995
 21
-164.47441607987031
 31
0.0
  0
LINE
  8
DETAIL
  6
CONTINUOUS
 62
     5
 10
179.8151945921995
 20
-164.47441607987031
 30
0.0
 11
181.06007377267699
 21
-164.41557931670809
 31
0.0
  0
LINE
  8
DETAIL
  6
CONTINUOUS
 62
     5
 10
181.06007377267699
 20
-164.41557931670809
 30
0.0
 11
181.06007377267699
 21
-164.41557931670809
 31
0.0
  0
LINE
  8
DETAIL
  6
CONTINUOUS
 62
     5
 10
181.06007377267699
 20
-164.41557931670809
 30
0.0
 11
182.11499669515291
 21
-164.78025800941771
 31
0.0
  0
LINE
  8
DETAIL
  6
CONTINUOUS
 62
     5
 10
182.11499669515291
 20
-164.78025800941771
 30
0.0
 11
183.0646842189077
 21
-165.1149813293207
 31
0.0
  0
LINE
  8
DETAIL
  6
CONTINUOUS
 62
     5
 10
183.0646842189077
 20
-165.1149813293207
 30
0.0
 11
183.0646842189077
 21
-165.1149813293207
 31
0.0
  0
LINE
  8
DETAIL
  6
CONTINUOUS
 62
     5
 10
183.0646842189077
 20
-165.1149813293207
 30
0.0
 11
184.01139643634309
 21
-164.97127100987331
 31
0.0
  0
LINE
  8
DETAIL
  6
CONTINUOUS
 62
     5
 10
184.01139643634309
 20
-164.97127100987331
 30
0.0
 11
184.96781793831249
 21
-164.51193330561509
 31
0.0
  0
LINE
  8
DETAIL
  6
CONTINUOUS
 62
     5
 10
161.81098319236821
 20
-205.8249643519174
 30
0.0
 11
161.80603545695001
 21
-200.79276031336289
 31
0.0
  0
ARC
  8
DETAIL
  6
CONTINUOUS
 62
     5
 10
165.88748081185349
 20
-203.3048518291823
 30
0.0
 40
4.7925775913297004
 50
148.38809076314561
 51
211.72457727022561
  0
LINE
  8
DETAIL
  6
CONTINUOUS
 62
     5
 10
183.0392782888249
 20
-181.32199669081109
 30
0.0
 11
183.02569361868609
 21
-167.50540664370561
 31
0.0
  0
LINE
  8
DETAIL
  6
CONTINUOUS
 62
     5
 10
180.64299065141839
 20
-181.32435275529599
 30
0.0
 11
180.62869259105389
 21
-166.78219335763899
 31
0.0
  0
LINE
  8
DETAIL
  6
CONTINUOUS
 62
     5
 10
174.67740291240631
 20
-206.8906443821817
 30
0.0
 11
183.46379091623149
 21
-206.8820054790705
 31
0.0
  0
ARC
  8
DETAIL
  6
CONTINUOUS
 62
     5
 10
185.8601736581895
 20
-206.97637760771661
 30
0.0
 40
1.5975258637766561
 50
273.63266839168318
 51
0.056334016682602
  0
CIRCLE
  8
DETAIL
  6
CONTINUOUS
 62
     5
 10
165.3283470297919
 20
-203.30540157756209
 30
0.0
 40
1.5575877171821439
  0
CIRCLE
  8
DETAIL
  6
CONTINUOUS
 62
     5
 10
165.3283470297919
 20
-203.30540157756209
 30
0.0
 40
1.238082544426836
  0
LINE
  8
DETAIL
  6
CONTINUOUS
 62
     5
 10
161.81098319236821
 20
-205.8249643519174
 30
0.0
 11
174.67634268338821
 21
-205.81231494534839
 31
0.0
  0
LINE
  8
DETAIL
  6
CONTINUOUS
 62
     5
 10
174.67975897689109
 20
-209.28693201958839
 30
0.0
 11
185.9613921863164
 21
-208.57069366640749
 31
0.0
  0
LINE
  8
DETAIL
  6
CONTINUOUS
 62
     5
 10
180.64299065141839
 20
-181.32435275529599
 30
0.0
 11
180.64290179634679
 21
-181.23398073421981
 31
0.0
  0
LINE
  8
DETAIL
  6
CONTINUOUS
 62
     5
 10
183.0392782888249
 20
-181.32199669081109
 30
0.0
 11
183.03918943375359
 21
-181.23162466973491
 31
0.0
  0
LINE
  8
DETAIL
  6
CONTINUOUS
 62
     5
 10
183.46379091623149
 20
-206.8820054790705
 30
0.0
 11
183.45672272277679
 21
-199.6931425668495
 31
0.0
  0
LINE
  8
DETAIL
  6
CONTINUOUS
 62
     5
 10
174.67033471895161
 20
-199.70178146996071
 30
0.0
 11
183.45672272277679
 21
-199.6931425668495
 31
0.0
  0
LINE
  8
DETAIL
  6
CONTINUOUS
 62
     5
 10
181.04983279518771
 20
-188.91220426300359
 30
0.0
 11
181.0486547629454
 21
-187.71406044430009
 31
0.0
  0
LINE
  8
DETAIL
  6
CONTINUOUS
 62
     5
 10
181.04512066621811
 20
-184.1196289881897
 30
0.0
 11
181.04394263397569
 21
-182.9214851694862
 31
0.0
  0
LINE
  8
DETAIL
  6
CONTINUOUS
 62
     5
 10
182.64500182230771
 20
-186.51434591594011
 30
0.0
 11
182.64382379006531
 21
-185.3162020972367
 31
0.0
  0
LINE
  8
DETAIL
  6
CONTINUOUS
 62
     5
 10
181.05454492415771
 20
-193.7047795378173
 30
0.0
 11
181.05336689191509
 21
-192.5066357191138
 31
0.0
  0
LINE
  8
DETAIL
  6
CONTINUOUS
 62
     5
 10
182.64971395127739
 20
-191.30692119075371
 30
0.0
 11
182.648535919035
 21
-190.10877737205061
 31
0.0
  0
LINE
  8
DETAIL
  6
CONTINUOUS
 62
     5
 10
178.00045283726649
 20
-193.70778236510199
 30
0.0
 11
181.85330746995999
 21
-193.70399418298899
 31
0.0
  0
LINE
  8
DETAIL
  6
CONTINUOUS
 62
     5
 10
178.14023290134219
 20
-192.50949995436989
 30
0.0
 11
181.85212943771759
 21
-192.50585036428549
 31
0.0
  0
LINE
  8
DETAIL
  6
CONTINUOUS
 62
     5
 10
181.85095140547509
 20
-191.30770654558199
 30
0.0
 11
185.4218898455326
 21
-191.30419554752609
 31
0.0
  0
LINE
  8
DETAIL
  6
CONTINUOUS
 62
     5
 10
181.84977337323269
 20
-190.10956272687889
 30
0.0
 11
185.27975371697201
 21
-190.10619032085151
 31
0.0
  0
LINE
  8
DETAIL
  6
CONTINUOUS
 62
     5
 10
178.55957309356901
 20
-188.9146527221742
 30
0.0
 11
181.8485953409903
 21
-188.91141890817539
 31
0.0
  0
LINE
  8
DETAIL
  6
CONTINUOUS
 62
     5
 10
178.69935315764451
 20
-187.7163703114422
 30
0.0
 11
181.84741730874791
 21
-187.71327508947189
 31
0.0
  0
LINE
  8
DETAIL
  6
CONTINUOUS
 62
     5
 10
181.84623927650549
 20
-186.51513127076831
 30
0.0
 11
184.85334533129031
 21
-186.51217464082649
 31
0.0
  0
LINE
  8
DETAIL
  6
CONTINUOUS
 62
     5
 10
181.84506124426301
 20
-185.31698745206501
 30
0.0
 11
184.7112092027298
 21
-185.31416941415171
 31
0.0
  0
LINE
  8
DETAIL
  6
CONTINUOUS
 62
     5
 10
179.11869334987159
 20
-184.12152307924609
 30
0.0
 11
181.8438832120205
 21
-184.11884363336139
 31
0.0
  0
LINE
  8
DETAIL
  6
CONTINUOUS
 62
     5
 10
179.2584734139468
 20
-182.9232406685141
 30
0.0
 11
181.84270517977811
 21
-182.92069981465789
 31
0.0
  0
ARC
  8
DETAIL
  6
CONTINUOUS
 62
     5
 10
179.80038913716939
 20
-181.72456287221581
 30
0.0
 40
0.3993814659442887
 50
90.056334016685852
 51
173.34649720893921
  0
ARC
  8
DETAIL
  6
CONTINUOUS
 62
     5
 10
183.8826651579021
 20
-181.720549119693
 30
0.0
 40
0.3993814659441091
 50
6.7661708244352106
 51
90.056334016685852
  0
ARC
  8
DETAIL
  6
CONTINUOUS
 62
     5
 10
177.06362665867439
 20
-196.65258463705791
 30
0.0
 40
0.7987629318882143
 50
266.47999964167792
 51
0.056334016682602
  0
ARC
  8
DETAIL
  6
CONTINUOUS
 62
     5
 10
186.64945648253561
 20
-197.33403130362689
 30
0.0
 40
0.7987629318882462
 50
180.0563340166826
 51
250.58511338220379
  0
LINE
  8
DETAIL
  6
CONTINUOUS
 62
     5
 10
177.86067277319111
 20
-194.9060647758339
 30
0.0
 11
179.40369750371309
 21
-181.67828865384669
 31
0.0
  0
LINE
  8
DETAIL
  6
CONTINUOUS
 62
     5
 10
185.8482982312139
 20
-194.89821122755151
 30
0.0
 11
184.27926502951979
 21
-181.67349492570159
 31
0.0
  0
LINE
  8
DETAIL
  6
CONTINUOUS
 62
     5
 10
179.79999645975519
 20
-181.3251815993149
 30
0.0
 11
183.8822724804879
 21
-181.32116784679209
 31
0.0
  0
LINE
  8
DETAIL
  6
CONTINUOUS
 62
     5
 10
177.86238920447681
 20
-196.6517992822296
 30
0.0
 11
177.86067277319111
 21
-194.9060647758339
 31
0.0
  0
LINE
  8
DETAIL
  6
CONTINUOUS
 62
     5
 10
185.85069393673339
 20
-197.3348166584552
 30
0.0
 11
185.8482982312139
 21
-194.89821122755151
 31
0.0
  0
ARC
  8
DETAIL
  6
CONTINUOUS
 62
     5
 10
185.8529152556323
 20
-199.5940583092335
 30
0.0
 40
1.5975258637765479
 50
0.056334016682602
 51
86.479999641684373
  0
LINE
  8
DETAIL
  6
CONTINUOUS
 62
     5
 10
161.80603545695001
 20
-200.79276031336289
 30
0.0
 11
174.67139494796979
 21
-200.78011090679391
 31
0.0
  0
LINE
  8
DETAIL
  6
CONTINUOUS
 62
     5
 10
185.95099848211359
 20
-197.99954629418991
 30
0.0
 11
174.66797865446691
 21
-197.30549383255411
 31
0.0
  0
LINE
  8
DETAIL
  6
CONTINUOUS
 62
     5
 10
187.45769874979419
 20
-206.97480689806011
 30
0.0
 11
187.45044034723699
 21
-199.59248759957691
 31
0.0
  0
LINE
  8
DETAIL
  6
CONTINUOUS
 62
     5
 10
174.67975897689109
 20
-209.28693201958839
 30
0.0
 11
174.66797865446691
 21
-197.30549383255411
 31
0.0
  0
LINE
  8
DETAIL
  6
CONTINUOUS
 62
     5
 10
165.5166773602102
 20
-97.726659714032422
 30
0.0
 11
165.52153779631459
 21
-102.6700740495
 31
0.0
  0
LINE
  8
DETAIL
  6
CONTINUOUS
 62
     5
 10
165.5166773602102
 20
-97.726659714032422
 30
0.0
 11
147.94029343775719
 21
-97.743941067608546
 31
0.0
  0
LINE
  8
DETAIL
  6
CONTINUOUS
 62
     5
 10
165.52153779631459
 20
-102.6700740495
 30
0.0
 11
147.9396869754124
 21
-102.6873607782093
 31
0.0
  0
LINE
  8
DETAIL
  6
CONTINUOUS
 62
     5
 10
172.8135822085878
 20
-99.060346277470103
 30
0.0
 11
165.51799571274981
 21
-99.067519403087715
 31
0.0
  0
LINE
  8
DETAIL
  6
CONTINUOUS
 62
     5
 10
172.81546736487951
 20
-100.9773763870962
 30
0.0
 11
165.51988056433771
 21
-100.98454951301341
 31
0.0
  0
LINE
  8
DETAIL
  6
CONTINUOUS
 62
     5
 10
180.8659732563419
 20
-164.3934622376446
 30
0.0
 11
180.81094637118551
 21
-108.9571482968361
 31
0.0
  0
LINE
  8
DETAIL
  6
CONTINUOUS
 62
     5
 10
182.78365393231991
 20
-165.05355992430779
 30
0.0
 11
182.72797617640711
 21
-108.9552634455478
 31
0.0
  0
ARC
  8
DETAIL
  6
CONTINUOUS
 62
     5
 10
172.82332091316241
 20
-108.965001845119
 30
0.0
 40
7.987629318882874
 50
0.056334016682602
 51
90.056334016685852
  0
ARC
  8
DETAIL
  6
CONTINUOUS
 62
     5
 10
172.8233206084586
 20
-108.9650018454186
 30
0.0
 40
9.9046603554147516
 50
0.056334016682602
 51
90.056334016685852
  0
LINE
  8
DETAIL
  6
CONTINUOUS
 62
     5
 10
-147.85499105574959
 20
-84.238489332460688
 30
0.0
 11
-147.85883456764091
 21
146.1571413774715
 31
0.0
  0
LINE
  8
DETAIL
  6
CONTINUOUS
 62
     5
 10
-147.25757850944839
 20
145.55598138174
 30
0.0
 11
-147.25238450655249
 21
-165.7935364516247
 31
0.0
  0
LINE
  8
DETAIL
  6
CONTINUOUS
 62
     5
 10
-146.2596928730899
 20
145.55599802870651
 30
0.0
 11
-146.25449887019391
 21
-165.79351980465859
 31
0.0
  0
LINE
  8
DETAIL
  6
CONTINUOUS
 62
     5
 10
48.567729599026507
 20
147.5550194570163
 30
0.0
 11
-145.26184053056389
 21
147.5517859483889
 31
0.0
  0
LINE
  8
DETAIL
  6
CONTINUOUS
 62
     5
 10
-145.86302058575819
 20
148.1529459458834
 30
0.0
 11
48.418537803922391
 21
148.15618699467569
 31
0.0
  0
LINE
  8
DETAIL
  6
CONTINUOUS
 62
     5
 10
48.819150529392118
 20
146.5571380146408
 30
0.0
 11
-145.2618238835978
 21
146.55390031203081
 31
0.0
  0
ARC
  8
DETAIL
  6
CONTINUOUS
 62
     5
 10
-145.25621349909781
 20
-165.7904472425972
 30
0.0
 40
1.996489928720915
 50
180.1100945161852
 51
269.85758248258952
  0
ARC
  8
DETAIL
  6
CONTINUOUS
 62
     5
 10
145.54421868954711
 20
145.56017851110661
 30
0.0
 40
0.997823122991688
 50
359.99752492288098
 51
90.004386722303664
  0
ARC
  8
DETAIL
  6
CONTINUOUS
 62
     5
 10
145.54385502120039
 20
145.55981483073731
 30
0.0
 40
1.996075220327189
 50
0.0096797247808
 51
89.992231917585926
  0
ARC
  8
DETAIL
  6
CONTINUOUS
 62
     5
 10
145.54856406900481
 20
-165.785597869969
 30
0.0
 40
1.996487508679315
 50
270.14426934588153
 51
359.89187149617391
  0
LINE
  8
DETAIL
  6
CONTINUOUS
 62
     5
 10
148.14091081101529
 20
146.19262012660579
 30
0.0
 11
148.14115786437489
 21
146.16133210963369
 31
0.0
  0
LINE
  8
DETAIL
  6
CONTINUOUS
 62
     5
 10
146.14528564256969
 20
148.15713586152481
 30
0.0
 11
146.18841019373579
 21
148.15667160665251
 31
0.0
  0
LINE
  8
DETAIL
  6
CONTINUOUS
 62
     5
 10
146.5420445766205
 20
145.56013540684151
 30
0.0
 11
147.53993021297899
 21
145.56015205378301
 31
0.0
  0
LINE
  8
DETAIL
  6
CONTINUOUS
 62
     5
 10
-147.85508507605999
 20
-102.0907999277382
 30
0.0
 11
-147.85526637661141
 21
-91.222917279736237
 31
0.0
  0
LINE
  8
DETAIL
  6
CONTINUOUS
 62
     5
 10
-145.2565184273428
 20
-171.43329120124579
 30
0.0
 11
-145.25651955692939
 21
-171.36558059713431
 31
0.0
  0
LINE
  8
DETAIL
  6
CONTINUOUS
 62
     5
 10
-145.26119197954679
 20
-166.8228278580205
 30
0.0
 11
-145.26117589674971
 21
-167.78685819237199
 31
0.0
  0
LINE
  8
DETAIL
  6
CONTINUOUS
 62
     5
 10
-147.25232299404311
 20
-169.43755322231311
 30
0.0
 11
-147.25277560850131
 21
-165.79428366504121
 31
0.0
  0
LINE
  8
DETAIL
  6
CONTINUOUS
 62
     5
 10
-145.25651955692939
 20
-171.36558059713431
 30
0.0
 11
-145.26117589734861
 21
-167.78685819237259
 31
0.0
  0
LINE
  8
DETAIL
  6
CONTINUOUS
 62
     5
 10
145.5441256462789
 20
147.5558900326165
 30
0.0
 11
146.14528564376431
 21
148.15707008781919
 31
0.0
  0
LINE
  8
DETAIL
  6
CONTINUOUS
 62
     5
 10
147.53993021297899
 20
145.56015205378301
 30
0.0
 11
148.14109021046471
 21
146.161332108886
 31
0.0
  0
LINE
  8
DETAIL
  6
CONTINUOUS
 62
     5
 10
-147.8538794585123
 20
-169.8044593760292
 30
0.0
 11
-147.25232299404311
 21
-169.43755322231311
 31
0.0
  0
LINE
  8
DETAIL
  6
CONTINUOUS
 62
     5
 10
-145.62008287409719
 20
-171.79686777834391
 30
0.0
 11
-145.2565184273428
 21
-171.43329120124579
 31
0.0
  0
LINE
  8
DETAIL
  6
CONTINUOUS
 62
     5
 10
145.55317178724991
 20
-171.3799556729096
 30
0.0
 11
145.55359098740419
 21
-167.78200675445771
 31
0.0
  0
LINE
  8
DETAIL
  6
CONTINUOUS
 62
     5
 10
147.5489108957689
 20
-169.45186171022169
 30
0.0
 11
147.5451242162508
 21
-165.7893657795822
 31
0.0
  0
LINE
  8
DETAIL
  6
CONTINUOUS
 62
     5
 10
145.5441422932204
 20
146.55800439625801
 30
0.0
 11
145.5441256462789
 21
147.5558900326165
 31
0.0
  0
LINE
  8
DETAIL
  6
CONTINUOUS
 62
     5
 10
147.94111775220469
 20
-93.02209266969885
 30
0.0
 11
147.9411134361435
 21
-104.1381743007731
 31
0.0
  0
LINE
  8
DETAIL
  6
CONTINUOUS
 62
     5
 10
-146.25488997204249
 20
-165.79426701809959
 30
0.0
 11
-147.25277560850131
 21
-165.79428366504121
 31
0.0
  0
ARC
  8
DETAIL
  6
CONTINUOUS
 62
     5
 10
-145.2618662533454
 20
145.55532721821291
 30
0.0
 40
0.997823122991688
 50
89.997524920028042
 51
180.00438671942459
  0
ARC
  8
DETAIL
  6
CONTINUOUS
 62
     5
 10
-145.26150257286449
 20
145.55496354997749
 30
0.0
 40
1.996075220327189
 50
90.009679724731939
 51
179.99223191753049
  0
LINE
  8
DETAIL
  6
CONTINUOUS
 62
     5
 10
-147.8585794744362
 20
146.18768219614961
 30
0.0
 11
-147.8588254838881
 21
146.15639417095201
 31
0.0
  0
LINE
  8
DETAIL
  6
CONTINUOUS
 62
     5
 10
-145.86301985209269
 20
148.15226451291619
 30
0.0
 11
-145.90614438774551
 21
148.15179881921679
 31
0.0
  0
LINE
  8
DETAIL
  6
CONTINUOUS
 62
     5
 10
-146.25969213842461
 20
145.55525082203351
 30
0.0
 11
-147.25757777478319
 21
145.55523417506689
 31
0.0
  0
LINE
  8
DETAIL
  6
CONTINUOUS
 62
     5
 10
-145.26183979589871
 20
147.55103874171579
 30
0.0
 11
-145.86301985109279
 21
148.15219873921029
 31
0.0
  0
LINE
  8
DETAIL
  6
CONTINUOUS
 62
     5
 10
-147.25757777478319
 20
145.55523417506689
 30
0.0
 11
-147.85875782997741
 21
146.1563941724614
 31
0.0
  0
LINE
  8
DETAIL
  6
CONTINUOUS
 62
     5
 10
-145.26182314893211
 20
146.5531531053573
 30
0.0
 11
-145.26183979589871
 21
147.55103874171579
 31
0.0
  0
ARC
  8
DETAIL
  6
CONTINUOUS
 62
     5
 10
-53.1978964507299
 20
44.483529197390681
 30
0.0
 40
74.43351127333446
 50
2.581596678757077
 51
59.715514561467181
  0
ARC
  8
DETAIL
  6
CONTINUOUS
 62
     5
 10
24.270437731383709
 20
47.809716592090922
 30
0.0
 40
3.1104788227151201
 50
179.5126755932034
 51
243.11684393582371
  0
ARC
  8
DETAIL
  6
CONTINUOUS
 62
     5
 10
2.4789096609366652
 20
1.5464657471960661
 30
0.0
 40
108.73664816259461
 50
99.603512252313109
 51
145.78714421427841
  0
ARC
  8
DETAIL
  6
CONTINUOUS
 62
     5
 10
-84.901904144124501
 20
61.04765066837399
 30
0.0
 40
3.021916330610964
 50
147.17612874535391
 51
279.27372815408722
  0
ARC
  8
DETAIL
  6
CONTINUOUS
 62
     5
 10
-75.243032689980964
 20
29.603264040679509
 30
0.0
 40
29.903295599344709
 50
78.694924597889539
 51
107.8615662578065
  0
ARC
  8
DETAIL
  6
CONTINUOUS
 62
     5
 10
-65.748192890747873
 20
73.264812986362074
 30
0.0
 40
14.791506545392281
 50
255.78265429053599
 51
289.31856118116411
  0
ARC
  8
DETAIL
  6
CONTINUOUS
 62
     5
 10
-54.548115626625297
 20
47.301098172915538
 30
0.0
 40
13.560847459991111
 50
81.831274549061121
 51
117.7147806682845
  0
ARC
  8
DETAIL
  6
CONTINUOUS
 62
     5
 10
-53.997188514952313
 20
12.83542545063546
 30
0.0
 40
47.908692864838287
 50
53.364836945027271
 51
88.354265559737797
  0
ARC
  8
DETAIL
  6
CONTINUOUS
 62
     5
 10
-28.30125568426638
 20
47.286387700790897
 30
0.0
 40
4.9313910661161833
 50
303.1303783387209
 51
54.513713605205368
  0
ARC
  8
DETAIL
  6
CONTINUOUS
 62
     5
 10
21.07024486999239
 20
68.027203162737692
 30
0.0
 40
74.433511273334432
 50
290.58159667874702
 51
347.71551456146699
  0
ARC
  8
DETAIL
  6
CONTINUOUS
 62
     5
 10
48.172668854331498
 20
-4.6217124362541986
 30
0.0
 40
3.1104788227151192
 50
107.5126755931976
 51
171.11684393581351
  0
ARC
  8
DETAIL
  6
CONTINUOUS
 62
     5
 10
-2.5602498338698751
 20
1.8071316090695291
 30
0.0
 40
108.73664816259461
 50
27.603512252310772
 51
73.787144214270896
  0
ARC
  8
DETAIL
  6
CONTINUOUS
 62
     5
 10
27.026583364622411
 20
103.2981013036372
 30
0.0
 40
3.021916330610964
 50
75.176128745362647
 51
207.2737281540752
  0
ARC
  8
DETAIL
  6
CONTINUOUS
 62
     5
 10
0.1059499872632159
 20
84.395118821462518
 30
0.0
 40
29.903295599344709
 50
6.6949245978872884
 51
35.86156625778338
  0
ARC
  8
DETAIL
  6
CONTINUOUS
 62
     5
 10
44.564617480425113
 20
88.857150184172895
 30
0.0
 40
14.791506545392281
 50
183.78265429053789
 51
217.31856118115519
  0
ARC
  8
DETAIL
  6
CONTINUOUS
 62
     5
 10
23.33267153279348
 20
70.18201460466048
 30
0.0
 40
13.560847459991111
 50
9.8312745490609643
 51
45.714780668302787
  0
ARC
  8
DETAIL
  6
CONTINUOUS
 62
     5
 10
-9.2758852580579969
 20
59.007573191350623
 30
0.0
 40
47.908692864838287
 50
341.36483694502391
 51
16.354265559728098
  0
ARC
  8
DETAIL
  6
CONTINUOUS
 62
     5
 10
31.429406813589711
 20
45.215221638311959
 30
0.0
 40
4.9313910661161824
 50
231.13037833870359
 51
342.51371360523052
  0
ARC
  8
DETAIL
  6
CONTINUOUS
 62
     5
 10
66.411725365893631
 20
4.6693988139508056
 30
0.0
 40
74.43351127333446
 50
218.58159667874409
 51
275.71551456146301
  0
ARC
  8
DETAIL
  6
CONTINUOUS
 62
     5
 10
5.6936103836117127
 20
-43.556287666748972
 30
0.0
 40
3.1104788227151201
 50
35.512675593201187
 51
99.116843935818636
  0
ARC
  8
DETAIL
  6
CONTINUOUS
 62
     5
 10
-3.8695296437343809
 20
6.6802073065281888
 30
0.0
 40
108.73664816259461
 50
315.60351225231818
 51
1.78714421427196
  0
ARC
  8
DETAIL
  6
CONTINUOUS
 62
     5
 10
101.796952697469
 20
9.9038912077787131
 30
0.0
 40
3.021916330610964
 50
3.1761287453431399
 51
135.27372815404971
  0
ARC
  8
DETAIL
  6
CONTINUOUS
 62
     5
 10
75.50021481744227
 20
29.665592172745509
 30
0.0
 40
29.903295599344709
 50
294.69492459788052
 51
323.86156625780148
  0
ARC
  8
DETAIL
  6
CONTINUOUS
 62
     5
 10
93.482342623513205
 20
-11.238269731914389
 30
0.0
 40
14.791506545392281
 50
111.78265429055109
 51
145.31856118115351
  0
ARC
  8
DETAIL
  6
CONTINUOUS
 62
     5
 10
69.160201116454118
 20
3.1835765488813759
 30
0.0
 40
13.560847459991111
 50
297.83127454904718
 51
333.71478066830628
  0
ARC
  8
DETAIL
  6
CONTINUOUS
 62
     5
 10
48.45607758395397
 20
30.743064672441449
 30
0.0
 40
47.908692864838287
 50
269.36483694504892
 51
304.35426555973498
  0
ARC
  8
DETAIL
  6
CONTINUOUS
 62
     5
 10
47.917398775537777
 20
-12.23203962227927
 30
0.0
 40
4.9313910661161833
 50
159.13037833872329
 51
270.51371360522228
  0
ARC
  8
DETAIL
  6
CONTINUOUS
 62
     5
 10
20.16616271059252
 20
-58.031551668003857
 30
0.0
 40
74.43351127333446
 50
146.58159667875739
 51
203.7155145614586
  0
ARC
  8
DETAIL
  6
CONTINUOUS
 62
     5
 10
-44.46212006562132
 20
-15.187749444880639
 30
0.0
 40
3.1104788227151201
 50
323.51267559321951
 51
27.11684393581633
  0
ARC
  8
DETAIL
  6
CONTINUOUS
 62
     5
 10
0.3604530465054268
 20
9.4312678789441406
 30
0.0
 40
108.73664816259461
 50
243.60351225232759
 51
289.78714421425582
  0
ARC
  8
DETAIL
  6
CONTINUOUS
 62
     5
 10
36.079097406517462
 20
-90.067355595664822
 30
0.0
 40
3.021916330610964
 50
291.1761287453312
 51
63.273728154071698
  0
ARC
  8
DETAIL
  6
CONTINUOUS
 62
     5
 10
46.747452980773907
 20
-58.950970241629143
 30
0.0
 40
29.903295599344709
 50
222.69492459787739
 51
251.8615662578006
  0
ARC
  8
DETAIL
  6
CONTINUOUS
 62
     5
 10
13.40235166180832
 20
-88.692978532551081
 30
0.0
 40
14.791506545392281
 50
39.782654290549793
 51
73.318561181155289
  0
ARC
  8
DETAIL
  6
CONTINUOUS
 62
     5
 10
19.602387478892521
 20
-61.104651770980922
 30
0.0
 40
13.560847459991111
 50
225.83127454905011
 51
261.7147806683011
  0
ARC
  8
DETAIL
  6
CONTINUOUS
 62
     5
 10
39.415092219382252
 20
-32.897509984761882
 30
0.0
 40
47.908692864838287
 50
197.36483694503951
 51
232.3542655597542
  0
ARC
  8
DETAIL
  6
CONTINUOUS
 62
     5
 10
-1.623121664885957
 20
-45.665233555931927
 30
0.0
 40
4.9313910661161833
 50
87.130378338711751
 51
198.51371360520929
  0
ARC
  8
DETAIL
  6
CONTINUOUS
 62
     5
 10
-53.756650364765278
 20
-33.425066207203663
 30
0.0
 40
74.43351127333446
 50
74.581596678771575
 51
131.7155145614596
  0
ARC
  8
DETAIL
  6
CONTINUOUS
 62
     5
 10
-32.981010772722932
 20
41.279546254664069
 30
0.0
 40
3.1104788227151201
 50
251.5126755932105
 51
315.11684393582692
  0
ARC
  8
DETAIL
  6
CONTINUOUS
 62
     5
 10
4.2840029011446177
 20
6.2584407571332576
 30
0.0
 40
108.73664816259461
 50
171.6035122523221
 51
217.78714421428421
  0
ARC
  8
DETAIL
  6
CONTINUOUS
 62
     5
 10
-79.307143193501588
 20
-58.458774285253668
 30
0.0
 40
3.021916330610964
 50
219.1761287453279
 51
351.27372815407023
  0
ARC
  8
DETAIL
  6
CONTINUOUS
 62
     5
 10
-46.416998964514853
 20
-58.989491494386982
 30
0.0
 40
29.903295599344709
 50
150.6949245978692
 51
179.8615662578014
  0
ARC
  8
DETAIL
  6
CONTINUOUS
 62
     5
 10
-85.007532744015521
 20
-36.467201607198092
 30
0.0
 40
14.791506545392281
 50
327.78265429052982
 51
1.3185611811479681
  0
ARC
  8
DETAIL
  6
CONTINUOUS
 62
     5
 10
-56.853558370531573
 20
-33.83852425660524
 30
0.0
 40
13.560847459991111
 50
153.83127454906611
 51
189.71478066829749
  0
ARC
  8
DETAIL
  6
CONTINUOUS
 62
     5
 10
-23.90450989934266
 20
-43.965040030794427
 30
0.0
 40
47.908692864838287
 50
125.3648369450254
 51
160.35426555972751
  0
ARC
  8
DETAIL
  6
CONTINUOUS
 62
     5
 10
-48.728842108991898
 20
-8.8808228620201817
 30
0.0
 40
4.9313910661161833
 50
15.130378338718071
 51
126.5137136052056
  0
ARC
  8
DETAIL
  6
CONTINUOUS
 62
     5
 10
14.603803849139689
 20
1.0568646915664319
 30
0.0
 40
30.93556718906687
 50
338.11288661895361
 51
350.32641218126111
  0
ARC
  8
DETAIL
  6
CONTINUOUS
 62
     5
 10
146.19910325205049
 20
146.21476719418541
 30
0.0
 40
1.941933852801166
 50
359.34654776825982
 51
90.315494890186415
  0
ARC
  8
DETAIL
  6
CONTINUOUS
 62
     5
 10
-145.8626826279957
 20
146.15612354734719
 30
0.0
 40
1.996075220327189
 50
90.009679724731939
 51
179.99223191753049
  0
ARC
  8
DETAIL
  6
CONTINUOUS
 62
     5
 10
-145.15955786702
 20
-165.73034978494141
 30
0.0
 40
1.0971954397407151
 50
183.3396622910019
 51
264.68502561155452
  0
ARC
  8
DETAIL
  6
CONTINUOUS
 62
     5
 10
-144.69773520246659
 20
-168.8786847647645
 30
0.0
 40
2.615005303573025
 50
192.3402083935745
 51
257.66170324735049
  0
ARC
  8
DETAIL
  6
CONTINUOUS
 62
     5
 10
145.44979197637039
 20
-165.72495310862541
 30
0.0
 40
1.0971954397407151
 50
275.42764242181221
 51
356.77300574236392
  0
ARC
  8
DETAIL
  6
CONTINUOUS
 62
     5
 10
145.57740312842691
 20
-169.41220132838239
 30
0.0
 40
1.9679035337892721
 50
269.29448337131419
 51
0.9289410544961152
  0
ARC
  8
DETAIL
  6
CONTINUOUS
 62
     5
 10
146.14860815695781
 20
-169.79757757101169
 30
0.0
 40
1.9977494439899799
 50
270.05776997608342
 51
0.0424146628962827
  0
LINE
  8
DETAIL
  6
CONTINUOUS
 62
     5
 10
148.15022358087481
 20
-107.6147712159528
 30
0.0
 11
147.9411134361435
 21
-104.1381743007731
 31
0.0
  0
LINE
  8
DETAIL
  6
CONTINUOUS
 62
     5
 10
148.14992579519321
 20
-89.764296183398699
 30
0.0
 11
147.94111775220469
 21
-93.02209266969885
 31
0.0
  0
LINE
  8
OUTLINE
  6
CONTINUOUS
 62
     3
 10
128.47119243279471
 20
-171.7911851463632
 30
0.0
 11
128.4422019486602
 21
-171.79040531788871
 31
0.0
  0
LINE
  8
OUTLINE
  6
CONTINUOUS
 62
     3
 10
128.5228512701872
 20
-171.79225727269539
 30
0.0
 11
128.47119243279471
 21
-171.7911851463632
 31
0.0
  0
LINE
  8
OUTLINE
  6
CONTINUOUS
 62
     3
 10
128.5842823430705
 20
-171.7931923463471
 30
0.0
 11
128.5228512701872
 21
-171.79225727269539
 31
0.0
  0
LINE
  8
OUTLINE
  6
CONTINUOUS
 62
     3
 10
128.68003562596749
 20
-171.79417144143741
 30
0.0
 11
128.5842823430705
 21
-171.7931923463471
 31
0.0
  0
LINE
  8
OUTLINE
  6
CONTINUOUS
 62
     3
 10
128.8206306364888
 20
-171.79560029971529
 30
0.0
 11
128.68003562596749
 21
-171.79417144143741
 31
0.0
  0
LINE
  8
OUTLINE
  6
CONTINUOUS
 62
     3
 10
-145.8580748905184
 20
-171.80027335783129
 30
0.0
 11
-45.255754013676551
 21
-171.79859508713761
 31
0.0
  0
LINE
  8
OUTLINE
  6
CONTINUOUS
 62
     3
 10
128.8206306364888
 20
-171.79560029971529
 30
0.0
 11
146.1506224411888
 21
-171.795402002522
 31
0.0
  0
LINE
  8
OUTLINE
  6
CONTINUOUS
 62
     3
 10
44.292255850763688
 20
-171.58764078645831
 30
0.0
 11
-43.772186949169622
 21
-171.58877802863469
 31
0.0
  0
LINE
  8
OUTLINE
  6
CONTINUOUS
 62
     3
 10
129.75104819070191
 20
-171.7952983208757
 30
0.0
 11
45.543500591170748
 21
-171.79633778630981
 31
0.0
  0
LINE
  8
OUTLINE
  6
CONTINUOUS
 62
     3
 10
148.1463566999247
 20
-169.7994749471184
 30
0.0
 11
148.15022280150291
 21
-107.614758258368
 31
0.0
  0
LINE
  8
OUTLINE
  6
CONTINUOUS
 62
     3
 10
148.149925060529
 20
-89.763548976730192
 30
0.0
 11
148.141165478798
 21
146.16207931642759
 31
0.0
  0
LINE
  8
OUTLINE
  6
CONTINUOUS
 62
     3
 10
147.94111701754059
 20
-93.021345463030286
 30
0.0
 11
147.94111270147889
 21
-104.13742709410459
 31
0.0
  0
LINE
  8
OUTLINE
  6
CONTINUOUS
 62
     3
 10
-147.85508507605999
 20
-102.0907999277382
 30
0.0
 11
-147.8539554614876
 21
-169.80445937717249
 31
0.0
  0
LINE
  8
OUTLINE
  6
CONTINUOUS
 62
     3
 10
-147.85787922230381
 20
68.46644493012991
 30
0.0
 11
-147.85526637661141
 21
-91.222917279736237
 31
0.0
  0
LINE
  8
OUTLINE
  6
CONTINUOUS
 62
     3
 10
146.14048466929339
 20
148.15787834853009
 30
0.0
 11
-48.141074453856852
 21
148.15531873247781
 31
0.0
  0
LINE
  8
OUTLINE
  6
CONTINUOUS
 62
     3
 10
-147.85499105574959
 20
-84.238489332460688
 30
0.0
 11
-147.8588254838881
 21
146.15639417095201
 31
0.0
  0
LINE
  8
OUTLINE
  6
CONTINUOUS
 62
     3
 10
-145.86302058575819
 20
148.1529459458834
 30
0.0
 11
48.418537803922391
 21
148.15618699467569
 31
0.0
  0
LINE
  8
OUTLINE
  6
CONTINUOUS
 62
     3
 10
148.14091081101509
 20
146.1926201266096
 30
0.0
 11
148.141165478798
 21
146.16207931642759
 31
0.0
  0
LINE
  8
OUTLINE
  6
CONTINUOUS
 62
     3
 10
146.14048466929339
 20
148.15787834853009
 30
0.0
 11
146.1836092204596
 21
148.15741409365779
 31
0.0
  0
LINE
  8
OUTLINE
  6
CONTINUOUS
 62
     3
 10
-147.85508507605999
 20
-102.0907999277382
 30
0.0
 11
-147.85526637661141
 21
-91.222917279736237
 31
0.0
  0
LINE
  8
OUTLINE
  6
CONTINUOUS
 62
     3
 10
147.94111701754059
 20
-93.021345463030286
 30
0.0
 11
147.9411134361435
 21
-104.1381743007731
 31
0.0
  0
LINE
  8
OUTLINE
  6
CONTINUOUS
 62
     3
 10
-147.8585794744362
 20
146.18768219614961
 30
0.0
 11
-147.8588254838881
 21
146.15639417094749
 31
0.0
  0
LINE
  8
OUTLINE
  6
CONTINUOUS
 62
     3
 10
-145.86782082536891
 20
148.15300699992139
 30
0.0
 11
-145.9109453610217
 21
148.15254130622199
 31
0.0
  0
ARC
  8
OUTLINE
  6
CONTINUOUS
 62
     3
 10
146.19096668012011
 20
146.20742762106579
 30
0.0
 40
1.9500003526935401
 50
359.56491541651963
 51
90.216180672024819
  0
ARC
  8
OUTLINE
  6
CONTINUOUS
 62
     3
 10
-145.87082072327101
 20
146.16492044506691
 30
0.0
 40
1.988023044531086
 50
89.913541438364618
 51
180.24573207073539
  0
LINE
  8
OUTLINE
  6
CONTINUOUS
 62
     3
 10
148.15022280150291
 20
-107.614758258368
 30
0.0
 11
147.9411134361435
 21
-104.1381743007731
 31
0.0
  0
LINE
  8
OUTLINE
  6
CONTINUOUS
 62
     3
 10
148.149925060529
 20
-89.763548976730192
 30
0.0
 11
147.94111701754059
 21
-93.021345463030286
 31
0.0
  0
ARC
  8
OUTLINE
  6
CONTINUOUS
 62
     3
 10
146.1543925795925
 20
-169.80335803336951
 30
0.0
 40
1.992047536827442
 50
269.89156225256937
 51
0.1103493885597713
  0
LINE
  8
OUTLINE
  6
CONTINUOUS
 62
     3
 10
44.292255850763688
 20
-171.58764078645831
 30
0.0
 11
45.548301564446888
 21
-171.7970802733152
 31
0.0
  0
LINE
  8
DETAIL
  6
CONTINUOUS
 62
     5
 10
44.292255850763688
 20
-171.58764078645831
 30
0.0
 11
45.548301564446888
 21
-171.7970802733152
 31
0.0
  0
LINE
  8
DETAIL
  6
CONTINUOUS
 62
     5
 10
-43.767385975893383
 20
-171.58952051563989
 30
0.0
 11
-45.255754013676551
 21
-171.79859508713761
 31
0.0
  0
LINE
  8
OUTLINE
  6
CONTINUOUS
 62
     3
 10
-43.767385975893383
 20
-171.58952051563989
 30
0.0
 11
-45.255754013676551
 21
-171.79859508713761
 31
0.0
  0
ARC
  8
OUTLINE
  6
CONTINUOUS
 62
     3
 10
-145.86037804846899
 20
-169.8042323683552
 30
0.0
 40
1.993501422968494
 50
180.0065244907822
 51
269.99375093327768
  0
LINE
  8
BASIS
  6
DASHDOT
 62
     6
 10
0.0
 20
-188.8987988195594
 30
0.0
 11
0.0
 21
188.8987988195594
 31
0.0
  0
LINE
  8
BASIS
  6
DASHDOT
 62
     6
 10
171.8860198532698
 20
0.0
 30
0.0
 11
-171.8860198532698
 21
0.0
 31
0.0
  0
LINE
  8
BASIS
  6
DASHDOT
 62
     6
 10
171.8860198532698
 20
5.0
 30
0.0
 11
-171.8860198532698
 21
5.0
 31
0.0
  0
LINE
  8
SIZE
  6
CONTINUOUS
 62
    30
 10
191.8860198532698
 20
0.0
 30
0.0
 11
496.37039265645222
 21
-0.0000000000001137
 31
0.0
  0
LINE
  8
SIZE
  6
CONTINUOUS
 62
    30
 10
208.52861561833609
 20
-100.0034110120704
 30
0.0
 11
496.37039265645222
 21
-100.0034110120704
 31
0.0
  0
LINE
  8
SIZE
  6
CONTINUOUS
 62
    30
 10
476.37039265645222
 20
-12.00000000000011
 30
0.0
 11
476.37039265645222
 21
-88.003411012070444
 31
0.0
  0
LINE
  8
SIZE
  6
CONTINUOUS
 62
    30
 10
476.37039265645222
 20
-100.0034110120704
 30
0.0
 11
476.37039265645222
 21
-299.14626815492761
 31
0.0
  0
CIRCLE
  8
SIZE
  6
CONTINUOUS
 62
    30
 10
476.37039265645222
 20
-0.0000000000001137
 30
0.0
 40
6.0
  0
LINE
  8
SIZE
  6
CONTINUOUS
 62
    30
 10
476.37039265645222
 20
-0.0000000000001137
 30
0.0
 11
476.37039265645222
 21
-12.00000000000011
 31
0.0
  0
CIRCLE
  8
SIZE
  6
CONTINUOUS
 62
    30
 10
476.37039265645222
 20
-100.0034110120704
 30
0.0
 40
6.0
  0
LINE
  8
SIZE
  6
CONTINUOUS
 62
    30
 10
476.37039265645222
 20
-100.0034110120704
 30
0.0
 11
476.37039265645222
 21
-88.003411012070387
 31
0.0
  0
TEXT
  8
SIZE
  6
CONTINUOUS
 62
    30
 10
451.37039265645222
 20
-274.14626815492738
 30
0.0
 40
64.0
  1
100
 50
90.0
 41
0.9
 72
     1
 11
451.37039265645222
 21
-205.57483958349891
 31
0.0
  0
LINE
  8
SIZE
  6
CONTINUOUS
 62
    30
 10
166.1404839358238
 20
148.15855978149349
 30
0.0
 11
496.37039265645222
 21
148.15855978149341
 31
0.0
  0
LINE
  8
SIZE
  6
CONTINUOUS
 62
    30
 10
191.8860198532698
 20
0.0
 30
0.0
 11
496.37039265645222
 21
-0.0000000000001137
 31
0.0
  0
LINE
  8
SIZE
  6
CONTINUOUS
 62
    30
 10
476.37039265645222
 20
11.99999999999989
 30
0.0
 11
476.37039265645222
 21
136.15855978149341
 31
0.0
  0
LINE
  8
SIZE
  6
CONTINUOUS
 62
    30
 10
476.37039265645222
 20
148.15855978149341
 30
0.0
 11
476.37039265645222
 21
347.30141692435052
 31
0.0
  0
CIRCLE
  8
SIZE
  6
CONTINUOUS
 62
    30
 10
476.37039265645222
 20
-0.0000000000001137
 30
0.0
 40
6.0
  0
LINE
  8
SIZE
  6
CONTINUOUS
 62
    30
 10
476.37039265645222
 20
-0.0000000000001137
 30
0.0
 11
476.37039265645222
 21
11.99999999999989
 31
0.0
  0
CIRCLE
  8
SIZE
  6
CONTINUOUS
 62
    30
 10
476.37039265645222
 20
148.15855978149341
 30
0.0
 40
6.0
  0
LINE
  8
SIZE
  6
CONTINUOUS
 62
    30
 10
476.37039265645222
 20
148.15855978149341
 30
0.0
 11
476.37039265645222
 21
136.15855978149341
 31
0.0
  0
TEXT
  8
SIZE
  6
CONTINUOUS
 62
    30
 10
451.37039265645222
 20
185.15855978149341
 30
0.0
 40
64.0
  1
148
 50
90.0
 41
0.9
 72
     1
 11
451.37039265645222
 21
253.72998835292199
 31
0.0
  0
LINE
  8
NOTE
  6
CONTINUOUS
 62
     4
 10
188.52861561833609
 20
-100.0034110120704
 30
0.0
 11
132.37333590288739
 21
-100.0034110120704
 31
0.0
  0
LINE
  8
SIZE
  6
CONTINUOUS
 62
    30
 10
148.14115786437489
 20
166.16133210963369
 30
0.0
 11
148.14115786437489
 21
373.18028126066918
 31
0.0
  0
LINE
  8
SIZE
  6
CONTINUOUS
 62
    30
 10
-147.8588254838881
 20
166.15639417094749
 30
0.0
 11
-147.8588254838881
 21
373.18028126066918
 31
0.0
  0
LINE
  8
SIZE
  6
CONTINUOUS
 62
    30
 10
136.14115786437489
 20
353.18028126066918
 30
0.0
 11
-135.8588254838881
 21
353.18028126066918
 31
0.0
  0
CIRCLE
  8
SIZE
  6
CONTINUOUS
 62
    30
 10
148.14115786437489
 20
353.18028126066918
 30
0.0
 40
6.0
  0
LINE
  8
SIZE
  6
CONTINUOUS
 62
    30
 10
148.14115786437489
 20
353.18028126066918
 30
0.0
 11
136.14115786437489
 21
353.18028126066918
 31
0.0
  0
CIRCLE
  8
SIZE
  6
CONTINUOUS
 62
    30
 10
-147.8588254838881
 20
353.18028126066918
 30
0.0
 40
6.0
  0
LINE
  8
SIZE
  6
CONTINUOUS
 62
    30
 10
-147.8588254838881
 20
353.18028126066918
 30
0.0
 11
-135.8588254838881
 21
353.18028126066918
 31
0.0
  0
TEXT
  8
SIZE
  6
CONTINUOUS
 62
    30
 10
-72.546948582109039
 20
378.18028126066918
 30
0.0
 40
64.0
  1
296
 41
0.9
 72
     1
 11
0.1387657036052588
 21
378.18028126066918
 31
0.0
  0
LINE
  8
SIZE
  6
CONTINUOUS
 62
    30
 10
191.8860198532698
 20
5.0
 30
0.0
 11
344.82001422273743
 21
4.9999999999999432
 31
0.0
  0
LINE
  8
SIZE
  6
CONTINUOUS
 62
    30
 10
191.8860198532698
 20
0.0
 30
0.0
 11
344.82001422273743
 21
-0.0000000000000568
 31
0.0
  0
LINE
  8
SIZE
  6
CONTINUOUS
 62
    30
 10
324.82001422273743
 20
-12.00000000000006
 30
0.0
 11
324.82001422273743
 21
-24.00000000000006
 31
0.0
  0
LINE
  8
SIZE
  6
CONTINUOUS
 62
    30
 10
324.82001422273743
 20
16.99999999999994
 30
0.0
 11
324.82001422273743
 21
117.40000000000001
 31
0.0
  0
LINE
  8
SIZE
  6
CONTINUOUS
 62
    30
 10
324.82001422273743
 20
-0.0000000000000568
 30
0.0
 11
324.82001422273743
 21
4.9999999999999432
 31
0.0
  0
CIRCLE
  8
SIZE
  6
CONTINUOUS
 62
    30
 10
324.82001422273743
 20
-0.0000000000000568
 30
0.0
 40
6.0
  0
LINE
  8
SIZE
  6
CONTINUOUS
 62
    30
 10
324.82001422273743
 20
-0.0000000000000568
 30
0.0
 11
324.82001422273743
 21
-12.00000000000006
 31
0.0
  0
CIRCLE
  8
SIZE
  6
CONTINUOUS
 62
    30
 10
324.82001422273743
 20
4.9999999999999432
 30
0.0
 40
6.0
  0
LINE
  8
SIZE
  6
CONTINUOUS
 62
    30
 10
324.82001422273743
 20
4.9999999999999432
 30
0.0
 11
324.82001422273743
 21
16.99999999999994
 31
0.0
  0
TEXT
  8
SIZE
  6
CONTINUOUS
 62
    30
 10
299.82001422273743
 20
54.000000000000057
 30
0.0
 40
64.0
  1
5
 50
90.0
 41
0.9
 72
     1
 11
299.82001422273743
 21
73.200000000000045
 31
0.0
  0
LINE
  8
SIZE
  6
CONTINUOUS
 62
    30
 10
-165.86302058575819
 20
148.1529459458834
 30
0.0
 11
-503.52181063894648
 21
148.15294594588349
 31
0.0
  0
LINE
  8
SIZE
  6
CONTINUOUS
 62
    30
 10
-165.8580748905184
 20
-171.80027335783129
 30
0.0
 11
-503.52181063894648
 21
-171.8002733578312
 31
0.0
  0
LINE
  8
SIZE
  6
CONTINUOUS
 62
    30
 10
-483.52181063894648
 20
136.15294594588349
 30
0.0
 11
-483.52181063894648
 21
-159.8002733578312
 31
0.0
  0
CIRCLE
  8
SIZE
  6
CONTINUOUS
 62
    30
 10
-483.52181063894648
 20
148.15294594588349
 30
0.0
 40
6.0
  0
LINE
  8
SIZE
  6
CONTINUOUS
 62
    30
 10
-483.52181063894648
 20
148.15294594588349
 30
0.0
 11
-483.52181063894648
 21
136.15294594588349
 31
0.0
  0
CIRCLE
  8
SIZE
  6
CONTINUOUS
 62
    30
 10
-483.52181063894648
 20
-171.8002733578312
 30
0.0
 40
6.0
  0
LINE
  8
SIZE
  6
CONTINUOUS
 62
    30
 10
-483.52181063894648
 20
-171.8002733578312
 30
0.0
 11
-483.52181063894648
 21
-159.8002733578312
 31
0.0
  0
TEXT
  8
SIZE
  6
CONTINUOUS
 62
    30
 10
-508.52181063894648
 20
-82.213857679477684
 30
0.0
 40
64.0
  1
320
 50
90.0
 41
0.9
 72
     1
 11
-508.52181063894648
 21
-8.156714822334834
 31
0.0
  0
LINE
  8
DETAIL
  6
CONTINUOUS
 62
     5
 10
-121.5
 20
121.5
 30
0.0
 11
121.5
 21
121.5
 31
0.0
  0
LINE
  8
DETAIL
  6
CONTINUOUS
 62
     5
 10
121.5
 20
121.5
 30
0.0
 11
121.5
 21
-121.5
 31
0.0
  0
LINE
  8
DETAIL
  6
CONTINUOUS
 62
     5
 10
121.5
 20
-121.5
 30
0.0
 11
-121.5
 21
-121.5
 31
0.0
  0
LINE
  8
DETAIL
  6
CONTINUOUS
 62
     5
 10
-121.5
 20
-121.5
 30
0.0
 11
-121.5
 21
121.5
 31
0.0
  0
ARC
  8
DETAIL
  6
CONTINUOUS
 62
     5
 10
60.0
 20
134.11812812532671
 30
0.0
 40
2.4999999999999858
 50
0.0
 51
180.00000000000321
  0
ARC
  8
DETAIL
  6
CONTINUOUS
 62
     5
 10
60.000000000000107
 20
131.11812812532651
 30
0.0
 40
2.5
 50
179.9999999999967
 51
0.0
  0
LINE
  8
DETAIL
  6
CONTINUOUS
 62
     5
 10
57.5
 20
134.11812812532671
 30
0.0
 11
57.500000000000107
 21
131.11812812532651
 31
0.0
  0
LINE
  8
DETAIL
  6
CONTINUOUS
 62
     5
 10
62.5
 20
134.11812812532671
 30
0.0
 11
62.500000000000107
 21
131.11812812532659
 31
0.0
  0
LINE
  8
BASIS
  6
DASHDOT
 62
     6
 10
60.0
 20
139.7725117440541
 30
0.0
 11
60.0
 21
125.4637445065991
 31
0.0
  0
LINE
  8
BASIS
  6
DASHDOT
 62
     6
 10
53.345640641223781
 20
132.61812812532659
 30
0.0
 11
66.654359358776219
 21
132.61812812532659
 31
0.0
  0
CIRCLE
  8
FIX
  6
CONTINUOUS
 62
    11
 10
60.0
 20
132.61812812532659
 30
0.0
 40
5.0
  0
ARC
  8
DETAIL
  6
CONTINUOUS
 62
     5
 10
-60.0
 20
134.11812812532671
 30
0.0
 40
2.4999999999999858
 50
0.0
 51
180.0
  0
ARC
  8
DETAIL
  6
CONTINUOUS
 62
     5
 10
-60.0
 20
131.11812812532651
 30
0.0
 40
2.5
 50
180.0
 51
0.0
  0
LINE
  8
DETAIL
  6
CONTINUOUS
 62
     5
 10
-62.5
 20
134.11812812532671
 30
0.0
 11
-62.5
 21
131.11812812532651
 31
0.0
  0
LINE
  8
DETAIL
  6
CONTINUOUS
 62
     5
 10
-57.5
 20
134.11812812532671
 30
0.0
 11
-57.5
 21
131.11812812532659
 31
0.0
  0
LINE
  8
BASIS
  6
DASHDOT
 62
     6
 10
-60.000000000000107
 20
139.7725117440541
 30
0.0
 11
-60.0
 21
125.4637445065991
 31
0.0
  0
LINE
  8
BASIS
  6
DASHDOT
 62
     6
 10
-66.654359358776219
 20
132.61812812532659
 30
0.0
 11
-53.345640641223781
 21
132.61812812532659
 31
0.0
  0
CIRCLE
  8
FIX
  6
CONTINUOUS
 62
    11
 10
-60.0
 20
132.61812812532659
 30
0.0
 40
5.0
  0
ARC
  8
DETAIL
  6
CONTINUOUS
 62
     5
 10
60.263819224243321
 20
-133.88161217075361
 30
0.0
 40
2.4999999999999858
 50
180.11280401394271
 51
0.1128040139459766
  0
ARC
  8
DETAIL
  6
CONTINUOUS
 62
     5
 10
60.257912823700622
 20
-130.88161798502031
 30
0.0
 40
2.5
 50
0.1128040139459766
 51
180.11280401394919
  0
LINE
  8
DETAIL
  6
CONTINUOUS
 62
     5
 10
57.763824069465727
 20
-133.88653417120591
 30
0.0
 11
57.757917668923028
 21
-130.88653998547261
 31
0.0
  0
LINE
  8
DETAIL
  6
CONTINUOUS
 62
     5
 10
62.763814379020907
 20
-133.87669017030129
 30
0.0
 11
62.757907978478222
 21
-130.87669598456799
 31
0.0
  0
LINE
  8
BASIS
  6
DASHDOT
 62
     6
 10
60.274951575734796
 20
-139.53598483078261
 30
0.0
 11
60.246780472209018
 21
-125.2272453249913
 31
0.0
  0
LINE
  8
BASIS
  6
DASHDOT
 62
     6
 10
53.606519561936118
 20
-132.39471618179641
 30
0.0
 11
66.915212486007817
 21
-132.36851397397751
 31
0.0
  0
CIRCLE
  8
FIX
  6
CONTINUOUS
 62
    11
 10
60.260866023971971
 20
-132.38161507788701
 30
0.0
 40
5.0
  0
ARC
  8
DETAIL
  6
CONTINUOUS
 62
     5
 10
-59.735948205082202
 20
-134.11786819246399
 30
0.0
 40
2.4999999999999858
 50
180.112804013946
 51
0.1128040139492334
  0
ARC
  8
DETAIL
  6
CONTINUOUS
 62
     5
 10
-59.741854605624887
 20
-131.11787400673069
 30
0.0
 40
2.5
 50
0.1128040139459766
 51
180.11280401394919
  0
LINE
  8
DETAIL
  6
CONTINUOUS
 62
     5
 10
-62.235943359859789
 20
-134.12279019291631
 30
0.0
 11
-62.241849760402488
 21
-131.12279600718301
 31
0.0
  0
LINE
  8
DETAIL
  6
CONTINUOUS
 62
     5
 10
-57.235953050304602
 20
-134.11294619201169
 30
0.0
 11
-57.241859450847301
 21
-131.11295200627839
 31
0.0
  0
LINE
  8
BASIS
  6
DASHDOT
 62
     6
 10
-59.724815853590712
 20
-139.77224085249301
 30
0.0
 11
-59.752986957116491
 21
-125.4635013467017
 31
0.0
  0
LINE
  8
BASIS
  6
DASHDOT
 62
     6
 10
-66.393247867389391
 20
-132.6309722035069
 30
0.0
 11
-53.084554943317698
 21
-132.60476999568789
 31
0.0
  0
CIRCLE
  8
FIX
  6
CONTINUOUS
 62
    11
 10
-59.738901405353538
 20
-132.61787109959741
 30
0.0
 40
5.0
  0
LINE
  8
SIZE
  6
CONTINUOUS
 62
    30
 10
-60.000000000000107
 20
159.7725117440541
 30
0.0
 11
-60.0
 21
251.45961427403151
 31
0.0
  0
LINE
  8
SIZE
  6
CONTINUOUS
 62
    30
 10
60.0
 20
159.7725117440541
 30
0.0
 11
60.0
 21
251.45961427403151
 31
0.0
  0
LINE
  8
SIZE
  6
CONTINUOUS
 62
    30
 10
-48.0
 20
231.45961427403151
 30
0.0
 11
48.0
 21
231.45961427403151
 31
0.0
  0
CIRCLE
  8
SIZE
  6
CONTINUOUS
 62
    30
 10
-60.0
 20
231.45961427403151
 30
0.0
 40
6.0
  0
LINE
  8
SIZE
  6
CONTINUOUS
 62
    30
 10
-60.0
 20
231.45961427403151
 30
0.0
 11
-48.0
 21
231.45961427403151
 31
0.0
  0
CIRCLE
  8
SIZE
  6
CONTINUOUS
 62
    30
 10
60.0
 20
231.45961427403151
 30
0.0
 40
6.0
  0
LINE
  8
SIZE
  6
CONTINUOUS
 62
    30
 10
60.0
 20
231.45961427403151
 30
0.0
 11
48.0
 21
231.45961427403151
 31
0.0
  0
TEXT
  8
SIZE
  6
CONTINUOUS
 62
    30
 10
-68.571428571428569
 20
256.45961427403148
 30
0.0
 40
64.0
  1
120
 41
0.9
 72
     1
 11
0.0
 21
256.45961427403148
 31
0.0
  0
LINE
  8
SIZE
  6
CONTINUOUS
 62
    30
 10
-86.654359358776219
 20
132.61812812532659
 30
0.0
 11
-381.36109335004579
 21
132.61812812532671
 31
0.0
  0
LINE
  8
SIZE
  6
CONTINUOUS
 62
    30
 10
-86.393247867389391
 20
-132.6309722035069
 30
0.0
 11
-381.36109335004591
 21
-132.63097220350679
 31
0.0
  0
LINE
  8
SIZE
  6
CONTINUOUS
 62
    30
 10
-361.36109335004579
 20
120.61812812532671
 30
0.0
 11
-361.36109335004579
 21
-120.6309722035068
 31
0.0
  0
CIRCLE
  8
SIZE
  6
CONTINUOUS
 62
    30
 10
-361.36109335004579
 20
132.61812812532671
 30
0.0
 40
6.0
  0
LINE
  8
SIZE
  6
CONTINUOUS
 62
    30
 10
-361.36109335004579
 20
132.61812812532671
 30
0.0
 11
-361.36109335004579
 21
120.61812812532671
 31
0.0
  0
CIRCLE
  8
SIZE
  6
CONTINUOUS
 62
    30
 10
-361.36109335004591
 20
-132.63097220350679
 30
0.0
 40
6.0
  0
LINE
  8
SIZE
  6
CONTINUOUS
 62
    30
 10
-361.36109335004591
 20
-132.63097220350679
 30
0.0
 11
-361.36109335004591
 21
-120.6309722035068
 31
0.0
  0
TEXT
  8
SIZE
  6
CONTINUOUS
 62
    30
 10
-386.36109335004579
 20
-78.23160581702038
 30
0.0
 40
64.0
  1
265
 50
90.0
 41
0.9
 72
     1
 11
-386.36109335004579
 21
-4.1744629598775296
 31
0.0
  0
LINE
  8
SIZE
  6
CONTINUOUS
 62
    30
 10
-141.5
 20
121.5
 30
0.0
 11
-260.52820782094568
 21
121.5
 31
0.0
  0
LINE
  8
SIZE
  6
CONTINUOUS
 62
    30
 10
-141.5
 20
-121.5
 30
0.0
 11
-260.52820782094568
 21
-121.5
 31
0.0
  0
LINE
  8
SIZE
  6
CONTINUOUS
 62
    30
 10
-240.52820782094571
 20
109.5
 30
0.0
 11
-240.52820782094571
 21
-109.5
 31
0.0
  0
CIRCLE
  8
SIZE
  6
CONTINUOUS
 62
    30
 10
-240.52820782094571
 20
121.5
 30
0.0
 40
6.0
  0
LINE
  8
SIZE
  6
CONTINUOUS
 62
    30
 10
-240.52820782094571
 20
121.5
 30
0.0
 11
-240.52820782094571
 21
109.5
 31
0.0
  0
CIRCLE
  8
SIZE
  6
CONTINUOUS
 62
    30
 10
-240.52820782094571
 20
-121.5
 30
0.0
 40
6.0
  0
LINE
  8
SIZE
  6
CONTINUOUS
 62
    30
 10
-240.52820782094571
 20
-121.5
 30
0.0
 11
-240.52820782094571
 21
-109.5
 31
0.0
  0
TEXT
  8
SIZE
  6
CONTINUOUS
 62
    30
 10
-265.52820782094568
 20
-110.5371428571429
 30
0.0
 40
64.0
  1
□243
 50
90.0
 41
0.9
 72
     1
 11
-265.52820782094568
 21
0.0
 31
0.0
  0
LINE
  8
NOTE
  6
CONTINUOUS
 62
     4
 10
-60.0
 20
132.61812812532659
 30
0.0
 11
-193.43283458031411
 21
373.89622779027792
 31
0.0
  0
LINE
  8
NOTE
  6
CONTINUOUS
 62
     4
 10
-193.43283458031411
 20
373.89622779027792
 30
0.0
 11
-205.43283458031411
 21
373.89622779027792
 31
0.0
  0
LINE
  8
NOTE
  6
CONTINUOUS
 62
     4
 10
-205.43283458031411
 20
373.89622779027792
 30
0.0
 11
-589.21340600888539
 21
373.89622779027792
 31
0.0
  0
LINE
  8
NOTE
  6
CONTINUOUS
 62
     4
 10
-63.955762509320948
 20
144.14327785814831
 30
0.0
 11
-60.0
 21
132.61812812532659
 31
0.0
  0
LINE
  8
NOTE
  6
CONTINUOUS
 62
     4
 10
-60.0
 20
132.61812812532659
 30
0.0
 11
-67.659034203059946
 21
142.09527582231161
 31
0.0
  0
TEXT
  8
NOTE
  6
CONTINUOUS
 62
     4
 10
-581.46223588308624
 20
382.82523307435122
 30
0.0
 40
64.0
  1
4-φ5×8
 41
0.9
 72
     2
 11
-223.79366445451481
 21
382.82523307435122
 31
0.0
  0
LINE
  8
DETAIL
  6
CONTINUOUS
 62
     4
 10
-158.8619875513676
 20
11.175641641142191
 30
0.0
 11
-159.52993186805199
 21
5.0
 31
0.0
  0
LINE
  8
DETAIL
  6
CONTINUOUS
 62
     4
 10
-159.52993186805199
 20
5.0
 30
0.0
 11
-162.03930450486621
 21
10.682230922763379
 31
0.0
  0
LINE
  8
DETAIL
  6
CONTINUOUS
 62
     4
 10
-159.52993186805199
 20
5.0
 30
0.0
 11
-161.3713601881818
 21
16.85787256390557
 31
0.0
  0
LINE
  8
NOTE
  6
CONTINUOUS
 62
     4
 10
-161.37136018818191
 20
16.85787256390557
 30
0.0
 11
-192.7260500436648
 21
219.9070091644339
 31
0.0
  0
LINE
  8
NOTE
  6
CONTINUOUS
 62
     4
 10
-192.7260500436648
 20
219.9070091644339
 30
0.0
 11
-555.05193303259261
 21
219.9070091644339
 31
0.0
  0
TEXT
  8
NOTE
  6
CONTINUOUS
 62
     4
 10
-547.25427038393923
 20
233.89909123185859
 30
0.0
 40
64.0
  1
羽根中心線
 41
0.9
 72
     2
 11
-217.01427038393919
 21
233.89909123185859
 31
0.0
  0
TEXT
  8
ETC
  6
CONTINUOUS
 62
    61
 10
539.55970814948478
 20
418.46882656563457
 30
0.0
 40
64.0
  1
EX-20P9_3
 41
0.9
  0
TEXT
  8
ETC
  6
CONTINUOUS
 62
    61
 10
535.37371414948439
 20
300.51351655080339
 30
0.0
 40
64.0
  1
換気扇
 41
0.9
  0
TEXT
  8
ETC
  6
CONTINUOUS
 62
    61
 10
586.07511239804035
 20
192.3647436645781
 30
0.0
 40
40.0
  1
EX-20P9
 50
0.0
 41
0.9
 51
0.0
  7
STANDARD
 71
     0
 11
0.0
 21
0.0
 31
0.0
210
0.0
220
0.0
230
1.0
  0
ENDSEC
  0
EOF
