  0
SECTION
  2
HEADER
  9
$ACADVER
  1
AC1009
  9
$INSBASE
 10
0.0
 20
0.0
 30
0.0
  9
$EXTMIN
 10
-365.72111350917481
 20
-242.24852321465551
 30
-0.0007627857894761
  9
$EXTMAX
 10
954.86298755843006
 20
793.39600435154887
 30
50.000763018648549
  9
$LIMMIN
 10
-2970.0
 20
-2100.0
  9
$LIMMAX
 10
2970.0
 20
2100.0
  9
$ORTHOMODE
 70
     0
  9
$REGENMODE
 70
     1
  9
$FILLMODE
 70
     1
  9
$QTEXTMODE
 70
     0
  9
$MIRRTEXT
 70
     0
  9
$DRAGMODE
 70
     2
  9
$LTSCALE
 40
20.0
  9
$OSMODE
 70
    47
  9
$ATTMODE
 70
     1
  9
$TEXTSIZE
 40
64.0
  9
$TRACEWID
 40
0.05
  9
$TEXTSTYLE
  7
STANDARD
  9
$CLAYER
  8
SIZE
  9
$CELTYPE
  6
CONTINUOUS
  9
$CECOLOR
 62
    30
  9
$DIMSCALE
 40
1.0
  9
$DIMASZ
 40
12.0
  9
$DIMEXO
 40
20.0
  9
$DIMDLI
 40
200.0
  9
$DIMRND
 40
0.0
  9
$DIMDLE
 40
0.0
  9
$DIMEXE
 40
20.0
  9
$DIMTP
 40
0.0
  9
$DIMTM
 40
0.0
  9
$DIMTXT
 40
64.0
  9
$DIMCEN
 40
0.09
  9
$DIMTSZ
 40
0.0
  9
$DIMTOL
 70
     0
  9
$DIMLIM
 70
     0
  9
$DIMTIH
 70
     0
  9
$DIMTOH
 70
     0
  9
$DIMSE1
 70
     0
  9
$DIMSE2
 70
     0
  9
$DIMTAD
 70
     1
  9
$DIMZIN
 70
     8
  9
$DIMBLK
  1
DOT1
  9
$DIMASO
 70
     1
  9
$DIMSHO
 70
     0
  9
$DIMPOST
  1

  9
$DIMAPOST
  1

  9
$DIMALT
 70
     0
  9
$DIMALTD
 70
     2
  9
$DIMALTF
 40
25.399999999999999
  9
$DIMLFAC
 40
1.0
  9
$DIMTOFL
 70
     1
  9
$DIMTVP
 40
0.0
  9
$DIMTIX
 70
     1
  9
$DIMSOXD
 70
     0
  9
$DIMSAH
 70
     1
  9
$DIMBLK1
  1
ORIGIN
  9
$DIMBLK2
  1
ORIGIN
  9
$DIMSTYLE
  2
STANDARD
  9
$DIMCLRD
 70
     7
  9
$DIMCLRE
 70
     7
  9
$DIMCLRT
 70
     7
  9
$DIMTFAC
 40
1.0
  9
$DIMGAP
 40
25.0
  9
$LUNITS
 70
     2
  9
$LUPREC
 70
     4
  9
$SKETCHINC
 40
0.1
  9
$FILLETRAD
 40
10.0
  9
$AUNITS
 70
     1
  9
$AUPREC
 70
     3
  9
$MENU
  1
ACAD
  9
$ELEVATION
 40
0.0
  9
$PELEVATION
 40
0.0
  9
$THICKNESS
 40
50.0
  9
$LIMCHECK
 70
     0
  9
$BLIPMODE
 70
     0
  9
$CHAMFERA
 40
0.0
  9
$CHAMFERB
 40
0.0
  9
$SKPOLY
 70
     0
  9
$TDCREATE
 40
2451453.49385081
  9
$TDUPDATE
 40
2455110.583174549
  9
$TDINDWG
 40
0.7779974884000001
  9
$TDUSRTIMER
 40
0.7779974884000001
  9
$USRTIMER
 70
     1
  9
$ANGBASE
 50
0.0
  9
$ANGDIR
 70
     0
  9
$PDMODE
 70
     3
  9
$PDSIZE
 40
-2.0
  9
$PLINEWID
 40
0.0
  9
$COORDS
 70
     0
  9
$SPLFRAME
 70
     0
  9
$SPLINETYPE
 70
     6
  9
$SPLINESEGS
 70
     8
  9
$ATTDIA
 70
     0
  9
$ATTREQ
 70
     1
  9
$HANDLING
 70
     1
  9
$HANDSEED
  5
258
  9
$SURFTAB1
 70
     6
  9
$SURFTAB2
 70
     6
  9
$SURFTYPE
 70
     6
  9
$SURFU
 70
     6
  9
$SURFV
 70
     6
  9
$UCSNAME
  2

  9
$UCSORG
 10
0.0
 20
0.0
 30
0.0
  9
$UCSXDIR
 10
1.0
 20
0.0
 30
0.0
  9
$UCSYDIR
 10
0.0
 20
1.0
 30
0.0
  9
$PUCSNAME
  2

  9
$PUCSORG
 10
0.0
 20
0.0
 30
0.0
  9
$PUCSXDIR
 10
1.0
 20
0.0
 30
0.0
  9
$PUCSYDIR
 10
0.0
 20
1.0
 30
0.0
  9
$USERI1
 70
     0
  9
$USERI2
 70
     0
  9
$USERI3
 70
     0
  9
$USERI4
 70
     0
  9
$USERI5
 70
     0
  9
$USERR1
 40
20.0
  9
$USERR2
 40
0.0
  9
$USERR3
 40
0.0
  9
$USERR4
 40
0.0
  9
$USERR5
 40
0.0
  9
$WORLDVIEW
 70
     1
  9
$SHADEDGE
 70
     3
  9
$SHADEDIF
 70
    70
  9
$TILEMODE
 70
     1
  9
$MAXACTVP
 70
    48
  9
$PLIMCHECK
 70
     0
  9
$PEXTMIN
 10
-1.0000000000000000E+020
 20
-1.0000000000000000E+020
 30
-1.0000000000000000E+020
  9
$PEXTMAX
 10
1.0000000000000000E+020
 20
1.0000000000000000E+020
 30
1.0000000000000000E+020
  9
$PLIMMIN
 10
0.0
 20
0.0
  9
$PLIMMAX
 10
12.0
 20
9.0
  9
$UNITMODE
 70
     0
  9
$VISRETAIN
 70
     0
  9
$PLINEGEN
 70
     0
  9
$PSLTSCALE
 70
     0
  0
ENDSEC
  0
SECTION
  2
TABLES
  0
TABLE
  2
VPORT
 70
     1
  0
VPORT
  2
*ACTIVE
 70
     0
 10
0.0
 20
0.0
 11
1.0
 21
1.0
 12
283.6473075746332
 22
262.7115020553822
 13
0.0
 23
0.0
 14
1.0
 24
1.0
 15
0.0
 25
0.0
 16
0.0
 26
0.0
 36
1.0
 17
0.0
 27
0.0
 37
0.0
 40
1172.3198586907749
 41
1.3113342898134861
 42
50.0
 43
0.0
 44
0.0
 50
0.0
 51
0.0
 71
     0
 72
   100
 73
     1
 74
     0
 75
     0
 76
     0
 77
     0
 78
     0
  0
ENDTAB
  0
TABLE
  2
LTYPE
 70
     3
  0
LTYPE
  2
CONTINUOUS
 70
     0
  3
実線
 72
    65
 73
     0
 40
0.0
  0
LTYPE
  2
DASHDOT
 70
     0
  3
____ _ ____ _ ____ _ ____ _ ____ _ ____ _ ____
 72
    65
 73
     4
 40
5.5
 49
4.0
 49
-0.6
 49
0.3
 49
-0.6
  0
ENDTAB
  0
TABLE
  2
LAYER
 70
    12
  0
LAYER
  2
0
 70
     0
 62
     7
  6
CONTINUOUS
  0
LAYER
  2
SIZE
 70
     0
 62
    30
  6
CONTINUOUS
  0
LAYER
  2
BASIS
 70
     0
 62
     6
  6
DASHDOT
  0
LAYER
  2
OUTLINE
 70
     0
 62
     3
  6
CONTINUOUS
  0
LAYER
  2
DETAIL
 70
     0
 62
     5
  6
CONTINUOUS
  0
LAYER
  2
ARRANGE
 70
     0
 62
     1
  6
CONTINUOUS
  0
LAYER
  2
DEFPOINTS
 70
     0
 62
     7
  6
CONTINUOUS
  0
LAYER
  2
ETC
 70
     0
 62
    61
  6
CONTINUOUS
  0
LAYER
  2
FIX
 70
     0
 62
    11
  6
CONTINUOUS
  0
LAYER
  2
NOTE
 70
     0
 62
     4
  6
CONTINUOUS
  0
LAYER
  2
SERVICESPACE
 70
     0
 62
     2
  6
DASHDOT
  0
LAYER
  2
SYMBOLLINE
 70
     0
 62
    15
  6
CONTINUOUS
  0
ENDTAB
  0
TABLE
  2
STYLE
 70
     2
  0
STYLE
  2
STANDARD
 70
     0
 40
64.0
 41
0.9
 50
0.0
 71
     0
 42
64.0
  3
SIMPLEX.shx
  4
BIGFONT.shx
  0
STYLE
  2
ANNOTATIVE
 70
     0
 40
0.0
 41
1.0
 50
0.0
 71
     0
 42
0.2
  3
txt
  4

  0
ENDTAB
  0
TABLE
  2
VIEW
 70
     1
  0
VIEW
  2
ALL
 70
     0
 40
4282.6198079999986
 10
0.0
 20
41.309903999999989
 41
5940.0
 11
0.0
 21
0.0
 31
1.0
 12
0.0
 22
0.0
 32
0.0
 42
50.0
 43
0.0
 44
0.0
 50
0.0
 71
     0
  0
ENDTAB
  0
TABLE
  2
UCS
 70
     0
  0
ENDTAB
  0
TABLE
  2
APPID
 70
     5
  0
APPID
  2
ACAD
 70
     0
  0
APPID
  2
ACADANNOTATIVE
 70
     0
  0
APPID
  2
ACAD_MLEADERVER
 70
     0
  0
APPID
  2
AUTOCAD_POSTSCRIPT_FIGURE
 70
     0
  0
APPID
  2
ACAD_EXEMPT_FROM_CAD_STANDARDS
 70
     0
  0
ENDTAB
  0
TABLE
  2
DIMSTYLE
 70
     2
  0
DIMSTYLE
  2
STANDARD
 70
     0
  3

  4

  5

  6

  7

 40
1.0
 41
0.18
 42
0.0625
 43
0.38
 44
0.18
 45
0.0
 46
0.0
 47
0.0
 48
0.0
140
0.18
141
0.09
142
0.0
143
25.399999999999999
144
1.0
145
0.0
146
1.0
147
0.09
 71
     0
 72
     0
 73
     1
 74
     1
 75
     0
 76
     0
 77
     0
 78
     0
170
     0
171
     2
172
     0
173
     0
174
     0
175
     0
176
     7
177
     7
178
     7
  0
DIMSTYLE
  2
ANNOTATIVE
 70
     0
  3

  4

  5

  6

  7

 40
1.0
 41
0.18
 42
0.0625
 43
0.38
 44
0.18
 45
0.0
 46
0.0
 47
0.0
 48
0.0
140
0.18
141
0.09
142
0.0
143
25.399999999999999
144
1.0
145
0.0
146
1.0
147
0.09
 71
     0
 72
     0
 73
     1
 74
     1
 75
     0
 76
     0
 77
     0
 78
     0
170
     0
171
     2
172
     0
173
     0
174
     0
175
     0
176
     0
177
     0
178
     0
  0
ENDTAB
  0
ENDSEC
  0
SECTION
  2
BLOCKS
  0
BLOCK
  8
0
  2
$MODEL_SPACE
 70
     0
 10
0.0
 20
0.0
 30
0.0
  3
$MODEL_SPACE
  1

  0
ENDBLK
  5
76
  8
0
  0
BLOCK
 67
     1
  8
0
  2
$PAPER_SPACE
 70
     0
 10
0.0
 20
0.0
 30
0.0
  3
$PAPER_SPACE
  1

  0
ENDBLK
  5
72
 67
     1
  8
0
  0
BLOCK
  8
0
  2
DOT1
 70
     0
 10
0.0
 20
0.0
 30
0.0
  3
DOT1
  1

  0
CIRCLE
  5
8C
  8
SIZE
  6
CONTINUOUS
 62
     7
 10
0.0
 20
0.0
 30
0.0
 40
3.0
  0
ENDBLK
  5
8D
  8
0
  0
BLOCK
  8
0
  2
_ORIGIN
 70
     0
 10
0.0
 20
0.0
 30
0.0
  3
_ORIGIN
  1

  0
CIRCLE
  5
90
  8
0
  6
CONTINUOUS
 62
     7
 10
0.0
 20
0.0
 30
0.0
 40
0.5
  0
LINE
  5
91
  8
0
  6
CONTINUOUS
 62
     7
 10
0.0
 20
0.0
 30
0.0
 11
-1.0
 21
0.0
 31
0.0
  0
ENDBLK
  5
92
  8
0
  0
ENDSEC
  0
SECTION
  2
ENTITIES
  0
LINE
  5
95
  8
BASIS
  6
DASHDOT
 62
     6
 10
0.0
 20
200.40224599999999
 30
0.0
 11
0.0
 21
-232.92935700000001
 31
0.0
  0
LINE
  5
96
  8
BASIS
  6
DASHDOT
 62
     6
 10
-227.78438
 20
0.0
 30
0.0
 11
230.686418
 21
0.0
 31
0.0
  0
CIRCLE
  5
97
  8
ARRANGE
  6
CONTINUOUS
 62
     1
 39
50.0
 10
0.0
 20
0.0
 30
0.0
 40
40.0
  0
POINT
  5
98
  8
ARRANGE
  6
CONTINUOUS
 62
     1
 10
0.0
 20
0.0
 30
0.0
 39
50.0
  0
LINE
  5
99
  8
SIZE
  6
CONTINUOUS
 62
    30
 10
-148.0
 20
162.0
 30
0.0
 11
-148.0
 21
390.06970200000001
 31
0.0
  0
LINE
  5
9A
  8
SIZE
  6
CONTINUOUS
 62
    30
 10
148.0
 20
162.0
 30
0.0
 11
148.0
 21
390.06970200000001
 31
0.0
  0
LINE
  5
9B
  8
SIZE
  6
CONTINUOUS
 62
    30
 10
-136.0
 20
370.06970200000001
 30
0.0
 11
136.0
 21
370.06970200000001
 31
0.0
  0
CIRCLE
  5
9C
  8
SIZE
  6
CONTINUOUS
 62
    30
 10
-148.0
 20
370.06970200000001
 30
0.0
 40
6.0
  0
LINE
  5
9D
  8
SIZE
  6
CONTINUOUS
 62
    30
 10
-148.0
 20
370.06970200000001
 30
0.0
 11
-136.0
 21
370.06970200000001
 31
0.0
  0
CIRCLE
  5
9E
  8
SIZE
  6
CONTINUOUS
 62
    30
 10
148.0
 20
370.06970200000001
 30
0.0
 40
6.0
  0
LINE
  5
9F
  8
SIZE
  6
CONTINUOUS
 62
    30
 10
148.0
 20
370.06970200000001
 30
0.0
 11
136.0
 21
370.06970200000001
 31
0.0
  0
TEXT
  5
A0
  8
SIZE
  6
CONTINUOUS
 62
    30
 10
-72.685714285714297
 20
395.06970200000001
 30
0.0
 40
64.0
  1
296
 41
0.9
 72
     1
 11
0.0
 21
395.06970200000001
 31
0.0
  0
POINT
  5
A1
  8
DEFPOINTS
  6
CONTINUOUS
 62
    30
 10
-148.0
 20
142.0
 30
0.0
  0
POINT
  5
A2
  8
DEFPOINTS
  6
CONTINUOUS
 62
    30
 10
148.0
 20
142.0
 30
0.0
  0
POINT
  5
A3
  8
DEFPOINTS
  6
CONTINUOUS
 62
    30
 10
148.0
 20
370.06970200000001
 30
0.0
  0
LINE
  5
A4
  8
NOTE
  6
CONTINUOUS
 62
     4
 10
-241.947067
 20
-242.001847
 30
0.0
 11
-148.0
 21
-100.0
 31
0.0
  0
LINE
  5
A5
  8
NOTE
  6
CONTINUOUS
 62
     4
 10
-360.512833
 20
-242.001847
 30
0.0
 11
-241.947067
 21
-242.001847
 31
0.0
  0
TEXT
  5
A6
  8
NOTE
  6
CONTINUOUS
 62
     4
 10
-337.36017399999997
 20
-214.574895
 30
0.0
 40
64.0
  1
EL
 41
0.9
  0
LINE
  5
A7
  8
NOTE
  6
CONTINUOUS
 62
     4
 10
-161.286978
 20
-137.72871900000001
 30
0.0
 11
-148.0
 21
-100.0
 31
0.0
  0
LINE
  5
A8
  8
NOTE
  6
CONTINUOUS
 62
     4
 10
-148.0
 20
-100.0
 30
0.0
 11
-178.37121999999999
 21
-126.030539
 31
0.0
  0
LINE
  5
A9
  8
NOTE
  6
CONTINUOUS
 62
     4
 10
-148.0
 20
-120.0
 30
0.0
 11
-148.0
 21
-80.0
 31
0.0
  0
LINE
  5
AA
  8
NOTE
  6
CONTINUOUS
 62
     4
 10
-128.0
 20
-100.0
 30
0.0
 11
-168.0
 21
-100.0
 31
0.0
  0
LINE
  5
AB
  8
SIZE
  6
CONTINUOUS
 62
    30
 10
-247.78438
 20
0.0
 30
0.0
 11
-296.389836
 21
0.0
 31
0.0
  0
LINE
  5
AC
  8
SIZE
  6
CONTINUOUS
 62
    30
 10
-188.0
 20
-100.0
 30
0.0
 11
-296.389836
 21
-100.0
 31
0.0
  0
LINE
  5
AD
  8
SIZE
  6
CONTINUOUS
 62
    30
 10
-276.389836
 20
-12.0
 30
0.0
 11
-276.389836
 21
-88.0
 31
0.0
  0
LINE
  5
AE
  8
SIZE
  6
CONTINUOUS
 62
    30
 10
-276.389836
 20
202.50759600000001
 30
0.0
 11
-276.389836
 21
0.0
 31
0.0
  0
TEXT
  5
AF
  8
SIZE
  6
CONTINUOUS
 62
    30
 10
-301.389836
 20
40.364738428571428
 30
0.0
 40
64.0
  1
100
 50
90.0
 41
0.9
 72
     1
 11
-301.389836
 21
108.936167
 31
0.0
  0
CIRCLE
  5
B0
  8
SIZE
  6
CONTINUOUS
 62
    30
 10
-276.389836
 20
0.0
 30
0.0
 40
6.0
  0
LINE
  5
B1
  8
SIZE
  6
CONTINUOUS
 62
    30
 10
-276.389836
 20
0.0
 30
0.0
 11
-276.389836
 21
-12.0
 31
0.0
  0
CIRCLE
  5
B2
  8
SIZE
  6
CONTINUOUS
 62
    30
 10
-276.389836
 20
-100.0
 30
0.0
 40
6.0
  0
LINE
  5
B3
  8
SIZE
  6
CONTINUOUS
 62
    30
 10
-276.389836
 20
-100.0
 30
0.0
 11
-276.389836
 21
-88.0
 31
0.0
  0
POINT
  5
B4
  8
DEFPOINTS
  6
CONTINUOUS
 62
    30
 10
-227.78438
 20
0.0
 30
0.0
  0
POINT
  5
B5
  8
DEFPOINTS
  6
CONTINUOUS
 62
    30
 10
-168.0
 20
-100.0
 30
0.0
  0
POINT
  5
B6
  8
DEFPOINTS
  6
CONTINUOUS
 62
    30
 10
-276.389836
 20
-100.0
 30
0.0
  0
CIRCLE
  5
B7
  8
DETAIL
  6
CONTINUOUS
 62
     5
 10
0.0
 20
0.0
 30
0.0
 40
109.0
  0
CIRCLE
  5
B8
  8
DETAIL
  6
CONTINUOUS
 62
     5
 10
0.0
 20
0.0
 30
0.0
 40
46.0
  0
ARC
  5
B9
  8
DETAIL
  6
CONTINUOUS
 62
     5
 10
-52.295929000000001
 20
-39.374662999999998
 30
0.0
 40
76.896286000000003
 50
324.34890899999999
 51
339.98873099999997
  0
ARC
  5
BA
  8
DETAIL
  6
CONTINUOUS
 62
     5
 10
0.0
 20
0.0
 30
0.0
 40
104.999954
 50
18.708527
 51
84.599924999999999
  0
ARC
  5
BB
  8
DETAIL
  6
CONTINUOUS
 62
     5
 10
-34.061432000000011
 20
60.959029999999998
 30
0.0
 40
87.035659999999993
 50
215.93419
 51
234.83081000000001
  0
ARC
  5
BC
  8
DETAIL
  6
CONTINUOUS
 62
     5
 10
-91.801849000000004
 20
-31.088401000000001
 30
0.0
 40
8.0769199999999994
 50
57.161416000000003
 51
198.70845299999999
  0
ARC
  5
BD
  8
DETAIL
  6
CONTINUOUS
 62
     5
 10
0.0
 20
0.0
 30
0.0
 40
104.999954
 50
198.70850799999999
 51
264.59988900000002
  0
ARC
  5
BE
  8
DETAIL
  6
CONTINUOUS
 62
     5
 10
-60.959029999999998
 20
-34.061428999999997
 30
0.0
 40
87.035659999999993
 50
305.93411800000001
 51
324.830738
  0
ARC
  5
BF
  8
DETAIL
  6
CONTINUOUS
 62
     5
 10
-48.059005999999997
 20
31.479034000000009
 30
0.0
 40
67.747481999999991
 50
246.93783999999999
 51
273.8580740000001
  0
ARC
  5
C0
  8
DETAIL
  6
CONTINUOUS
 62
     5
 10
-43.804488999999997
 20
30.377746999999999
 30
0.0
 40
54.055770999999993
 50
266.71495299999998
 51
274.230729
  0
ARC
  5
C1
  8
DETAIL
  6
CONTINUOUS
 62
     5
 10
-43.43089299999999
 20
45.249924
 30
0.0
 40
82.298309000000003
 50
237.51594900000009
 51
247.72888499999999
  0
ARC
  5
C2
  8
DETAIL
  6
CONTINUOUS
 62
     5
 10
-39.374664000000003
 20
52.295929000000001
 30
0.0
 40
76.896286000000003
 50
234.34898100000001
 51
249.98880299999999
  0
ARC
  5
C3
  8
DETAIL
  6
CONTINUOUS
 62
     5
 10
-43.959029999999991
 20
42.047699000000001
 30
0.0
 40
65.702866
 50
250.68701200000001
 51
267.43283300000002
  0
ARC
  5
C4
  8
DETAIL
  6
CONTINUOUS
 62
     5
 10
-46.606110000000001
 20
15.526672
 30
0.0
 40
51.526932000000002
 50
273.44137799999999
 51
286.92723100000001
  0
ARC
  5
C5
  8
DETAIL
  6
CONTINUOUS
 62
     5
 10
0.0
 20
0.0
 30
0.0
 40
104.999954
 50
108.70852600000001
 51
174.599907
  0
ARC
  5
C6
  8
DETAIL
  6
CONTINUOUS
 62
     5
 10
60.959044999999989
 20
34.061432000000011
 30
0.0
 40
87.035659999999993
 50
125.93415400000001
 51
144.83077399999999
  0
ARC
  5
C7
  8
DETAIL
  6
CONTINUOUS
 62
     5
 10
-31.088394000000001
 20
91.801909999999978
 30
0.0
 40
8.0769199999999994
 50
327.161362
 51
108.708454
  0
ARC
  5
C8
  8
DETAIL
  6
CONTINUOUS
 62
     5
 10
52.295883000000003
 20
39.374664000000003
 30
0.0
 40
76.896286000000003
 50
144.34894499999999
 51
159.988767
  0
ARC
  5
C9
  8
DETAIL
  6
CONTINUOUS
 62
     5
 10
42.047699000000001
 20
43.959029999999991
 30
0.0
 40
65.702866
 50
160.68697599999999
 51
177.432796
  0
ARC
  5
CA
  8
DETAIL
  6
CONTINUOUS
 62
     5
 10
30.377762000000001
 20
43.804488999999997
 30
0.0
 40
54.055770999999993
 50
176.71508
 51
184.230638
  0
ARC
  5
CB
  8
DETAIL
  6
CONTINUOUS
 62
     5
 10
15.526581
 20
46.606110000000001
 30
0.0
 40
51.526932000000002
 50
183.441396
 51
196.92730399999999
  0
ARC
  5
CC
  8
DETAIL
  6
CONTINUOUS
 62
     5
 10
31.47908
 20
48.059005999999997
 30
0.0
 40
67.747481999999991
 50
156.93785800000001
 51
183.858092
  0
ARC
  5
CD
  8
DETAIL
  6
CONTINUOUS
 62
     5
 10
45.249878000000002
 20
43.43089299999999
 30
0.0
 40
82.298309000000003
 50
147.51596699999999
 51
157.728903
  0
ARC
  5
CE
  8
DETAIL
  6
CONTINUOUS
 62
     5
 10
34.061492999999999
 20
-60.959029999999998
 30
0.0
 40
87.035659999999993
 50
35.934154999999997
 51
54.830773999999991
  0
ARC
  5
CF
  8
DETAIL
  6
CONTINUOUS
 62
     5
 10
-45.249924
 20
-43.430894000000002
 30
0.0
 40
82.298309000000003
 50
327.51587599999999
 51
337.728812
  0
ARC
  5
D0
  8
DETAIL
  6
CONTINUOUS
 62
     5
 10
0.0
 20
0.0
 30
0.0
 40
104.999954
 50
288.70848999999998
 51
333.194277
  0
ARC
  5
D1
  8
DETAIL
  6
CONTINUOUS
 62
     5
 10
31.088455
 20
-91.801909999999978
 30
0.0
 40
8.0769199999999994
 50
147.16139799999999
 51
288.70843500000001
  0
ARC
  5
D2
  8
DETAIL
  6
CONTINUOUS
 62
     5
 10
-42.047699000000001
 20
-43.959032000000001
 30
0.0
 40
65.702866
 50
340.68693999999999
 51
357.43275999999997
  0
ARC
  5
D3
  8
DETAIL
  6
CONTINUOUS
 62
     5
 10
-30.377746999999999
 20
-43.804496999999991
 30
0.0
 40
54.055770999999993
 50
356.71509900000001
 51
4.2307110000000003
  0
ARC
  5
D4
  8
DETAIL
  6
CONTINUOUS
 62
     5
 10
-15.526672
 20
-46.606110000000001
 30
0.0
 40
51.526932000000002
 50
3.441352999999999
 51
16.927223999999999
  0
ARC
  5
D5
  8
DETAIL
  6
CONTINUOUS
 62
     5
 10
-31.479034000000009
 20
-48.059005999999997
 30
0.0
 40
67.747481999999991
 50
336.93776700000001
 51
3.8580009999999998
  0
ARC
  5
D6
  8
DETAIL
  6
CONTINUOUS
 62
     5
 10
0.0
 20
0.0
 30
0.0
 40
104.999954
 50
333.194277
 51
354.59981699999997
  0
ARC
  5
D7
  8
DETAIL
  6
CONTINUOUS
 62
     5
 10
48.059052000000001
 20
-31.479035
 30
0.0
 40
67.747481999999991
 50
66.937876000000003
 51
93.858110000000025
  0
ARC
  5
D8
  8
DETAIL
  6
CONTINUOUS
 62
     5
 10
39.374588000000003
 20
-52.295929000000001
 30
0.0
 40
76.896286000000003
 50
54.348945999999991
 51
69.988784999999993
  0
ARC
  5
D9
  8
DETAIL
  6
CONTINUOUS
 62
     5
 10
43.804459000000001
 20
-30.377751
 30
0.0
 40
54.055770999999993
 50
86.715207000000007
 51
94.230710000000016
  0
ARC
  5
DA
  8
DETAIL
  6
CONTINUOUS
 62
     5
 10
46.606155000000001
 20
-15.526662999999999
 30
0.0
 40
51.526932000000002
 50
93.441632000000027
 51
106.927322
  0
ARC
  5
DB
  8
DETAIL
  6
CONTINUOUS
 62
     5
 10
43.959076000000003
 20
-42.047702999999998
 30
0.0
 40
65.702866
 50
70.686993999999984
 51
87.432813999999993
  0
ARC
  5
DC
  8
DETAIL
  6
CONTINUOUS
 62
     5
 10
43.430785999999998
 20
-45.249924
 30
0.0
 40
82.298309000000003
 50
57.515985000000001
 51
67.728920999999985
  0
ARC
  5
DD
  8
DETAIL
  6
CONTINUOUS
 62
     5
 10
91.802093999999997
 20
31.088394000000001
 30
0.0
 40
8.0769199999999994
 50
237.16143500000001
 51
279.036068
  0
ARC
  5
DE
  8
DETAIL
  6
CONTINUOUS
 62
     5
 10
91.802093999999997
 20
31.088394000000001
 30
0.0
 40
8.0769199999999994
 50
279.036068
 51
7.3789909999999992
  0
LINE
  5
DF
  8
DETAIL
  6
CONTINUOUS
 62
     5
 39
50.0
 10
-150.0
 20
-180.0
 30
0.0
 11
150.0
 21
-180.0
 31
0.0
  0
LINE
  5
E0
  8
DETAIL
  6
CONTINUOUS
 62
     5
 39
50.0
 10
160.0
 20
-170.0
 30
0.0
 11
160.0
 21
170.0
 31
0.0
  0
LINE
  5
E1
  8
DETAIL
  6
CONTINUOUS
 62
     5
 39
50.0
 10
150.0
 20
180.0
 30
0.0
 11
-150.0
 21
180.0
 31
0.0
  0
LINE
  5
E2
  8
DETAIL
  6
CONTINUOUS
 62
     5
 39
50.0
 10
-160.0
 20
170.0
 30
0.0
 11
-160.0
 21
-170.0
 31
0.0
  0
ARC
  5
E3
  8
DETAIL
  6
CONTINUOUS
 62
     5
 39
50.0
 10
-150.0
 20
170.0
 30
0.0
 40
10.0
 50
90.0
 51
180.0
  0
ARC
  5
E4
  8
DETAIL
  6
CONTINUOUS
 62
     5
 39
50.0
 10
150.0
 20
170.0
 30
0.0
 40
10.0
 50
0.0
 51
90.0
  0
ARC
  5
E5
  8
DETAIL
  6
CONTINUOUS
 62
     5
 39
50.0
 10
-150.0
 20
-170.0
 30
0.0
 40
10.0
 50
180.0
 51
270.0
  0
ARC
  5
E6
  8
DETAIL
  6
CONTINUOUS
 62
     5
 39
50.0
 10
150.0
 20
-170.0
 30
0.0
 40
10.0
 50
270.0
 51
0.0
  0
ARC
  5
E7
  8
OUTLINE
  6
CONTINUOUS
 62
     3
 39
50.0
 10
150.0
 20
-170.0
 30
0.0
 40
10.0
 50
270.0
 51
0.0
  0
LINE
  5
E8
  8
OUTLINE
  6
CONTINUOUS
 62
     3
 39
50.0
 10
-150.0
 20
-180.0
 30
0.0
 11
150.0
 21
-180.0
 31
0.0
  0
LINE
  5
E9
  8
OUTLINE
  6
CONTINUOUS
 62
     3
 39
50.0
 10
160.0
 20
-170.0
 30
0.0
 11
160.0
 21
170.0
 31
0.0
  0
ARC
  5
EA
  8
OUTLINE
  6
CONTINUOUS
 62
     3
 39
50.0
 10
-150.0
 20
-170.0
 30
0.0
 40
10.0
 50
180.0
 51
270.0
  0
LINE
  5
EB
  8
OUTLINE
  6
CONTINUOUS
 62
     3
 39
50.0
 10
-160.0
 20
170.0
 30
0.0
 11
-160.0
 21
-170.0
 31
0.0
  0
ARC
  5
EC
  8
OUTLINE
  6
CONTINUOUS
 62
     3
 39
50.0
 10
150.0
 20
170.0
 30
0.0
 40
10.0
 50
0.0
 51
90.0
  0
LINE
  5
ED
  8
OUTLINE
  6
CONTINUOUS
 62
     3
 39
50.0
 10
150.0
 20
180.0
 30
0.0
 11
-150.0
 21
180.0
 31
0.0
  0
ARC
  5
EE
  8
OUTLINE
  6
CONTINUOUS
 62
     3
 39
50.0
 10
-150.0
 20
170.0
 30
0.0
 40
10.0
 50
90.0
 51
180.0
  0
LINE
  5
EF
  8
SIZE
  6
CONTINUOUS
 62
    30
 10
170.0
 20
180.0
 30
0.0
 11
864.31786499999987
 21
180.0
 31
0.0
  0
LINE
  5
F0
  8
SIZE
  6
CONTINUOUS
 62
    30
 10
170.0
 20
-180.0
 30
0.0
 11
864.31786499999987
 21
-180.0
 31
0.0
  0
LINE
  5
F1
  8
SIZE
  6
CONTINUOUS
 62
    30
 10
844.31786499999998
 20
168.0
 30
0.0
 11
844.31786499999998
 21
-168.0
 31
0.0
  0
CIRCLE
  5
F2
  8
SIZE
  6
CONTINUOUS
 62
    30
 10
844.31786499999998
 20
180.0
 30
0.0
 40
6.0
  0
LINE
  5
F3
  8
SIZE
  6
CONTINUOUS
 62
    30
 10
844.31786499999998
 20
180.0
 30
0.0
 11
844.31786499999998
 21
168.0
 31
0.0
  0
CIRCLE
  5
F4
  8
SIZE
  6
CONTINUOUS
 62
    30
 10
844.31786499999998
 20
-180.0
 30
0.0
 40
6.0
  0
LINE
  5
F5
  8
SIZE
  6
CONTINUOUS
 62
    30
 10
844.31786499999998
 20
-180.0
 30
0.0
 11
844.31786499999998
 21
-168.0
 31
0.0
  0
TEXT
  5
F6
  8
SIZE
  6
CONTINUOUS
 62
    30
 10
819.31786499999998
 20
-74.05714285714285
 30
0.0
 40
64.0
  1
360
 50
90.0
 41
0.9
 72
     1
 11
819.31786499999998
 21
0.0
 31
0.0
  0
POINT
  5
F7
  8
DEFPOINTS
  6
CONTINUOUS
 62
    30
 10
150.0
 20
180.0
 30
0.0
  0
POINT
  5
F8
  8
DEFPOINTS
  6
CONTINUOUS
 62
    30
 10
150.0
 20
-180.0
 30
0.0
  0
POINT
  5
F9
  8
DEFPOINTS
  6
CONTINUOUS
 62
    30
 10
844.31786499999998
 20
-180.0
 30
0.0
  0
LINE
  5
FA
  8
SIZE
  6
CONTINUOUS
 62
    30
 10
-160.0
 20
190.0
 30
0.0
 11
-160.0
 21
516.70966500000009
 31
0.0
  0
LINE
  5
FB
  8
SIZE
  6
CONTINUOUS
 62
    30
 10
160.0
 20
190.0
 30
0.0
 11
160.0
 21
516.70966500000009
 31
0.0
  0
LINE
  5
FC
  8
SIZE
  6
CONTINUOUS
 62
    30
 10
-148.0
 20
496.70966499999997
 30
0.0
 11
148.0
 21
496.70966499999997
 31
0.0
  0
CIRCLE
  5
FD
  8
SIZE
  6
CONTINUOUS
 62
    30
 10
-160.0
 20
496.70966499999997
 30
0.0
 40
6.0
  0
LINE
  5
FE
  8
SIZE
  6
CONTINUOUS
 62
    30
 10
-160.0
 20
496.70966499999997
 30
0.0
 11
-148.0
 21
496.70966499999997
 31
0.0
  0
CIRCLE
  5
FF
  8
SIZE
  6
CONTINUOUS
 62
    30
 10
160.0
 20
496.70966499999997
 30
0.0
 40
6.0
  0
LINE
  5
100
  8
SIZE
  6
CONTINUOUS
 62
    30
 10
160.0
 20
496.70966499999997
 30
0.0
 11
148.0
 21
496.70966499999997
 31
0.0
  0
TEXT
  5
101
  8
SIZE
  6
CONTINUOUS
 62
    30
 10
-74.05714285714285
 20
521.70966500000009
 30
0.0
 40
64.0
  1
320
 41
0.9
 72
     1
 11
0.0
 21
521.70966500000009
 31
0.0
  0
POINT
  5
102
  8
DEFPOINTS
  6
CONTINUOUS
 62
    30
 10
-160.0
 20
170.0
 30
0.0
  0
POINT
  5
103
  8
DEFPOINTS
  6
CONTINUOUS
 62
    30
 10
160.0
 20
170.0
 30
0.0
  0
POINT
  5
104
  8
DEFPOINTS
  6
CONTINUOUS
 62
    30
 10
160.0
 20
496.70966499999997
 30
0.0
  0
LINE
  5
105
  8
DETAIL
  6
CONTINUOUS
 62
     5
 39
50.0
 10
-138.0
 20
-148.0
 30
0.0
 11
138.0
 21
-148.0
 31
0.0
  0
LINE
  5
106
  8
DETAIL
  6
CONTINUOUS
 62
     5
 39
50.0
 10
148.0
 20
-138.0
 30
0.0
 11
148.0
 21
138.0
 31
0.0
  0
LINE
  5
107
  8
DETAIL
  6
CONTINUOUS
 62
     5
 39
50.0
 10
138.0
 20
148.0
 30
0.0
 11
-138.0
 21
148.0
 31
0.0
  0
LINE
  5
108
  8
DETAIL
  6
CONTINUOUS
 62
     5
 39
50.0
 10
-148.0
 20
138.0
 30
0.0
 11
-148.0
 21
-138.0
 31
0.0
  0
ARC
  5
109
  8
DETAIL
  6
CONTINUOUS
 62
     5
 39
50.0
 10
-138.0
 20
138.0
 30
0.0
 40
10.0
 50
90.0
 51
180.0
  0
ARC
  5
10A
  8
DETAIL
  6
CONTINUOUS
 62
     5
 39
50.0
 10
-138.0
 20
-138.0
 30
0.0
 40
10.0
 50
180.0
 51
270.0
  0
ARC
  5
10B
  8
DETAIL
  6
CONTINUOUS
 62
     5
 39
50.0
 10
138.0
 20
-138.0
 30
0.0
 40
10.0
 50
270.0
 51
0.0
  0
ARC
  5
10C
  8
DETAIL
  6
CONTINUOUS
 62
     5
 39
50.0
 10
138.0
 20
138.0
 30
0.0
 40
10.0
 50
0.0
 51
90.0
  0
LINE
  5
10D
  8
SIZE
  6
CONTINUOUS
 62
    30
 10
250.686418
 20
0.0
 30
0.0
 11
357.51956899999999
 21
0.0
 31
0.0
  0
LINE
  5
10E
  8
SIZE
  6
CONTINUOUS
 62
    30
 10
133.66521700000001
 20
-148.0
 30
0.0
 11
357.51956899999999
 21
-148.0
 31
0.0
  0
LINE
  5
10F
  8
SIZE
  6
CONTINUOUS
 62
    30
 10
337.51956899999999
 20
12.0
 30
0.0
 11
337.51956899999999
 21
24.0
 31
0.0
  0
LINE
  5
110
  8
SIZE
  6
CONTINUOUS
 62
    30
 10
337.51956899999999
 20
-160.0
 30
0.0
 11
337.51956899999999
 21
-172.0
 31
0.0
  0
LINE
  5
111
  8
SIZE
  6
CONTINUOUS
 62
    30
 10
337.51956899999999
 20
0.0
 30
0.0
 11
337.51956899999999
 21
-148.0
 31
0.0
  0
CIRCLE
  5
112
  8
SIZE
  6
CONTINUOUS
 62
    30
 10
337.51956899999999
 20
0.0
 30
0.0
 40
6.0
  0
LINE
  5
113
  8
SIZE
  6
CONTINUOUS
 62
    30
 10
337.51956899999999
 20
0.0
 30
0.0
 11
337.51956899999999
 21
12.0
 31
0.0
  0
CIRCLE
  5
114
  8
SIZE
  6
CONTINUOUS
 62
    30
 10
337.51956899999999
 20
-148.0
 30
0.0
 40
6.0
  0
LINE
  5
115
  8
SIZE
  6
CONTINUOUS
 62
    30
 10
337.51956899999999
 20
-148.0
 30
0.0
 11
337.51956899999999
 21
-160.0
 31
0.0
  0
TEXT
  5
116
  8
SIZE
  6
CONTINUOUS
 62
    30
 10
312.51956899999999
 20
-142.5714285714285
 30
0.0
 40
64.0
  1
148
 50
90.0
 41
0.9
 72
     1
 11
312.51956899999999
 21
-74.0
 31
0.0
  0
POINT
  5
117
  8
DEFPOINTS
  6
CONTINUOUS
 62
    30
 10
230.686418
 20
0.0
 30
0.0
  0
POINT
  5
118
  8
DEFPOINTS
  6
CONTINUOUS
 62
    30
 10
113.665217
 20
-148.0
 30
0.0
  0
POINT
  5
119
  8
DEFPOINTS
  6
CONTINUOUS
 62
    30
 10
337.51956899999999
 20
-148.0
 30
0.0
  0
LINE
  5
11A
  8
SIZE
  6
CONTINUOUS
 62
    30
 10
158.0
 20
148.0
 30
0.0
 11
517.91250199999979
 21
148.0
 31
0.0
  0
LINE
  5
11B
  8
SIZE
  6
CONTINUOUS
 62
    30
 10
153.66521700000001
 20
-148.0
 30
0.0
 11
517.91250199999979
 21
-148.0
 31
0.0
  0
LINE
  5
11C
  8
SIZE
  6
CONTINUOUS
 62
    30
 10
497.9125019999999
 20
136.0
 30
0.0
 11
497.9125019999999
 21
-136.0
 31
0.0
  0
CIRCLE
  5
11D
  8
SIZE
  6
CONTINUOUS
 62
    30
 10
497.9125019999999
 20
148.0
 30
0.0
 40
6.0
  0
LINE
  5
11E
  8
SIZE
  6
CONTINUOUS
 62
    30
 10
497.9125019999999
 20
148.0
 30
0.0
 11
497.9125019999999
 21
136.0
 31
0.0
  0
CIRCLE
  5
11F
  8
SIZE
  6
CONTINUOUS
 62
    30
 10
497.9125019999999
 20
-148.0
 30
0.0
 40
6.0
  0
LINE
  5
120
  8
SIZE
  6
CONTINUOUS
 62
    30
 10
497.9125019999999
 20
-148.0
 30
0.0
 11
497.9125019999999
 21
-136.0
 31
0.0
  0
TEXT
  5
121
  8
SIZE
  6
CONTINUOUS
 62
    30
 10
472.9125019999999
 20
-72.685714285714297
 30
0.0
 40
64.0
  1
296
 50
90.0
 41
0.9
 72
     1
 11
472.9125019999999
 21
0.0
 31
0.0
  0
POINT
  5
122
  8
DEFPOINTS
  6
CONTINUOUS
 62
    30
 10
138.0
 20
148.0
 30
0.0
  0
POINT
  5
123
  8
DEFPOINTS
  6
CONTINUOUS
 62
    30
 10
133.66521700000001
 20
-148.0
 30
0.0
  0
POINT
  5
124
  8
DEFPOINTS
  6
CONTINUOUS
 62
    30
 10
497.9125019999999
 20
-148.0
 30
0.0
  0
LINE
  5
125
  8
DETAIL
  6
CONTINUOUS
 62
     5
 10
-2.994219999999999
 20
-75.283237
 30
0.0
 11
2.994219999999999
 21
-75.283237
 31
0.0
  0
LINE
  5
126
  8
DETAIL
  6
CONTINUOUS
 62
     5
 10
-2.994219999999999
 20
-73.572254000000001
 30
0.0
 11
2.994219999999999
 21
-73.572254000000001
 31
0.0
  0
LINE
  5
127
  8
DETAIL
  6
CONTINUOUS
 62
     5
 10
-2.994219999999999
 20
75.283237
 30
0.0
 11
2.994219999999999
 21
75.283237
 31
0.0
  0
LINE
  5
128
  8
DETAIL
  6
CONTINUOUS
 62
     5
 10
-2.994219999999999
 20
73.572254000000001
 30
0.0
 11
2.994219999999999
 21
73.572254000000001
 31
0.0
  0
LINE
  5
129
  8
DETAIL
  6
CONTINUOUS
 62
     5
 10
-107.36416199999999
 20
-122.763006
 30
0.0
 11
107.36416199999999
 21
-122.763006
 31
0.0
  0
LINE
  5
12A
  8
DETAIL
  6
CONTINUOUS
 62
     5
 10
107.36416199999999
 20
122.763006
 30
0.0
 11
-107.36416199999999
 21
122.763006
 31
0.0
  0
LINE
  5
12B
  8
DETAIL
  6
CONTINUOUS
 62
     5
 10
-2.994219999999999
 20
-122.763006
 30
0.0
 11
-2.994219999999999
 21
122.763006
 31
0.0
  0
LINE
  5
12C
  8
DETAIL
  6
CONTINUOUS
 62
     5
 10
-11.549132999999999
 20
-122.763006
 30
0.0
 11
-11.549132999999999
 21
122.763006
 31
0.0
  0
LINE
  5
12D
  8
DETAIL
  6
CONTINUOUS
 62
     5
 10
-20.104046
 20
-122.763006
 30
0.0
 11
-20.104046
 21
122.763006
 31
0.0
  0
LINE
  5
12E
  8
DETAIL
  6
CONTINUOUS
 62
     5
 10
-28.65896
 20
-122.763006
 30
0.0
 11
-28.65896
 21
122.763006
 31
0.0
  0
LINE
  5
12F
  8
DETAIL
  6
CONTINUOUS
 62
     5
 10
-37.213873
 20
-122.763006
 30
0.0
 11
-37.213873
 21
122.763006
 31
0.0
  0
LINE
  5
130
  8
DETAIL
  6
CONTINUOUS
 62
     5
 10
-45.768785999999992
 20
-122.763006
 30
0.0
 11
-45.768785999999992
 21
122.763006
 31
0.0
  0
LINE
  5
131
  8
DETAIL
  6
CONTINUOUS
 62
     5
 10
-54.323698999999998
 20
-122.763006
 30
0.0
 11
-54.323698999999998
 21
122.763006
 31
0.0
  0
LINE
  5
132
  8
DETAIL
  6
CONTINUOUS
 62
     5
 10
-62.878613000000001
 20
-122.763006
 30
0.0
 11
-62.878613000000001
 21
122.763006
 31
0.0
  0
LINE
  5
133
  8
DETAIL
  6
CONTINUOUS
 62
     5
 10
-71.433526000000001
 20
-122.763006
 30
0.0
 11
-71.433526000000001
 21
122.763006
 31
0.0
  0
LINE
  5
134
  8
DETAIL
  6
CONTINUOUS
 62
     5
 10
-79.988439
 20
-122.763006
 30
0.0
 11
-79.988439
 21
122.763006
 31
0.0
  0
LINE
  5
135
  8
DETAIL
  6
CONTINUOUS
 62
     5
 10
-88.543352999999996
 20
-122.763006
 30
0.0
 11
-88.543352999999996
 21
122.763006
 31
0.0
  0
LINE
  5
136
  8
DETAIL
  6
CONTINUOUS
 62
     5
 10
-97.09826600000001
 20
-122.763006
 30
0.0
 11
-97.09826600000001
 21
122.763006
 31
0.0
  0
LINE
  5
137
  8
DETAIL
  6
CONTINUOUS
 62
     5
 10
-105.65317899999999
 20
-122.763006
 30
0.0
 11
-105.65317899999999
 21
122.763006
 31
0.0
  0
LINE
  5
138
  8
DETAIL
  6
CONTINUOUS
 62
     5
 10
-114.20809199999999
 20
-121.158545
 30
0.0
 11
-114.20809199999999
 21
121.158545
 31
0.0
  0
LINE
  5
139
  8
DETAIL
  6
CONTINUOUS
 62
     5
 10
-116.77456599999999
 20
-119.553037
 30
0.0
 11
-116.77456599999999
 21
119.553037
 31
0.0
  0
LINE
  5
13A
  8
DETAIL
  6
CONTINUOUS
 62
     5
 10
-108.21965299999999
 20
-122.763006
 30
0.0
 11
-108.21965299999999
 21
122.763006
 31
0.0
  0
LINE
  5
13B
  8
DETAIL
  6
CONTINUOUS
 62
     5
 10
-99.664740000000009
 20
-122.763006
 30
0.0
 11
-99.664740000000009
 21
122.763006
 31
0.0
  0
LINE
  5
13C
  8
DETAIL
  6
CONTINUOUS
 62
     5
 10
-91.109826999999996
 20
-122.763006
 30
0.0
 11
-91.109826999999996
 21
122.763006
 31
0.0
  0
LINE
  5
13D
  8
DETAIL
  6
CONTINUOUS
 62
     5
 10
-82.554912999999999
 20
-122.763006
 30
0.0
 11
-82.554912999999999
 21
122.763006
 31
0.0
  0
LINE
  5
13E
  8
DETAIL
  6
CONTINUOUS
 62
     5
 10
-74.0
 20
-122.763006
 30
0.0
 11
-74.0
 21
122.763006
 31
0.0
  0
LINE
  5
13F
  8
DETAIL
  6
CONTINUOUS
 62
     5
 10
-65.445087000000001
 20
-122.763006
 30
0.0
 11
-65.445087000000001
 21
122.763006
 31
0.0
  0
LINE
  5
140
  8
DETAIL
  6
CONTINUOUS
 62
     5
 10
-56.89017299999999
 20
-122.763006
 30
0.0
 11
-56.89017299999999
 21
122.763006
 31
0.0
  0
LINE
  5
141
  8
DETAIL
  6
CONTINUOUS
 62
     5
 10
-48.335259999999991
 20
-122.763006
 30
0.0
 11
-48.335259999999991
 21
122.763006
 31
0.0
  0
LINE
  5
142
  8
DETAIL
  6
CONTINUOUS
 62
     5
 10
-39.780346999999999
 20
-122.763006
 30
0.0
 11
-39.780346999999999
 21
122.763006
 31
0.0
  0
LINE
  5
143
  8
DETAIL
  6
CONTINUOUS
 62
     5
 10
-31.225434
 20
-122.763006
 30
0.0
 11
-31.225434
 21
122.763006
 31
0.0
  0
LINE
  5
144
  8
DETAIL
  6
CONTINUOUS
 62
     5
 10
-22.67052
 20
-122.763006
 30
0.0
 11
-22.67052
 21
122.763006
 31
0.0
  0
LINE
  5
145
  8
DETAIL
  6
CONTINUOUS
 62
     5
 10
-14.115607000000001
 20
-122.763006
 30
0.0
 11
-14.115607000000001
 21
122.763006
 31
0.0
  0
LINE
  5
146
  8
DETAIL
  6
CONTINUOUS
 62
     5
 10
-5.5606939999999989
 20
-122.763006
 30
0.0
 11
-5.5606939999999989
 21
122.763006
 31
0.0
  0
LINE
  5
147
  8
DETAIL
  6
CONTINUOUS
 62
     5
 10
-122.763006
 20
107.36416199999999
 30
0.0
 11
-122.763006
 21
-107.36416199999999
 31
0.0
  0
ARC
  5
148
  8
DETAIL
  6
CONTINUOUS
 62
     5
 10
-107.36416199999999
 20
-107.36416199999999
 30
0.0
 40
15.398844
 50
180.0
 51
270.0
  0
LINE
  5
149
  8
DETAIL
  6
CONTINUOUS
 62
     5
 10
-122.763006
 20
-75.283237
 30
0.0
 11
-116.77456599999999
 21
-75.283237
 31
0.0
  0
LINE
  5
14A
  8
DETAIL
  6
CONTINUOUS
 62
     5
 10
-122.763006
 20
-73.572254000000001
 30
0.0
 11
-116.77456599999999
 21
-73.572254000000001
 31
0.0
  0
LINE
  5
14B
  8
DETAIL
  6
CONTINUOUS
 62
     5
 10
-62.878613000000001
 20
-75.283237
 30
0.0
 11
-56.89017299999999
 21
-75.283237
 31
0.0
  0
LINE
  5
14C
  8
DETAIL
  6
CONTINUOUS
 62
     5
 10
-62.878613000000001
 20
-73.572254000000001
 30
0.0
 11
-56.89017299999999
 21
-73.572254000000001
 31
0.0
  0
LINE
  5
14D
  8
DETAIL
  6
CONTINUOUS
 62
     5
 10
-114.20809199999999
 20
-75.283237
 30
0.0
 11
-108.21965299999999
 21
-75.283237
 31
0.0
  0
LINE
  5
14E
  8
DETAIL
  6
CONTINUOUS
 62
     5
 10
-114.20809199999999
 20
-73.572254000000001
 30
0.0
 11
-108.21965299999999
 21
-73.572254000000001
 31
0.0
  0
LINE
  5
14F
  8
DETAIL
  6
CONTINUOUS
 62
     5
 10
-105.65317899999999
 20
-75.283237
 30
0.0
 11
-99.664740000000009
 21
-75.283237
 31
0.0
  0
LINE
  5
150
  8
DETAIL
  6
CONTINUOUS
 62
     5
 10
-105.65317899999999
 20
-73.572254000000001
 30
0.0
 11
-99.664740000000009
 21
-73.572254000000001
 31
0.0
  0
LINE
  5
151
  8
DETAIL
  6
CONTINUOUS
 62
     5
 10
-97.09826600000001
 20
-75.283237
 30
0.0
 11
-91.109826999999996
 21
-75.283237
 31
0.0
  0
LINE
  5
152
  8
DETAIL
  6
CONTINUOUS
 62
     5
 10
-97.09826600000001
 20
-73.572254000000001
 30
0.0
 11
-91.109826999999996
 21
-73.572254000000001
 31
0.0
  0
LINE
  5
153
  8
DETAIL
  6
CONTINUOUS
 62
     5
 10
-88.543352999999996
 20
-75.283237
 30
0.0
 11
-82.554912999999999
 21
-75.283237
 31
0.0
  0
LINE
  5
154
  8
DETAIL
  6
CONTINUOUS
 62
     5
 10
-88.543352999999996
 20
-73.572254000000001
 30
0.0
 11
-82.554912999999999
 21
-73.572254000000001
 31
0.0
  0
LINE
  5
155
  8
DETAIL
  6
CONTINUOUS
 62
     5
 10
-79.988439
 20
-75.283237
 30
0.0
 11
-74.0
 21
-75.283237
 31
0.0
  0
LINE
  5
156
  8
DETAIL
  6
CONTINUOUS
 62
     5
 10
-79.988439
 20
-73.572254000000001
 30
0.0
 11
-74.0
 21
-73.572254000000001
 31
0.0
  0
LINE
  5
157
  8
DETAIL
  6
CONTINUOUS
 62
     5
 10
-71.433526000000001
 20
-75.283237
 30
0.0
 11
-65.445087000000001
 21
-75.283237
 31
0.0
  0
LINE
  5
158
  8
DETAIL
  6
CONTINUOUS
 62
     5
 10
-71.433526000000001
 20
-73.572254000000001
 30
0.0
 11
-65.445087000000001
 21
-73.572254000000001
 31
0.0
  0
LINE
  5
159
  8
DETAIL
  6
CONTINUOUS
 62
     5
 10
-54.323698999999998
 20
-75.283237
 30
0.0
 11
-48.335259999999991
 21
-75.283237
 31
0.0
  0
LINE
  5
15A
  8
DETAIL
  6
CONTINUOUS
 62
     5
 10
-54.323698999999998
 20
-73.572254000000001
 30
0.0
 11
-48.335259999999991
 21
-73.572254000000001
 31
0.0
  0
LINE
  5
15B
  8
DETAIL
  6
CONTINUOUS
 62
     5
 10
-45.768785999999992
 20
-75.283237
 30
0.0
 11
-39.780346999999999
 21
-75.283237
 31
0.0
  0
LINE
  5
15C
  8
DETAIL
  6
CONTINUOUS
 62
     5
 10
-45.768785999999992
 20
-73.572254000000001
 30
0.0
 11
-39.780346999999999
 21
-73.572254000000001
 31
0.0
  0
LINE
  5
15D
  8
DETAIL
  6
CONTINUOUS
 62
     5
 10
-37.213873
 20
-75.283237
 30
0.0
 11
-31.225434
 21
-75.283237
 31
0.0
  0
LINE
  5
15E
  8
DETAIL
  6
CONTINUOUS
 62
     5
 10
-37.213873
 20
-73.572254000000001
 30
0.0
 11
-31.225434
 21
-73.572254000000001
 31
0.0
  0
LINE
  5
15F
  8
DETAIL
  6
CONTINUOUS
 62
     5
 10
-28.65896
 20
-75.283237
 30
0.0
 11
-22.67052
 21
-75.283237
 31
0.0
  0
LINE
  5
160
  8
DETAIL
  6
CONTINUOUS
 62
     5
 10
-28.65896
 20
-73.572254000000001
 30
0.0
 11
-22.67052
 21
-73.572254000000001
 31
0.0
  0
LINE
  5
161
  8
DETAIL
  6
CONTINUOUS
 62
     5
 10
-20.104046
 20
-75.283237
 30
0.0
 11
-14.115607000000001
 21
-75.283237
 31
0.0
  0
LINE
  5
162
  8
DETAIL
  6
CONTINUOUS
 62
     5
 10
-20.104046
 20
-73.572254000000001
 30
0.0
 11
-14.115607000000001
 21
-73.572254000000001
 31
0.0
  0
LINE
  5
163
  8
DETAIL
  6
CONTINUOUS
 62
     5
 10
-11.549132999999999
 20
-75.283237
 30
0.0
 11
-5.5606939999999989
 21
-75.283237
 31
0.0
  0
LINE
  5
164
  8
DETAIL
  6
CONTINUOUS
 62
     5
 10
-11.549132999999999
 20
-73.572254000000001
 30
0.0
 11
-5.5606939999999989
 21
-73.572254000000001
 31
0.0
  0
ARC
  5
165
  8
DETAIL
  6
CONTINUOUS
 62
     5
 10
-107.36416199999999
 20
107.36416199999999
 30
0.0
 40
15.398844
 50
90.0
 51
180.0
  0
LINE
  5
166
  8
DETAIL
  6
CONTINUOUS
 62
     5
 10
-122.763006
 20
75.283237
 30
0.0
 11
-116.77456599999999
 21
75.283237
 31
0.0
  0
LINE
  5
167
  8
DETAIL
  6
CONTINUOUS
 62
     5
 10
-122.763006
 20
73.572254000000001
 30
0.0
 11
-116.77456599999999
 21
73.572254000000001
 31
0.0
  0
LINE
  5
168
  8
DETAIL
  6
CONTINUOUS
 62
     5
 10
-62.878613000000001
 20
75.283237
 30
0.0
 11
-56.89017299999999
 21
75.283237
 31
0.0
  0
LINE
  5
169
  8
DETAIL
  6
CONTINUOUS
 62
     5
 10
-62.878613000000001
 20
73.572254000000001
 30
0.0
 11
-56.89017299999999
 21
73.572254000000001
 31
0.0
  0
ARC
  5
16A
  8
DETAIL
  6
CONTINUOUS
 62
     5
 10
0.0
 20
0.0
 30
0.0
 40
114.63583800000001
 50
140.07449700000001
 51
140.56882200000001
  0
LINE
  5
16B
  8
DETAIL
  6
CONTINUOUS
 62
     5
 10
-114.20809199999999
 20
75.283237
 30
0.0
 11
-108.21965299999999
 21
75.283237
 31
0.0
  0
LINE
  5
16C
  8
DETAIL
  6
CONTINUOUS
 62
     5
 10
-114.20809199999999
 20
73.572254000000001
 30
0.0
 11
-108.21965299999999
 21
73.572254000000001
 31
0.0
  0
LINE
  5
16D
  8
DETAIL
  6
CONTINUOUS
 62
     5
 10
-105.65317899999999
 20
75.283237
 30
0.0
 11
-99.664740000000009
 21
75.283237
 31
0.0
  0
LINE
  5
16E
  8
DETAIL
  6
CONTINUOUS
 62
     5
 10
-105.65317899999999
 20
73.572254000000001
 30
0.0
 11
-99.664740000000009
 21
73.572254000000001
 31
0.0
  0
LINE
  5
16F
  8
DETAIL
  6
CONTINUOUS
 62
     5
 10
-97.09826600000001
 20
75.283237
 30
0.0
 11
-91.109826999999996
 21
75.283237
 31
0.0
  0
LINE
  5
170
  8
DETAIL
  6
CONTINUOUS
 62
     5
 10
-97.09826600000001
 20
73.572254000000001
 30
0.0
 11
-91.109826999999996
 21
73.572254000000001
 31
0.0
  0
LINE
  5
171
  8
DETAIL
  6
CONTINUOUS
 62
     5
 10
-88.543352999999996
 20
75.283237
 30
0.0
 11
-82.554912999999999
 21
75.283237
 31
0.0
  0
LINE
  5
172
  8
DETAIL
  6
CONTINUOUS
 62
     5
 10
-88.543352999999996
 20
73.572254000000001
 30
0.0
 11
-82.554912999999999
 21
73.572254000000001
 31
0.0
  0
LINE
  5
173
  8
DETAIL
  6
CONTINUOUS
 62
     5
 10
-79.988439
 20
75.283237
 30
0.0
 11
-74.0
 21
75.283237
 31
0.0
  0
LINE
  5
174
  8
DETAIL
  6
CONTINUOUS
 62
     5
 10
-79.988439
 20
73.572254000000001
 30
0.0
 11
-74.0
 21
73.572254000000001
 31
0.0
  0
LINE
  5
175
  8
DETAIL
  6
CONTINUOUS
 62
     5
 10
-71.433526000000001
 20
75.283237
 30
0.0
 11
-65.445087000000001
 21
75.283237
 31
0.0
  0
LINE
  5
176
  8
DETAIL
  6
CONTINUOUS
 62
     5
 10
-71.433526000000001
 20
73.572254000000001
 30
0.0
 11
-65.445087000000001
 21
73.572254000000001
 31
0.0
  0
LINE
  5
177
  8
DETAIL
  6
CONTINUOUS
 62
     5
 10
-54.323698999999998
 20
75.283237
 30
0.0
 11
-48.335259999999991
 21
75.283237
 31
0.0
  0
LINE
  5
178
  8
DETAIL
  6
CONTINUOUS
 62
     5
 10
-54.323698999999998
 20
73.572254000000001
 30
0.0
 11
-48.335259999999991
 21
73.572254000000001
 31
0.0
  0
LINE
  5
179
  8
DETAIL
  6
CONTINUOUS
 62
     5
 10
-45.768785999999992
 20
75.283237
 30
0.0
 11
-39.780346999999999
 21
75.283237
 31
0.0
  0
LINE
  5
17A
  8
DETAIL
  6
CONTINUOUS
 62
     5
 10
-45.768785999999992
 20
73.572254000000001
 30
0.0
 11
-39.780346999999999
 21
73.572254000000001
 31
0.0
  0
LINE
  5
17B
  8
DETAIL
  6
CONTINUOUS
 62
     5
 10
-37.213873
 20
75.283237
 30
0.0
 11
-31.225434
 21
75.283237
 31
0.0
  0
LINE
  5
17C
  8
DETAIL
  6
CONTINUOUS
 62
     5
 10
-37.213873
 20
73.572254000000001
 30
0.0
 11
-31.225434
 21
73.572254000000001
 31
0.0
  0
LINE
  5
17D
  8
DETAIL
  6
CONTINUOUS
 62
     5
 10
-28.65896
 20
75.283237
 30
0.0
 11
-22.67052
 21
75.283237
 31
0.0
  0
LINE
  5
17E
  8
DETAIL
  6
CONTINUOUS
 62
     5
 10
-28.65896
 20
73.572254000000001
 30
0.0
 11
-22.67052
 21
73.572254000000001
 31
0.0
  0
LINE
  5
17F
  8
DETAIL
  6
CONTINUOUS
 62
     5
 10
-20.104046
 20
75.283237
 30
0.0
 11
-14.115607000000001
 21
75.283237
 31
0.0
  0
LINE
  5
180
  8
DETAIL
  6
CONTINUOUS
 62
     5
 10
-20.104046
 20
73.572254000000001
 30
0.0
 11
-14.115607000000001
 21
73.572254000000001
 31
0.0
  0
LINE
  5
181
  8
DETAIL
  6
CONTINUOUS
 62
     5
 10
-11.549132999999999
 20
75.283237
 30
0.0
 11
-5.5606939999999989
 21
75.283237
 31
0.0
  0
LINE
  5
182
  8
DETAIL
  6
CONTINUOUS
 62
     5
 10
-11.549132999999999
 20
73.572254000000001
 30
0.0
 11
-5.5606939999999989
 21
73.572254000000001
 31
0.0
  0
LINE
  5
183
  8
DETAIL
  6
CONTINUOUS
 62
     5
 10
116.77456599999999
 20
-119.553037
 30
0.0
 11
116.77456599999999
 21
119.553037
 31
0.0
  0
LINE
  5
184
  8
DETAIL
  6
CONTINUOUS
 62
     5
 10
108.21965299999999
 20
-122.763006
 30
0.0
 11
108.21965299999999
 21
122.73922399999999
 31
0.0
  0
LINE
  5
185
  8
DETAIL
  6
CONTINUOUS
 62
     5
 10
99.664740000000009
 20
-122.763006
 30
0.0
 11
99.664740000000009
 21
122.763006
 31
0.0
  0
LINE
  5
186
  8
DETAIL
  6
CONTINUOUS
 62
     5
 10
91.109826999999996
 20
-122.763006
 30
0.0
 11
91.109826999999996
 21
122.763006
 31
0.0
  0
LINE
  5
187
  8
DETAIL
  6
CONTINUOUS
 62
     5
 10
82.554912999999999
 20
-122.763006
 30
0.0
 11
82.554912999999999
 21
122.763006
 31
0.0
  0
LINE
  5
188
  8
DETAIL
  6
CONTINUOUS
 62
     5
 10
74.0
 20
-122.763006
 30
0.0
 11
74.0
 21
122.763006
 31
0.0
  0
LINE
  5
189
  8
DETAIL
  6
CONTINUOUS
 62
     5
 10
65.445087000000001
 20
-122.763006
 30
0.0
 11
65.445087000000001
 21
122.763006
 31
0.0
  0
LINE
  5
18A
  8
DETAIL
  6
CONTINUOUS
 62
     5
 10
56.89017299999999
 20
-122.763006
 30
0.0
 11
56.89017299999999
 21
122.763006
 31
0.0
  0
LINE
  5
18B
  8
DETAIL
  6
CONTINUOUS
 62
     5
 10
48.335259999999991
 20
-122.763006
 30
0.0
 11
48.335259999999991
 21
122.763006
 31
0.0
  0
LINE
  5
18C
  8
DETAIL
  6
CONTINUOUS
 62
     5
 10
39.780346999999999
 20
-122.763006
 30
0.0
 11
39.780346999999999
 21
122.763006
 31
0.0
  0
LINE
  5
18D
  8
DETAIL
  6
CONTINUOUS
 62
     5
 10
31.225434
 20
-122.763006
 30
0.0
 11
31.225434
 21
122.763006
 31
0.0
  0
LINE
  5
18E
  8
DETAIL
  6
CONTINUOUS
 62
     5
 10
22.67052
 20
-122.763006
 30
0.0
 11
22.67052
 21
122.763006
 31
0.0
  0
LINE
  5
18F
  8
DETAIL
  6
CONTINUOUS
 62
     5
 10
14.115607000000001
 20
-122.763006
 30
0.0
 11
14.115607000000001
 21
122.763006
 31
0.0
  0
LINE
  5
190
  8
DETAIL
  6
CONTINUOUS
 62
     5
 10
5.5606939999999989
 20
-122.763006
 30
0.0
 11
5.5606939999999989
 21
122.763006
 31
0.0
  0
LINE
  5
191
  8
DETAIL
  6
CONTINUOUS
 62
     5
 10
114.20809199999999
 20
-121.158545
 30
0.0
 11
114.20809199999999
 21
121.158545
 31
0.0
  0
LINE
  5
192
  8
DETAIL
  6
CONTINUOUS
 62
     5
 10
105.65317899999999
 20
-122.763006
 30
0.0
 11
105.65317899999999
 21
122.763006
 31
0.0
  0
LINE
  5
193
  8
DETAIL
  6
CONTINUOUS
 62
     5
 10
97.09826600000001
 20
-122.763006
 30
0.0
 11
97.09826600000001
 21
122.763006
 31
0.0
  0
LINE
  5
194
  8
DETAIL
  6
CONTINUOUS
 62
     5
 10
88.543352999999996
 20
-122.763006
 30
0.0
 11
88.543352999999996
 21
122.763006
 31
0.0
  0
LINE
  5
195
  8
DETAIL
  6
CONTINUOUS
 62
     5
 10
79.988439
 20
-122.763006
 30
0.0
 11
79.988439
 21
122.763006
 31
0.0
  0
LINE
  5
196
  8
DETAIL
  6
CONTINUOUS
 62
     5
 10
71.433526000000001
 20
-122.763006
 30
0.0
 11
71.433526000000001
 21
122.763006
 31
0.0
  0
LINE
  5
197
  8
DETAIL
  6
CONTINUOUS
 62
     5
 10
62.878613000000001
 20
-122.763006
 30
0.0
 11
62.878613000000001
 21
122.763006
 31
0.0
  0
LINE
  5
198
  8
DETAIL
  6
CONTINUOUS
 62
     5
 10
54.323698999999998
 20
-122.763006
 30
0.0
 11
54.323698999999998
 21
122.763006
 31
0.0
  0
LINE
  5
199
  8
DETAIL
  6
CONTINUOUS
 62
     5
 10
45.768785999999992
 20
-122.763006
 30
0.0
 11
45.768785999999992
 21
122.763006
 31
0.0
  0
LINE
  5
19A
  8
DETAIL
  6
CONTINUOUS
 62
     5
 10
37.213873
 20
-122.763006
 30
0.0
 11
37.213873
 21
122.763006
 31
0.0
  0
LINE
  5
19B
  8
DETAIL
  6
CONTINUOUS
 62
     5
 10
28.65896
 20
-122.763006
 30
0.0
 11
28.65896
 21
122.763006
 31
0.0
  0
LINE
  5
19C
  8
DETAIL
  6
CONTINUOUS
 62
     5
 10
20.104046
 20
-122.763006
 30
0.0
 11
20.104046
 21
122.763006
 31
0.0
  0
LINE
  5
19D
  8
DETAIL
  6
CONTINUOUS
 62
     5
 10
11.549132999999999
 20
-122.763006
 30
0.0
 11
11.549132999999999
 21
122.763006
 31
0.0
  0
LINE
  5
19E
  8
DETAIL
  6
CONTINUOUS
 62
     5
 10
2.994219999999999
 20
-122.763006
 30
0.0
 11
2.994219999999999
 21
122.763006
 31
0.0
  0
LINE
  5
19F
  8
DETAIL
  6
CONTINUOUS
 62
     5
 10
122.763006
 20
107.36416199999999
 30
0.0
 11
122.763006
 21
-107.36416199999999
 31
0.0
  0
ARC
  5
1A0
  8
DETAIL
  6
CONTINUOUS
 62
     5
 10
107.36416199999999
 20
-107.36416199999999
 30
0.0
 40
15.398844
 50
270.0
 51
0.0
  0
LINE
  5
1A1
  8
DETAIL
  6
CONTINUOUS
 62
     5
 10
56.89017299999999
 20
-75.283237
 30
0.0
 11
62.878613000000001
 21
-75.283237
 31
0.0
  0
LINE
  5
1A2
  8
DETAIL
  6
CONTINUOUS
 62
     5
 10
56.89017299999999
 20
-73.572254000000001
 30
0.0
 11
62.878613000000001
 21
-73.572254000000001
 31
0.0
  0
LINE
  5
1A3
  8
DETAIL
  6
CONTINUOUS
 62
     5
 10
5.5606939999999989
 20
-75.283237
 30
0.0
 11
11.549132999999999
 21
-75.283237
 31
0.0
  0
LINE
  5
1A4
  8
DETAIL
  6
CONTINUOUS
 62
     5
 10
5.5606939999999989
 20
-73.572254000000001
 30
0.0
 11
11.549132999999999
 21
-73.572254000000001
 31
0.0
  0
LINE
  5
1A5
  8
DETAIL
  6
CONTINUOUS
 62
     5
 10
14.115607000000001
 20
-75.283237
 30
0.0
 11
20.104046
 21
-75.283237
 31
0.0
  0
LINE
  5
1A6
  8
DETAIL
  6
CONTINUOUS
 62
     5
 10
14.115607000000001
 20
-73.572254000000001
 30
0.0
 11
20.104046
 21
-73.572254000000001
 31
0.0
  0
LINE
  5
1A7
  8
DETAIL
  6
CONTINUOUS
 62
     5
 10
22.67052
 20
-75.283237
 30
0.0
 11
28.65896
 21
-75.283237
 31
0.0
  0
LINE
  5
1A8
  8
DETAIL
  6
CONTINUOUS
 62
     5
 10
22.67052
 20
-73.572254000000001
 30
0.0
 11
28.65896
 21
-73.572254000000001
 31
0.0
  0
LINE
  5
1A9
  8
DETAIL
  6
CONTINUOUS
 62
     5
 10
31.225434
 20
-75.283237
 30
0.0
 11
37.213873
 21
-75.283237
 31
0.0
  0
LINE
  5
1AA
  8
DETAIL
  6
CONTINUOUS
 62
     5
 10
31.225434
 20
-73.572254000000001
 30
0.0
 11
37.213873
 21
-73.572254000000001
 31
0.0
  0
LINE
  5
1AB
  8
DETAIL
  6
CONTINUOUS
 62
     5
 10
39.780346999999999
 20
-75.283237
 30
0.0
 11
45.768785999999992
 21
-75.283237
 31
0.0
  0
LINE
  5
1AC
  8
DETAIL
  6
CONTINUOUS
 62
     5
 10
39.780346999999999
 20
-73.572254000000001
 30
0.0
 11
45.768785999999992
 21
-73.572254000000001
 31
0.0
  0
LINE
  5
1AD
  8
DETAIL
  6
CONTINUOUS
 62
     5
 10
48.335259999999991
 20
-75.283237
 30
0.0
 11
54.323698999999998
 21
-75.283237
 31
0.0
  0
LINE
  5
1AE
  8
DETAIL
  6
CONTINUOUS
 62
     5
 10
48.335259999999991
 20
-73.572254000000001
 30
0.0
 11
54.323698999999998
 21
-73.572254000000001
 31
0.0
  0
ARC
  5
1AF
  8
DETAIL
  6
CONTINUOUS
 62
     5
 10
-55.390818000000003
 20
-42.132609000000002
 30
0.0
 40
81.447013999999996
 50
337.29332699999998
 51
337.959675
  0
LINE
  5
1B0
  8
DETAIL
  6
CONTINUOUS
 62
     5
 10
65.445087000000001
 20
-75.283237
 30
0.0
 11
71.433526000000001
 21
-75.283237
 31
0.0
  0
LINE
  5
1B1
  8
DETAIL
  6
CONTINUOUS
 62
     5
 10
65.445087000000001
 20
-73.572254000000001
 30
0.0
 11
71.433526000000001
 21
-73.572254000000001
 31
0.0
  0
LINE
  5
1B2
  8
DETAIL
  6
CONTINUOUS
 62
     5
 10
74.0
 20
-75.283237
 30
0.0
 11
79.988439
 21
-75.283237
 31
0.0
  0
LINE
  5
1B3
  8
DETAIL
  6
CONTINUOUS
 62
     5
 10
74.0
 20
-73.572254000000001
 30
0.0
 11
79.988439
 21
-73.572254000000001
 31
0.0
  0
LINE
  5
1B4
  8
DETAIL
  6
CONTINUOUS
 62
     5
 10
82.554912999999999
 20
-75.283237
 30
0.0
 11
88.543352999999996
 21
-75.283237
 31
0.0
  0
LINE
  5
1B5
  8
DETAIL
  6
CONTINUOUS
 62
     5
 10
82.554912999999999
 20
-73.572254000000001
 30
0.0
 11
88.543352999999996
 21
-73.572254000000001
 31
0.0
  0
LINE
  5
1B6
  8
DETAIL
  6
CONTINUOUS
 62
     5
 10
91.109826999999996
 20
-75.283237
 30
0.0
 11
97.09826600000001
 21
-75.283237
 31
0.0
  0
LINE
  5
1B7
  8
DETAIL
  6
CONTINUOUS
 62
     5
 10
91.109826999999996
 20
-73.572254000000001
 30
0.0
 11
97.09826600000001
 21
-73.572254000000001
 31
0.0
  0
LINE
  5
1B8
  8
DETAIL
  6
CONTINUOUS
 62
     5
 10
99.664740000000009
 20
-75.283237
 30
0.0
 11
105.65317899999999
 21
-75.283237
 31
0.0
  0
LINE
  5
1B9
  8
DETAIL
  6
CONTINUOUS
 62
     5
 10
99.664740000000009
 20
-73.572254000000001
 30
0.0
 11
105.65317899999999
 21
-73.572254000000001
 31
0.0
  0
LINE
  5
1BA
  8
DETAIL
  6
CONTINUOUS
 62
     5
 10
108.21965299999999
 20
-75.283237
 30
0.0
 11
114.20809199999999
 21
-75.283237
 31
0.0
  0
LINE
  5
1BB
  8
DETAIL
  6
CONTINUOUS
 62
     5
 10
108.21965299999999
 20
-73.572254000000001
 30
0.0
 11
114.20809199999999
 21
-73.572254000000001
 31
0.0
  0
LINE
  5
1BC
  8
DETAIL
  6
CONTINUOUS
 62
     5
 10
116.77456599999999
 20
-73.572254000000001
 30
0.0
 11
122.763006
 21
-73.572254000000001
 31
0.0
  0
LINE
  5
1BD
  8
DETAIL
  6
CONTINUOUS
 62
     5
 10
116.77456599999999
 20
-75.283237
 30
0.0
 11
122.763006
 21
-75.283237
 31
0.0
  0
ARC
  5
1BE
  8
DETAIL
  6
CONTINUOUS
 62
     5
 10
107.36416199999999
 20
107.36416199999999
 30
0.0
 40
15.398844
 50
0.0
 51
90.0
  0
LINE
  5
1BF
  8
DETAIL
  6
CONTINUOUS
 62
     5
 10
56.89017299999999
 20
75.283237
 30
0.0
 11
62.878613000000001
 21
75.283237
 31
0.0
  0
LINE
  5
1C0
  8
DETAIL
  6
CONTINUOUS
 62
     5
 10
56.89017299999999
 20
73.572254000000001
 30
0.0
 11
62.878613000000001
 21
73.572254000000001
 31
0.0
  0
LINE
  5
1C1
  8
DETAIL
  6
CONTINUOUS
 62
     5
 10
5.5606939999999989
 20
75.283237
 30
0.0
 11
11.549132999999999
 21
75.283237
 31
0.0
  0
LINE
  5
1C2
  8
DETAIL
  6
CONTINUOUS
 62
     5
 10
5.5606939999999989
 20
73.572254000000001
 30
0.0
 11
11.549132999999999
 21
73.572254000000001
 31
0.0
  0
LINE
  5
1C3
  8
DETAIL
  6
CONTINUOUS
 62
     5
 10
14.115607000000001
 20
75.283237
 30
0.0
 11
20.104046
 21
75.283237
 31
0.0
  0
LINE
  5
1C4
  8
DETAIL
  6
CONTINUOUS
 62
     5
 10
14.115607000000001
 20
73.572254000000001
 30
0.0
 11
20.104046
 21
73.572254000000001
 31
0.0
  0
LINE
  5
1C5
  8
DETAIL
  6
CONTINUOUS
 62
     5
 10
22.67052
 20
75.283237
 30
0.0
 11
28.65896
 21
75.283237
 31
0.0
  0
LINE
  5
1C6
  8
DETAIL
  6
CONTINUOUS
 62
     5
 10
22.67052
 20
73.572254000000001
 30
0.0
 11
28.65896
 21
73.572254000000001
 31
0.0
  0
LINE
  5
1C7
  8
DETAIL
  6
CONTINUOUS
 62
     5
 10
31.225434
 20
75.283237
 30
0.0
 11
37.213873
 21
75.283237
 31
0.0
  0
LINE
  5
1C8
  8
DETAIL
  6
CONTINUOUS
 62
     5
 10
31.225434
 20
73.572254000000001
 30
0.0
 11
37.213873
 21
73.572254000000001
 31
0.0
  0
LINE
  5
1C9
  8
DETAIL
  6
CONTINUOUS
 62
     5
 10
39.780346999999999
 20
75.283237
 30
0.0
 11
45.768785999999992
 21
75.283237
 31
0.0
  0
LINE
  5
1CA
  8
DETAIL
  6
CONTINUOUS
 62
     5
 10
39.780346999999999
 20
73.572254000000001
 30
0.0
 11
45.768785999999992
 21
73.572254000000001
 31
0.0
  0
LINE
  5
1CB
  8
DETAIL
  6
CONTINUOUS
 62
     5
 10
48.335259999999991
 20
75.283237
 30
0.0
 11
54.323698999999998
 21
75.283237
 31
0.0
  0
LINE
  5
1CC
  8
DETAIL
  6
CONTINUOUS
 62
     5
 10
48.335259999999991
 20
73.572254000000001
 30
0.0
 11
54.323698999999998
 21
73.572254000000001
 31
0.0
  0
ARC
  5
1CD
  8
DETAIL
  6
CONTINUOUS
 62
     5
 10
0.0
 20
0.0
 30
0.0
 40
114.63583800000001
 50
39.431178000000003
 51
39.925503000000013
  0
LINE
  5
1CE
  8
DETAIL
  6
CONTINUOUS
 62
     5
 10
65.445087000000001
 20
75.283237
 30
0.0
 11
71.433526000000001
 21
75.283237
 31
0.0
  0
LINE
  5
1CF
  8
DETAIL
  6
CONTINUOUS
 62
     5
 10
65.445087000000001
 20
73.572254000000001
 30
0.0
 11
71.433526000000001
 21
73.572254000000001
 31
0.0
  0
LINE
  5
1D0
  8
DETAIL
  6
CONTINUOUS
 62
     5
 10
74.0
 20
75.283237
 30
0.0
 11
79.988439
 21
75.283237
 31
0.0
  0
LINE
  5
1D1
  8
DETAIL
  6
CONTINUOUS
 62
     5
 10
74.0
 20
73.572254000000001
 30
0.0
 11
79.988439
 21
73.572254000000001
 31
0.0
  0
LINE
  5
1D2
  8
DETAIL
  6
CONTINUOUS
 62
     5
 10
82.554912999999999
 20
75.283237
 30
0.0
 11
88.543352999999996
 21
75.283237
 31
0.0
  0
LINE
  5
1D3
  8
DETAIL
  6
CONTINUOUS
 62
     5
 10
82.554912999999999
 20
73.572254000000001
 30
0.0
 11
88.543352999999996
 21
73.572254000000001
 31
0.0
  0
LINE
  5
1D4
  8
DETAIL
  6
CONTINUOUS
 62
     5
 10
91.109826999999996
 20
75.283237
 30
0.0
 11
97.09826600000001
 21
75.283237
 31
0.0
  0
LINE
  5
1D5
  8
DETAIL
  6
CONTINUOUS
 62
     5
 10
91.109826999999996
 20
73.572254000000001
 30
0.0
 11
97.09826600000001
 21
73.572254000000001
 31
0.0
  0
LINE
  5
1D6
  8
DETAIL
  6
CONTINUOUS
 62
     5
 10
99.664740000000009
 20
75.283237
 30
0.0
 11
105.65317899999999
 21
75.283237
 31
0.0
  0
LINE
  5
1D7
  8
DETAIL
  6
CONTINUOUS
 62
     5
 10
99.664740000000009
 20
73.572254000000001
 30
0.0
 11
105.65317899999999
 21
73.572254000000001
 31
0.0
  0
LINE
  5
1D8
  8
DETAIL
  6
CONTINUOUS
 62
     5
 10
108.21965299999999
 20
75.283237
 30
0.0
 11
114.20809199999999
 21
75.283237
 31
0.0
  0
LINE
  5
1D9
  8
DETAIL
  6
CONTINUOUS
 62
     5
 10
108.21965299999999
 20
73.572254000000001
 30
0.0
 11
114.20809199999999
 21
73.572254000000001
 31
0.0
  0
LINE
  5
1DA
  8
DETAIL
  6
CONTINUOUS
 62
     5
 10
116.77456599999999
 20
73.572254000000001
 30
0.0
 11
122.763006
 21
73.572254000000001
 31
0.0
  0
LINE
  5
1DB
  8
DETAIL
  6
CONTINUOUS
 62
     5
 10
116.77456599999999
 20
75.283237
 30
0.0
 11
122.763006
 21
75.283237
 31
0.0
  0
LINE
  5
1DC
  8
NOTE
  6
CONTINUOUS
 62
     4
 10
135.0
 20
137.0
 30
0.0
 11
135.0
 21
177.0
 31
0.0
  0
LINE
  5
1DD
  8
NOTE
  6
CONTINUOUS
 62
     4
 10
115.0
 20
157.0
 30
0.0
 11
155.0
 21
157.0
 31
0.0
  0
LINE
  5
1DE
  8
NOTE
  6
CONTINUOUS
 62
     4
 10
-135.0
 20
137.0
 30
0.0
 11
-135.0
 21
177.0
 31
0.0
  0
LINE
  5
1DF
  8
NOTE
  6
CONTINUOUS
 62
     4
 10
-155.0
 20
157.0
 30
0.0
 11
-115.0
 21
157.0
 31
0.0
  0
LINE
  5
1E0
  8
NOTE
  6
CONTINUOUS
 62
     4
 10
-135.0
 20
-189.0
 30
0.0
 11
-135.0
 21
-149.0
 31
0.0
  0
LINE
  5
1E1
  8
NOTE
  6
CONTINUOUS
 62
     4
 10
-155.0
 20
-169.0
 30
0.0
 11
-115.0
 21
-169.0
 31
0.0
  0
LINE
  5
1E2
  8
NOTE
  6
CONTINUOUS
 62
     4
 10
135.0
 20
-189.0
 30
0.0
 11
135.0
 21
-149.0
 31
0.0
  0
LINE
  5
1E3
  8
NOTE
  6
CONTINUOUS
 62
     4
 10
115.0
 20
-169.0
 30
0.0
 11
155.0
 21
-169.0
 31
0.0
  0
LINE
  5
1E4
  8
NOTE
  6
CONTINUOUS
 62
     4
 10
139.61236
 20
196.73318699999999
 30
0.0
 11
135.0
 21
157.0
 31
0.0
  0
LINE
  5
1E5
  8
NOTE
  6
CONTINUOUS
 62
     4
 10
135.0
 20
157.0
 30
0.0
 11
158.86101500000001
 21
189.103769
 31
0.0
  0
CIRCLE
  5
1E6
  8
FIX
  6
CONTINUOUS
 62
    11
 39
50.0
 10
135.0
 20
157.0
 30
0.0
 40
3.0
  0
CIRCLE
  5
1E7
  8
FIX
  6
CONTINUOUS
 62
    11
 39
50.0
 10
-135.0
 20
157.0
 30
0.0
 40
3.0
  0
CIRCLE
  5
1E8
  8
FIX
  6
CONTINUOUS
 62
    11
 39
50.0
 10
-135.0
 20
-169.0
 30
0.0
 40
3.0
  0
CIRCLE
  5
1E9
  8
FIX
  6
CONTINUOUS
 62
    11
 39
50.0
 10
135.0
 20
-169.0
 30
0.0
 40
3.0
  0
TEXT
  5
1EA
  8
NOTE
  6
CONTINUOUS
 62
     4
 10
237.48018300000001
 20
405.4632299999999
 30
0.0
 40
64.0
  1
4×φ6パネル固定用穴
 41
0.9
  0
LINE
  5
1EB
  8
NOTE
  6
CONTINUOUS
 62
     4
 39
50.0
 10
135.0
 20
157.0
 30
0.0
 11
229.18684200000001
 21
388.61780800000003
 31
0.0
  0
LINE
  5
1EC
  8
NOTE
  6
CONTINUOUS
 62
     4
 39
50.0
 10
229.18684200000001
 20
388.61780800000003
 30
0.0
 11
954.5521050000001
 21
388.61780800000003
 31
0.0
  0
LINE
  5
1ED
  8
SIZE
  6
CONTINUOUS
 62
    30
 10
155.0
 20
157.0
 30
0.0
 11
692.56414699999993
 21
157.0
 31
0.0
  0
LINE
  5
1EE
  8
SIZE
  6
CONTINUOUS
 62
    30
 10
155.0
 20
-169.0
 30
0.0
 11
692.56414699999993
 21
-169.0
 31
0.0
  0
LINE
  5
1EF
  8
SIZE
  6
CONTINUOUS
 62
    30
 10
672.56414699999993
 20
145.0
 30
0.0
 11
672.56414699999993
 21
-157.0
 31
0.0
  0
CIRCLE
  5
1F0
  8
SIZE
  6
CONTINUOUS
 62
    30
 10
672.56414699999993
 20
157.0
 30
0.0
 40
6.0
  0
LINE
  5
1F1
  8
SIZE
  6
CONTINUOUS
 62
    30
 10
672.56414699999993
 20
157.0
 30
0.0
 11
672.56414699999993
 21
145.0
 31
0.0
  0
CIRCLE
  5
1F2
  8
SIZE
  6
CONTINUOUS
 62
    30
 10
672.56414699999993
 20
-169.0
 30
0.0
 40
6.0
  0
LINE
  5
1F3
  8
SIZE
  6
CONTINUOUS
 62
    30
 10
672.56414699999993
 20
-169.0
 30
0.0
 11
672.56414699999993
 21
-157.0
 31
0.0
  0
TEXT
  5
1F4
  8
SIZE
  6
CONTINUOUS
 62
    30
 10
647.56414699999993
 20
-78.685714285714283
 30
0.0
 40
64.0
  1
326
 50
90.0
 41
0.9
 72
     1
 11
647.56414699999993
 21
-6.0
 31
0.0
  0
POINT
  5
1F5
  8
DEFPOINTS
  6
CONTINUOUS
 62
    30
 10
135.0
 20
157.0
 30
0.0
  0
POINT
  5
1F6
  8
DEFPOINTS
  6
CONTINUOUS
 62
    30
 10
135.0
 20
-169.0
 30
0.0
  0
POINT
  5
1F7
  8
DEFPOINTS
  6
CONTINUOUS
 62
    30
 10
672.56414699999993
 20
-169.0
 30
0.0
  0
LINE
  5
1F8
  8
SIZE
  6
CONTINUOUS
 62
    30
 10
-135.0
 20
177.0
 30
0.0
 11
-135.0
 21
262.77715000000001
 31
0.0
  0
LINE
  5
1F9
  8
SIZE
  6
CONTINUOUS
 62
    30
 10
135.0
 20
177.0
 30
0.0
 11
135.0
 21
262.77715000000001
 31
0.0
  0
LINE
  5
1FA
  8
SIZE
  6
CONTINUOUS
 62
    30
 10
-123.0
 20
242.77715000000001
 30
0.0
 11
123.0
 21
242.77715000000001
 31
0.0
  0
CIRCLE
  5
1FB
  8
SIZE
  6
CONTINUOUS
 62
    30
 10
-135.0
 20
242.77715000000001
 30
0.0
 40
6.0
  0
LINE
  5
1FC
  8
SIZE
  6
CONTINUOUS
 62
    30
 10
-135.0
 20
242.77715000000001
 30
0.0
 11
-123.0
 21
242.77715000000001
 31
0.0
  0
CIRCLE
  5
1FD
  8
SIZE
  6
CONTINUOUS
 62
    30
 10
135.0
 20
242.77715000000001
 30
0.0
 40
6.0
  0
LINE
  5
1FE
  8
SIZE
  6
CONTINUOUS
 62
    30
 10
135.0
 20
242.77715000000001
 30
0.0
 11
123.0
 21
242.77715000000001
 31
0.0
  0
TEXT
  5
1FF
  8
SIZE
  6
CONTINUOUS
 62
    30
 10
-74.05714285714285
 20
267.77715000000001
 30
0.0
 40
64.0
  1
270
 41
0.9
 72
     1
 11
0.0
 21
267.77715000000001
 31
0.0
  0
POINT
  5
200
  8
DEFPOINTS
  6
CONTINUOUS
 62
    30
 10
-135.0
 20
157.0
 30
0.0
  0
POINT
  5
201
  8
DEFPOINTS
  6
CONTINUOUS
 62
    30
 10
135.0
 20
157.0
 30
0.0
  0
POINT
  5
202
  8
DEFPOINTS
  6
CONTINUOUS
 62
    30
 10
135.0
 20
242.77715000000001
 30
0.0
  0
LINE
  5
203
  8
SIZE
  6
CONTINUOUS
 62
    30
 10
155.0
 20
157.0
 30
0.0
 11
692.56414699999993
 21
157.0
 31
0.0
  0
LINE
  5
204
  8
SIZE
  6
CONTINUOUS
 62
    30
 10
170.0
 20
180.0
 30
0.0
 11
692.56414699999993
 21
180.0
 31
0.0
  0
LINE
  5
205
  8
SIZE
  6
CONTINUOUS
 62
    30
 10
672.56414699999993
 20
145.0
 30
0.0
 11
672.56414699999993
 21
133.0
 31
0.0
  0
LINE
  5
206
  8
SIZE
  6
CONTINUOUS
 62
    30
 10
672.56414699999993
 20
192.0
 30
0.0
 11
672.56414699999993
 21
204.0
 31
0.0
  0
LINE
  5
207
  8
SIZE
  6
CONTINUOUS
 62
    30
 10
672.56414699999993
 20
357.270127
 30
0.0
 11
672.56414699999993
 21
180.0
 31
0.0
  0
TEXT
  5
208
  8
SIZE
  6
CONTINUOUS
 62
    30
 10
647.56414699999993
 20
239.01298357142861
 30
0.0
 40
64.0
  1
23
 50
90.0
 41
0.9
 72
     1
 11
647.56414699999993
 21
285.64155499999998
 31
0.0
  0
LINE
  5
209
  8
SIZE
  6
CONTINUOUS
 62
    30
 10
672.56414699999993
 20
157.0
 30
0.0
 11
672.56414699999993
 21
180.0
 31
0.0
  0
LINE
  5
20A
  8
SIZE
  6
CONTINUOUS
 62
    30
 10
672.56414699999993
 20
157.0
 30
0.0
 11
672.56414699999993
 21
180.0
 31
0.0
  0
CIRCLE
  5
20B
  8
SIZE
  6
CONTINUOUS
 62
    30
 10
672.56414699999993
 20
157.0
 30
0.0
 40
6.0
  0
LINE
  5
20C
  8
SIZE
  6
CONTINUOUS
 62
    30
 10
672.56414699999993
 20
157.0
 30
0.0
 11
672.56414699999993
 21
145.0
 31
0.0
  0
CIRCLE
  5
20D
  8
SIZE
  6
CONTINUOUS
 62
    30
 10
672.56414699999993
 20
180.0
 30
0.0
 40
6.0
  0
LINE
  5
20E
  8
SIZE
  6
CONTINUOUS
 62
    30
 10
672.56414699999993
 20
180.0
 30
0.0
 11
672.56414699999993
 21
192.0
 31
0.0
  0
POINT
  5
20F
  8
DEFPOINTS
  6
CONTINUOUS
 62
    30
 10
135.0
 20
157.0
 30
0.0
  0
POINT
  5
210
  8
DEFPOINTS
  6
CONTINUOUS
 62
    30
 10
150.0
 20
180.0
 30
0.0
  0
POINT
  5
211
  8
DEFPOINTS
  6
CONTINUOUS
 62
    30
 10
672.56414699999993
 20
180.0
 30
0.0
  0
TEXT
  5
21A
  8
ETC
  6
CONTINUOUS
 62
    61
 10
534.07330169061288
 20
753.32474445309094
 30
0.0
 40
40.0
  1
EX-20SC-S_2
 41
0.9
  0
TEXT
  5
21B
  8
ETC
  6
CONTINUOUS
 62
    61
 10
525.99982269061275
 20
689.41970145309085
 30
0.0
 40
40.0
  1
換気扇
 41
0.9
  0
TEXT
  5
21C
  8
ETC
  6
CONTINUOUS
 62
    61
 10
587.34802677759944
 20
619.00339372442704
 30
0.0
 40
40.0
  1
EX-20SC-S
 41
0.9
  0
TEXT
  5
21D
  8
ETC
  6
CONTINUOUS
 62
    61
 10
587.34802677759944
 20
548.67072885323205
 30
0.0
 40
40.0
  1
EX-20SC-RK
 41
0.9
  0
ENDSEC
  0
EOF
