  0
SECTION
  2
HEADER
  9
$ACADVER
  1
AC1009
  9
$INSBASE
 10
0.0
 20
0.0
 30
0.0
  9
$EXTMIN
 10
-1008.3389121088441
 20
-232.9559206647755
 30
-0.0007627857894761
  9
$EXTMAX
 10
830.2368277453769
 20
713.928230821537
 30
50.000763018648549
  9
$LIMMIN
 10
-2970.0
 20
-2100.0
  9
$LIMMAX
 10
2970.0
 20
2100.0
  9
$ORTHOMODE
 70
     1
  9
$REGENMODE
 70
     1
  9
$FILLMODE
 70
     1
  9
$QTEXTMODE
 70
     0
  9
$MIRRTEXT
 70
     0
  9
$DRAGMODE
 70
     2
  9
$LTSCALE
 40
20.0
  9
$OSMODE
 70
    47
  9
$ATTMODE
 70
     1
  9
$TEXTSIZE
 40
64.0
  9
$TRACEWID
 40
0.05
  9
$TEXTSTYLE
  7
STANDARD
  9
$CLAYER
  8
DETAIL
  9
$CELTYPE
  6
CONTINUOUS
  9
$CECOLOR
 62
     5
  9
$DIMSCALE
 40
1.0
  9
$DIMASZ
 40
12.0
  9
$DIMEXO
 40
20.0
  9
$DIMDLI
 40
200.0
  9
$DIMRND
 40
0.0
  9
$DIMDLE
 40
0.0
  9
$DIMEXE
 40
20.0
  9
$DIMTP
 40
0.0
  9
$DIMTM
 40
0.0
  9
$DIMTXT
 40
64.0
  9
$DIMCEN
 40
0.09
  9
$DIMTSZ
 40
0.0
  9
$DIMTOL
 70
     0
  9
$DIMLIM
 70
     0
  9
$DIMTIH
 70
     0
  9
$DIMTOH
 70
     0
  9
$DIMSE1
 70
     0
  9
$DIMSE2
 70
     0
  9
$DIMTAD
 70
     1
  9
$DIMZIN
 70
     8
  9
$DIMBLK
  1
DOT1
  9
$DIMASO
 70
     1
  9
$DIMSHO
 70
     0
  9
$DIMPOST
  1

  9
$DIMAPOST
  1

  9
$DIMALT
 70
     0
  9
$DIMALTD
 70
     2
  9
$DIMALTF
 40
25.399999999999999
  9
$DIMLFAC
 40
1.0
  9
$DIMTOFL
 70
     1
  9
$DIMTVP
 40
0.0
  9
$DIMTIX
 70
     1
  9
$DIMSOXD
 70
     0
  9
$DIMSAH
 70
     1
  9
$DIMBLK1
  1
ORIGIN
  9
$DIMBLK2
  1
ORIGIN
  9
$DIMSTYLE
  2
STANDARD
  9
$DIMCLRD
 70
     7
  9
$DIMCLRE
 70
     7
  9
$DIMCLRT
 70
     7
  9
$DIMTFAC
 40
1.0
  9
$DIMGAP
 40
25.0
  9
$LUNITS
 70
     2
  9
$LUPREC
 70
     4
  9
$SKETCHINC
 40
0.1
  9
$FILLETRAD
 40
10.0
  9
$AUNITS
 70
     1
  9
$AUPREC
 70
     3
  9
$MENU
  1
ACAD
  9
$ELEVATION
 40
0.0
  9
$PELEVATION
 40
0.0
  9
$THICKNESS
 40
50.0
  9
$LIMCHECK
 70
     0
  9
$BLIPMODE
 70
     0
  9
$CHAMFERA
 40
0.0
  9
$CHAMFERB
 40
0.0
  9
$SKPOLY
 70
     0
  9
$TDCREATE
 40
2451453.49385081
  9
$TDUPDATE
 40
2455110.5840019211
  9
$TDINDWG
 40
0.8176430903
  9
$TDUSRTIMER
 40
0.8176430903
  9
$USRTIMER
 70
     1
  9
$ANGBASE
 50
0.0
  9
$ANGDIR
 70
     0
  9
$PDMODE
 70
     3
  9
$PDSIZE
 40
-2.0
  9
$PLINEWID
 40
0.0
  9
$COORDS
 70
     0
  9
$SPLFRAME
 70
     0
  9
$SPLINETYPE
 70
     6
  9
$SPLINESEGS
 70
     8
  9
$ATTDIA
 70
     0
  9
$ATTREQ
 70
     1
  9
$HANDLING
 70
     1
  9
$HANDSEED
  5
1A8
  9
$SURFTAB1
 70
     6
  9
$SURFTAB2
 70
     6
  9
$SURFTYPE
 70
     6
  9
$SURFU
 70
     6
  9
$SURFV
 70
     6
  9
$UCSNAME
  2

  9
$UCSORG
 10
0.0
 20
0.0
 30
0.0
  9
$UCSXDIR
 10
1.0
 20
0.0
 30
0.0
  9
$UCSYDIR
 10
0.0
 20
1.0
 30
0.0
  9
$PUCSNAME
  2

  9
$PUCSORG
 10
0.0
 20
0.0
 30
0.0
  9
$PUCSXDIR
 10
1.0
 20
0.0
 30
0.0
  9
$PUCSYDIR
 10
0.0
 20
1.0
 30
0.0
  9
$USERI1
 70
     0
  9
$USERI2
 70
     0
  9
$USERI3
 70
     0
  9
$USERI4
 70
     0
  9
$USERI5
 70
     0
  9
$USERR1
 40
20.0
  9
$USERR2
 40
0.0
  9
$USERR3
 40
0.0
  9
$USERR4
 40
0.0
  9
$USERR5
 40
0.0
  9
$WORLDVIEW
 70
     1
  9
$SHADEDGE
 70
     3
  9
$SHADEDIF
 70
    70
  9
$TILEMODE
 70
     1
  9
$MAXACTVP
 70
    48
  9
$PLIMCHECK
 70
     0
  9
$PEXTMIN
 10
-1.0000000000000000E+020
 20
-1.0000000000000000E+020
 30
-1.0000000000000000E+020
  9
$PEXTMAX
 10
1.0000000000000000E+020
 20
1.0000000000000000E+020
 30
1.0000000000000000E+020
  9
$PLIMMIN
 10
0.0
 20
0.0
  9
$PLIMMAX
 10
12.0
 20
9.0
  9
$UNITMODE
 70
     0
  9
$VISRETAIN
 70
     0
  9
$PLINEGEN
 70
     0
  9
$PSLTSCALE
 70
     0
  0
ENDSEC
  0
SECTION
  2
TABLES
  0
TABLE
  2
VPORT
 70
     1
  0
VPORT
  2
*ACTIVE
 70
     0
 10
0.0
 20
0.0
 11
1.0
 21
1.0
 12
-28.951265989908741
 22
182.94180381824549
 13
0.0
 23
0.0
 14
1.0
 24
1.0
 15
0.0
 25
0.0
 16
0.0
 26
0.0
 36
1.0
 17
0.0
 27
0.0
 37
0.0
 40
1583.885748829583
 41
1.3113342898134861
 42
50.0
 43
0.0
 44
0.0
 50
0.0
 51
0.0
 71
     0
 72
   100
 73
     1
 74
     0
 75
     0
 76
     0
 77
     0
 78
     0
  0
ENDTAB
  0
TABLE
  2
LTYPE
 70
     3
  0
LTYPE
  2
CONTINUOUS
 70
     0
  3
実線
 72
    65
 73
     0
 40
0.0
  0
LTYPE
  2
DASHDOT
 70
     0
  3
____ _ ____ _ ____ _ ____ _ ____ _ ____ _ ____
 72
    65
 73
     4
 40
5.5
 49
4.0
 49
-0.6
 49
0.3
 49
-0.6
  0
ENDTAB
  0
TABLE
  2
LAYER
 70
    12
  0
LAYER
  2
0
 70
     0
 62
     7
  6
CONTINUOUS
  0
LAYER
  2
DETAIL
 70
     0
 62
     5
  6
CONTINUOUS
  0
LAYER
  2
BASIS
 70
     0
 62
     6
  6
DASHDOT
  0
LAYER
  2
OUTLINE
 70
     0
 62
     3
  6
CONTINUOUS
  0
LAYER
  2
SIZE
 70
     0
 62
    30
  6
CONTINUOUS
  0
LAYER
  2
ARRANGE
 70
     0
 62
     1
  6
CONTINUOUS
  0
LAYER
  2
DEFPOINTS
 70
     0
 62
     7
  6
CONTINUOUS
  0
LAYER
  2
ETC
 70
     0
 62
    61
  6
CONTINUOUS
  0
LAYER
  2
FIX
 70
     0
 62
    11
  6
CONTINUOUS
  0
LAYER
  2
NOTE
 70
     0
 62
     4
  6
CONTINUOUS
  0
LAYER
  2
SERVICESPACE
 70
     0
 62
     2
  6
DASHDOT
  0
LAYER
  2
SYMBOLLINE
 70
     0
 62
    15
  6
CONTINUOUS
  0
ENDTAB
  0
TABLE
  2
STYLE
 70
     2
  0
STYLE
  2
STANDARD
 70
     0
 40
64.0
 41
0.9
 50
0.0
 71
     0
 42
64.0
  3
SIMPLEX.shx
  4
BIGFONT.shx
  0
STYLE
  2
ANNOTATIVE
 70
     0
 40
0.0
 41
1.0
 50
0.0
 71
     0
 42
0.2
  3
txt
  4

  0
ENDTAB
  0
TABLE
  2
VIEW
 70
     1
  0
VIEW
  2
ALL
 70
     0
 40
4282.6198079999986
 10
0.0
 20
41.309903999999989
 41
5940.0
 11
0.0
 21
0.0
 31
1.0
 12
0.0
 22
0.0
 32
0.0
 42
50.0
 43
0.0
 44
0.0
 50
0.0
 71
     0
  0
ENDTAB
  0
TABLE
  2
UCS
 70
     0
  0
ENDTAB
  0
TABLE
  2
APPID
 70
     5
  0
APPID
  2
ACAD
 70
     0
  0
APPID
  2
ACADANNOTATIVE
 70
     0
  0
APPID
  2
ACAD_MLEADERVER
 70
     0
  0
APPID
  2
AUTOCAD_POSTSCRIPT_FIGURE
 70
     0
  0
APPID
  2
ACAD_EXEMPT_FROM_CAD_STANDARDS
 70
     0
  0
ENDTAB
  0
TABLE
  2
DIMSTYLE
 70
     2
  0
DIMSTYLE
  2
STANDARD
 70
     0
  3

  4

  5

  6

  7

 40
1.0
 41
0.18
 42
0.0625
 43
0.38
 44
0.18
 45
0.0
 46
0.0
 47
0.0
 48
0.0
140
0.18
141
0.09
142
0.0
143
25.399999999999999
144
1.0
145
0.0
146
1.0
147
0.09
 71
     0
 72
     0
 73
     1
 74
     1
 75
     0
 76
     0
 77
     0
 78
     0
170
     0
171
     2
172
     0
173
     0
174
     0
175
     0
176
     7
177
     7
178
     7
  0
DIMSTYLE
  2
ANNOTATIVE
 70
     0
  3

  4

  5

  6

  7

 40
1.0
 41
0.18
 42
0.0625
 43
0.38
 44
0.18
 45
0.0
 46
0.0
 47
0.0
 48
0.0
140
0.18
141
0.09
142
0.0
143
25.399999999999999
144
1.0
145
0.0
146
1.0
147
0.09
 71
     0
 72
     0
 73
     1
 74
     1
 75
     0
 76
     0
 77
     0
 78
     0
170
     0
171
     2
172
     0
173
     0
174
     0
175
     0
176
     0
177
     0
178
     0
  0
ENDTAB
  0
ENDSEC
  0
SECTION
  2
BLOCKS
  0
BLOCK
  8
0
  2
$MODEL_SPACE
 70
     0
 10
0.0
 20
0.0
 30
0.0
  3
$MODEL_SPACE
  1

  0
ENDBLK
  5
76
  8
0
  0
BLOCK
 67
     1
  8
0
  2
$PAPER_SPACE
 70
     0
 10
0.0
 20
0.0
 30
0.0
  3
$PAPER_SPACE
  1

  0
ENDBLK
  5
72
 67
     1
  8
0
  0
BLOCK
  8
0
  2
DOT1
 70
     0
 10
0.0
 20
0.0
 30
0.0
  3
DOT1
  1

  0
CIRCLE
  5
8C
  8
SIZE
  6
CONTINUOUS
 62
     7
 10
0.0
 20
0.0
 30
0.0
 40
3.0
  0
ENDBLK
  5
8D
  8
0
  0
BLOCK
  8
0
  2
_ORIGIN
 70
     0
 10
0.0
 20
0.0
 30
0.0
  3
_ORIGIN
  1

  0
CIRCLE
  5
90
  8
0
  6
CONTINUOUS
 62
     7
 10
0.0
 20
0.0
 30
0.0
 40
0.5
  0
LINE
  5
91
  8
0
  6
CONTINUOUS
 62
     7
 10
0.0
 20
0.0
 30
0.0
 11
-1.0
 21
0.0
 31
0.0
  0
ENDBLK
  5
92
  8
0
  0
ENDSEC
  0
SECTION
  2
ENTITIES
  0
LINE
  5
95
  8
BASIS
  6
DASHDOT
 62
     6
 10
0.0
 20
200.40224599999999
 30
0.0
 11
0.0
 21
-232.92935700000001
 31
0.0
  0
LINE
  5
96
  8
BASIS
  6
DASHDOT
 62
     6
 10
227.78438
 20
0.0
 30
0.0
 11
-190.029729
 21
0.0
 31
0.0
  0
CIRCLE
  5
97
  8
ARRANGE
  6
CONTINUOUS
 62
     1
 39
50.0
 10
0.0
 20
0.0
 30
0.0
 40
40.0
  0
POINT
  5
98
  8
ARRANGE
  6
CONTINUOUS
 62
     1
 10
0.0
 20
0.0
 30
0.0
 39
50.0
  0
LINE
  5
99
  8
DETAIL
  6
CONTINUOUS
 62
     5
 10
120.0
 20
120.0
 30
0.0
 11
-120.0
 21
120.0
 31
0.0
  0
LINE
  5
9A
  8
DETAIL
  6
CONTINUOUS
 62
     5
 10
120.0
 20
-120.0
 30
0.0
 11
-120.0
 21
-120.0
 31
0.0
  0
LINE
  5
9B
  8
DETAIL
  6
CONTINUOUS
 62
     5
 10
-120.0
 20
120.0
 30
0.0
 11
-120.0
 21
-120.0
 31
0.0
  0
LINE
  5
9C
  8
DETAIL
  6
CONTINUOUS
 62
     5
 10
120.0
 20
120.0
 30
0.0
 11
120.0
 21
-120.0
 31
0.0
  0
LINE
  5
9D
  8
DETAIL
  6
CONTINUOUS
 62
     5
 10
120.0
 20
100.0
 30
0.0
 11
-120.0
 21
100.0
 31
0.0
  0
LINE
  5
9E
  8
DETAIL
  6
CONTINUOUS
 62
     5
 10
120.0
 20
26.699999999999999
 30
0.0
 11
-120.0
 21
26.699999999999999
 31
0.0
  0
LINE
  5
9F
  8
DETAIL
  6
CONTINUOUS
 62
     5
 10
120.0
 20
-46.600000000000001
 30
0.0
 11
-120.0
 21
-46.600000000000001
 31
0.0
  0
CIRCLE
  5
A0
  8
FIX
  6
CONTINUOUS
 62
    11
 39
50.0
 10
-60.0
 20
132.5
 30
0.0
 40
2.5
  0
CIRCLE
  5
A1
  8
DETAIL
  6
CONTINUOUS
 62
     5
 10
-60.0
 20
132.5
 30
0.0
 40
2.5
  0
LINE
  5
A2
  8
NOTE
  6
CONTINUOUS
 62
     4
 10
-60.0
 20
152.5
 30
0.0
 11
-60.0
 21
112.5
 31
0.0
  0
LINE
  5
A3
  8
NOTE
  6
CONTINUOUS
 62
     4
 10
-80.0
 20
132.5
 30
0.0
 11
-40.0
 21
132.5
 31
0.0
  0
CIRCLE
  5
A4
  8
FIX
  6
CONTINUOUS
 62
    11
 39
50.0
 10
60.0
 20
132.5
 30
0.0
 40
2.5
  0
LINE
  5
A5
  8
NOTE
  6
CONTINUOUS
 62
     4
 10
60.0
 20
152.5
 30
0.0
 11
60.0
 21
112.5
 31
0.0
  0
LINE
  5
A6
  8
NOTE
  6
CONTINUOUS
 62
     4
 10
80.0
 20
132.5
 30
0.0
 11
40.0
 21
132.5
 31
0.0
  0
CIRCLE
  5
A7
  8
DETAIL
  6
CONTINUOUS
 62
     5
 10
60.0
 20
132.5
 30
0.0
 40
2.5
  0
CIRCLE
  5
A8
  8
FIX
  6
CONTINUOUS
 62
    11
 39
50.0
 10
-60.0
 20
-132.5
 30
0.0
 40
2.5
  0
LINE
  5
A9
  8
NOTE
  6
CONTINUOUS
 62
     4
 10
-60.0
 20
-152.5
 30
0.0
 11
-60.0
 21
-112.5
 31
0.0
  0
LINE
  5
AA
  8
NOTE
  6
CONTINUOUS
 62
     4
 10
-80.0
 20
-132.5
 30
0.0
 11
-40.0
 21
-132.5
 31
0.0
  0
CIRCLE
  5
AB
  8
DETAIL
  6
CONTINUOUS
 62
     5
 10
-60.0
 20
-132.5
 30
0.0
 40
2.5
  0
CIRCLE
  5
AC
  8
FIX
  6
CONTINUOUS
 62
    11
 39
50.0
 10
60.0
 20
-132.5
 30
0.0
 40
2.5
  0
CIRCLE
  5
AD
  8
DETAIL
  6
CONTINUOUS
 62
     5
 10
60.0
 20
-132.5
 30
0.0
 40
2.5
  0
LINE
  5
AE
  8
NOTE
  6
CONTINUOUS
 62
     4
 10
60.0
 20
-152.5
 30
0.0
 11
60.0
 21
-112.5
 31
0.0
  0
LINE
  5
AF
  8
NOTE
  6
CONTINUOUS
 62
     4
 10
80.0
 20
-132.5
 30
0.0
 11
40.0
 21
-132.5
 31
0.0
  0
LINE
  5
B0
  8
SIZE
  6
CONTINUOUS
 62
    30
 10
60.0
 20
170.5
 30
0.0
 11
60.0
 21
284.95992100000001
 31
0.0
  0
LINE
  5
B1
  8
SIZE
  6
CONTINUOUS
 62
    30
 10
-60.0
 20
170.5
 30
0.0
 11
-60.0
 21
284.95992100000001
 31
0.0
  0
LINE
  5
B2
  8
SIZE
  6
CONTINUOUS
 62
    30
 10
72.0
 20
264.95992100000001
 30
0.0
 11
84.0
 21
264.95992100000001
 31
0.0
  0
LINE
  5
B3
  8
SIZE
  6
CONTINUOUS
 62
    30
 10
-72.0
 20
264.95992100000001
 30
0.0
 11
-84.0
 21
264.95992100000001
 31
0.0
  0
LINE
  5
B4
  8
SIZE
  6
CONTINUOUS
 62
    30
 10
60.0
 20
264.95992100000001
 30
0.0
 11
-60.0
 21
264.95992100000001
 31
0.0
  0
CIRCLE
  5
B5
  8
SIZE
  6
CONTINUOUS
 62
    30
 10
60.0
 20
264.95992100000001
 30
0.0
 40
6.0
  0
LINE
  5
B6
  8
SIZE
  6
CONTINUOUS
 62
    30
 10
60.0
 20
264.95992100000001
 30
0.0
 11
72.0
 21
264.95992100000001
 31
0.0
  0
CIRCLE
  5
B7
  8
SIZE
  6
CONTINUOUS
 62
    30
 10
-60.0
 20
264.95992100000001
 30
0.0
 40
6.0
  0
LINE
  5
B8
  8
SIZE
  6
CONTINUOUS
 62
    30
 10
-60.0
 20
264.95992100000001
 30
0.0
 11
-72.0
 21
264.95992100000001
 31
0.0
  0
TEXT
  5
B9
  8
SIZE
  6
CONTINUOUS
 62
    30
 10
-68.571428571428569
 20
289.95992100000001
 30
0.0
 40
64.0
  1
120
 41
0.9
 72
     1
 11
0.0
 21
289.95992100000001
 31
0.0
  0
POINT
  5
BA
  8
DEFPOINTS
  6
CONTINUOUS
 62
    30
 10
60.0
 20
150.5
 30
0.0
  0
POINT
  5
BB
  8
DEFPOINTS
  6
CONTINUOUS
 62
    30
 10
-60.0
 20
150.5
 30
0.0
  0
POINT
  5
BC
  8
DEFPOINTS
  6
CONTINUOUS
 62
    30
 10
-60.0
 20
264.95992100000001
 30
0.0
  0
LINE
  5
BD
  8
SIZE
  6
CONTINUOUS
 62
    30
 10
140.0
 20
120.0
 30
0.0
 11
430.60487799999999
 21
120.0
 31
0.0
  0
LINE
  5
BE
  8
SIZE
  6
CONTINUOUS
 62
    30
 10
140.0
 20
-120.0
 30
0.0
 11
430.60487799999999
 21
-120.0
 31
0.0
  0
LINE
  5
BF
  8
SIZE
  6
CONTINUOUS
 62
    30
 10
410.60487799999999
 20
132.0
 30
0.0
 11
410.60487799999999
 21
144.0
 31
0.0
  0
LINE
  5
C0
  8
SIZE
  6
CONTINUOUS
 62
    30
 10
410.60487799999999
 20
-132.0
 30
0.0
 11
410.60487799999999
 21
-144.0
 31
0.0
  0
LINE
  5
C1
  8
SIZE
  6
CONTINUOUS
 62
    30
 10
410.60487799999999
 20
120.0
 30
0.0
 11
410.60487799999999
 21
-120.0
 31
0.0
  0
CIRCLE
  5
C2
  8
SIZE
  6
CONTINUOUS
 62
    30
 10
410.60487799999999
 20
120.0
 30
0.0
 40
6.0
  0
LINE
  5
C3
  8
SIZE
  6
CONTINUOUS
 62
    30
 10
410.60487799999999
 20
120.0
 30
0.0
 11
410.60487799999999
 21
132.0
 31
0.0
  0
CIRCLE
  5
C4
  8
SIZE
  6
CONTINUOUS
 62
    30
 10
410.60487799999999
 20
-120.0
 30
0.0
 40
6.0
  0
LINE
  5
C5
  8
SIZE
  6
CONTINUOUS
 62
    30
 10
410.60487799999999
 20
-120.0
 30
0.0
 11
410.60487799999999
 21
-132.0
 31
0.0
  0
TEXT
  5
C6
  8
SIZE
  6
CONTINUOUS
 62
    30
 10
385.60487799999999
 20
-110.5371428571428
 30
0.0
 40
64.0
  1
□240
 50
90.0
 41
0.9
 72
     1
 11
385.60487799999999
 21
0.0
 31
0.0
  0
POINT
  5
C7
  8
DEFPOINTS
  6
CONTINUOUS
 62
    30
 10
120.0
 20
120.0
 30
0.0
  0
POINT
  5
C8
  8
DEFPOINTS
  6
CONTINUOUS
 62
    30
 10
120.0
 20
-120.0
 30
0.0
  0
POINT
  5
C9
  8
DEFPOINTS
  6
CONTINUOUS
 62
    30
 10
410.60487799999999
 20
-120.0
 30
0.0
  0
LINE
  5
CA
  8
NOTE
  6
CONTINUOUS
 62
     4
 39
50.0
 10
829.86751600000002
 20
216.180443
 30
0.0
 11
203.33979099999999
 21
216.180443
 31
0.0
  0
TEXT
  5
CB
  8
NOTE
  6
CONTINUOUS
 62
     4
 10
232.25244900000001
 20
240.12415999999999
 30
0.0
 40
64.0
  1
4×φ5本体取付穴
 41
0.9
  0
LINE
  5
CC
  8
NOTE
  6
CONTINUOUS
 62
     4
 10
203.33979099999999
 20
216.180443
 30
0.0
 11
60.0
 21
132.5
 31
0.0
  0
LINE
  5
CD
  8
NOTE
  6
CONTINUOUS
 62
     4
 10
98.590265999999986
 20
143.025747
 30
0.0
 11
60.0
 21
132.5
 31
0.0
  0
LINE
  5
CE
  8
NOTE
  6
CONTINUOUS
 62
     4
 10
60.0
 20
132.5
 30
0.0
 11
88.157277000000008
 21
160.910698
 31
0.0
  0
CIRCLE
  5
CF
  8
FIX
  6
CONTINUOUS
 62
    11
 39
50.0
 10
135.0
 20
157.0
 30
0.0
 40
3.0
  0
CIRCLE
  5
D0
  8
FIX
  6
CONTINUOUS
 62
    11
 39
50.0
 10
135.0
 20
-169.0
 30
0.0
 40
3.0
  0
CIRCLE
  5
D1
  8
FIX
  6
CONTINUOUS
 62
    11
 39
50.0
 10
-135.0
 20
-169.0
 30
0.0
 40
3.0
  0
CIRCLE
  5
D2
  8
FIX
  6
CONTINUOUS
 62
    11
 39
50.0
 10
-135.0
 20
157.0
 30
0.0
 40
3.0
  0
LINE
  5
D3
  8
NOTE
  6
CONTINUOUS
 62
     4
 10
-135.0
 20
137.0
 30
0.0
 11
-135.0
 21
177.0
 31
0.0
  0
LINE
  5
D4
  8
NOTE
  6
CONTINUOUS
 62
     4
 10
-155.0
 20
157.0
 30
0.0
 11
-115.0
 21
157.0
 31
0.0
  0
LINE
  5
D5
  8
NOTE
  6
CONTINUOUS
 62
     4
 10
135.0
 20
137.0
 30
0.0
 11
135.0
 21
177.0
 31
0.0
  0
LINE
  5
D6
  8
NOTE
  6
CONTINUOUS
 62
     4
 10
115.0
 20
157.0
 30
0.0
 11
155.0
 21
157.0
 31
0.0
  0
LINE
  5
D7
  8
NOTE
  6
CONTINUOUS
 62
     4
 10
135.0
 20
-189.0
 30
0.0
 11
135.0
 21
-149.0
 31
0.0
  0
LINE
  5
D8
  8
NOTE
  6
CONTINUOUS
 62
     4
 10
115.0
 20
-169.0
 30
0.0
 11
155.0
 21
-169.0
 31
0.0
  0
LINE
  5
D9
  8
NOTE
  6
CONTINUOUS
 62
     4
 10
-135.0
 20
-189.0
 30
0.0
 11
-135.0
 21
-149.0
 31
0.0
  0
LINE
  5
DA
  8
NOTE
  6
CONTINUOUS
 62
     4
 10
-155.0
 20
-169.0
 30
0.0
 11
-115.0
 21
-169.0
 31
0.0
  0
CIRCLE
  5
DB
  8
FIX
  6
CONTINUOUS
 62
    11
 39
50.0
 10
135.0
 20
135.0
 30
0.0
 40
3.0
  0
CIRCLE
  5
DC
  8
FIX
  6
CONTINUOUS
 62
    11
 39
50.0
 10
135.0
 20
-135.0
 30
0.0
 40
3.0
  0
CIRCLE
  5
DD
  8
FIX
  6
CONTINUOUS
 62
    11
 39
50.0
 10
-135.0
 20
-135.0
 30
0.0
 40
3.0
  0
CIRCLE
  5
DE
  8
FIX
  6
CONTINUOUS
 62
    11
 39
50.0
 10
-135.0
 20
135.0
 30
0.0
 40
3.0
  0
LINE
  5
DF
  8
NOTE
  6
CONTINUOUS
 62
     4
 10
-135.0
 20
115.0
 30
0.0
 11
-135.0
 21
155.0
 31
0.0
  0
LINE
  5
E0
  8
NOTE
  6
CONTINUOUS
 62
     4
 10
-155.0
 20
135.0
 30
0.0
 11
-115.0
 21
135.0
 31
0.0
  0
LINE
  5
E1
  8
NOTE
  6
CONTINUOUS
 62
     4
 10
135.0
 20
115.0
 30
0.0
 11
135.0
 21
155.0
 31
0.0
  0
LINE
  5
E2
  8
NOTE
  6
CONTINUOUS
 62
     4
 10
115.0
 20
135.0
 30
0.0
 11
155.0
 21
135.0
 31
0.0
  0
LINE
  5
E3
  8
NOTE
  6
CONTINUOUS
 62
     4
 10
135.0
 20
-155.0
 30
0.0
 11
135.0
 21
-115.0
 31
0.0
  0
LINE
  5
E4
  8
NOTE
  6
CONTINUOUS
 62
     4
 10
115.0
 20
-135.0
 30
0.0
 11
155.0
 21
-135.0
 31
0.0
  0
LINE
  5
E5
  8
NOTE
  6
CONTINUOUS
 62
     4
 10
-135.0
 20
-155.0
 30
0.0
 11
-135.0
 21
-115.0
 31
0.0
  0
LINE
  5
E6
  8
NOTE
  6
CONTINUOUS
 62
     4
 10
-155.0
 20
-135.0
 30
0.0
 11
-115.0
 21
-135.0
 31
0.0
  0
LINE
  5
E7
  8
DETAIL
  6
CONTINUOUS
 62
     5
 39
50.0
 10
-150.0
 20
-180.0
 30
0.0
 11
150.0
 21
-180.0
 31
0.0
  0
LINE
  5
E8
  8
DETAIL
  6
CONTINUOUS
 62
     5
 39
50.0
 10
160.0
 20
-170.0
 30
0.0
 11
160.0
 21
170.0
 31
0.0
  0
LINE
  5
E9
  8
DETAIL
  6
CONTINUOUS
 62
     5
 39
50.0
 10
150.0
 20
180.0
 30
0.0
 11
-150.0
 21
180.0
 31
0.0
  0
LINE
  5
EA
  8
DETAIL
  6
CONTINUOUS
 62
     5
 39
50.0
 10
-160.0
 20
170.0
 30
0.0
 11
-160.0
 21
-170.0
 31
0.0
  0
ARC
  5
EB
  8
DETAIL
  6
CONTINUOUS
 62
     5
 39
50.0
 10
-150.0
 20
170.0
 30
0.0
 40
10.0
 50
90.0
 51
180.0
  0
ARC
  5
EC
  8
DETAIL
  6
CONTINUOUS
 62
     5
 39
50.0
 10
-150.0
 20
-170.0
 30
0.0
 40
10.0
 50
180.0
 51
270.0
  0
ARC
  5
ED
  8
DETAIL
  6
CONTINUOUS
 62
     5
 39
50.0
 10
150.0
 20
-170.0
 30
0.0
 40
10.0
 50
270.0
 51
0.0
  0
ARC
  5
EE
  8
DETAIL
  6
CONTINUOUS
 62
     5
 39
50.0
 10
150.0
 20
170.0
 30
0.0
 40
10.0
 50
0.0
 51
90.0
  0
ARC
  5
EF
  8
OUTLINE
  6
CONTINUOUS
 62
     3
 39
50.0
 10
150.0
 20
170.0
 30
0.0
 40
10.0
 50
0.0
 51
90.0
  0
LINE
  5
F0
  8
OUTLINE
  6
CONTINUOUS
 62
     3
 39
50.0
 10
160.0
 20
-170.0
 30
0.0
 11
160.0
 21
170.0
 31
0.0
  0
LINE
  5
F1
  8
OUTLINE
  6
CONTINUOUS
 62
     3
 39
50.0
 10
150.0
 20
180.0
 30
0.0
 11
-150.0
 21
180.0
 31
0.0
  0
ARC
  5
F2
  8
OUTLINE
  6
CONTINUOUS
 62
     3
 39
50.0
 10
150.0
 20
-170.0
 30
0.0
 40
10.0
 50
270.0
 51
0.0
  0
LINE
  5
F3
  8
OUTLINE
  6
CONTINUOUS
 62
     3
 39
50.0
 10
-150.0
 20
-180.0
 30
0.0
 11
150.0
 21
-180.0
 31
0.0
  0
ARC
  5
F4
  8
OUTLINE
  6
CONTINUOUS
 62
     3
 39
50.0
 10
-150.0
 20
-170.0
 30
0.0
 40
10.0
 50
180.0
 51
270.0
  0
LINE
  5
F5
  8
OUTLINE
  6
CONTINUOUS
 62
     3
 39
50.0
 10
-160.0
 20
170.0
 30
0.0
 11
-160.0
 21
-170.0
 31
0.0
  0
ARC
  5
F6
  8
OUTLINE
  6
CONTINUOUS
 62
     3
 39
50.0
 10
-150.0
 20
170.0
 30
0.0
 40
10.0
 50
90.0
 51
180.0
  0
LINE
  5
F7
  8
SIZE
  6
CONTINUOUS
 62
    30
 10
-135.0
 20
183.0
 30
0.0
 11
-135.0
 21
421.22097100000002
 31
0.0
  0
LINE
  5
F8
  8
SIZE
  6
CONTINUOUS
 62
    30
 10
135.0
 20
183.0
 30
0.0
 11
135.0
 21
421.22097100000002
 31
0.0
  0
LINE
  5
F9
  8
SIZE
  6
CONTINUOUS
 62
    30
 10
-123.0
 20
401.22097100000002
 30
0.0
 11
123.0
 21
401.22097100000002
 31
0.0
  0
CIRCLE
  5
FA
  8
SIZE
  6
CONTINUOUS
 62
    30
 10
-135.0
 20
401.22097100000002
 30
0.0
 40
6.0
  0
LINE
  5
FB
  8
SIZE
  6
CONTINUOUS
 62
    30
 10
-135.0
 20
401.22097100000002
 30
0.0
 11
-123.0
 21
401.22097100000002
 31
0.0
  0
CIRCLE
  5
FC
  8
SIZE
  6
CONTINUOUS
 62
    30
 10
135.0
 20
401.22097100000002
 30
0.0
 40
6.0
  0
LINE
  5
FD
  8
SIZE
  6
CONTINUOUS
 62
    30
 10
135.0
 20
401.22097100000002
 30
0.0
 11
123.0
 21
401.22097100000002
 31
0.0
  0
TEXT
  5
FE
  8
SIZE
  6
CONTINUOUS
 62
    30
 10
-74.05714285714285
 20
426.22097100000002
 30
0.0
 40
64.0
  1
270
 41
0.9
 72
     1
 11
0.0
 21
426.22097100000002
 31
0.0
  0
POINT
  5
FF
  8
DEFPOINTS
  6
CONTINUOUS
 62
    30
 10
-135.0
 20
163.0
 30
0.0
  0
POINT
  5
100
  8
DEFPOINTS
  6
CONTINUOUS
 62
    30
 10
135.0
 20
163.0
 30
0.0
  0
POINT
  5
101
  8
DEFPOINTS
  6
CONTINUOUS
 62
    30
 10
135.0
 20
401.22097100000002
 30
0.0
  0
LINE
  5
102
  8
SIZE
  6
CONTINUOUS
 62
    30
 10
-160.0
 20
182.06545499999999
 30
0.0
 11
-160.0
 21
565.79743499999995
 31
0.0
  0
LINE
  5
103
  8
SIZE
  6
CONTINUOUS
 62
    30
 10
160.0
 20
182.06545499999999
 30
0.0
 11
160.0
 21
565.79743499999995
 31
0.0
  0
LINE
  5
104
  8
SIZE
  6
CONTINUOUS
 62
    30
 10
-148.0
 20
545.79743499999995
 30
0.0
 11
148.0
 21
545.79743499999995
 31
0.0
  0
CIRCLE
  5
105
  8
SIZE
  6
CONTINUOUS
 62
    30
 10
-160.0
 20
545.79743499999995
 30
0.0
 40
6.0
  0
LINE
  5
106
  8
SIZE
  6
CONTINUOUS
 62
    30
 10
-160.0
 20
545.79743499999995
 30
0.0
 11
-148.0
 21
545.79743499999995
 31
0.0
  0
CIRCLE
  5
107
  8
SIZE
  6
CONTINUOUS
 62
    30
 10
160.0
 20
545.79743499999995
 30
0.0
 40
6.0
  0
LINE
  5
108
  8
SIZE
  6
CONTINUOUS
 62
    30
 10
160.0
 20
545.79743499999995
 30
0.0
 11
148.0
 21
545.79743499999995
 31
0.0
  0
TEXT
  5
109
  8
SIZE
  6
CONTINUOUS
 62
    30
 10
-74.05714285714285
 20
570.79743499999995
 30
0.0
 40
64.0
  1
320
 41
0.9
 72
     1
 11
0.0
 21
570.79743499999995
 31
0.0
  0
POINT
  5
10A
  8
DEFPOINTS
  6
CONTINUOUS
 62
    30
 10
-160.0
 20
162.06545499999999
 30
0.0
  0
POINT
  5
10B
  8
DEFPOINTS
  6
CONTINUOUS
 62
    30
 10
160.0
 20
162.06545499999999
 30
0.0
  0
POINT
  5
10C
  8
DEFPOINTS
  6
CONTINUOUS
 62
    30
 10
160.0
 20
545.79743499999995
 30
0.0
  0
LINE
  5
10D
  8
SIZE
  6
CONTINUOUS
 62
    30
 10
-155.0
 20
135.0
 30
0.0
 11
-357.49224400000003
 21
135.0
 31
0.0
  0
LINE
  5
10E
  8
SIZE
  6
CONTINUOUS
 62
    30
 10
-155.0
 20
-135.0
 30
0.0
 11
-357.49224400000003
 21
-135.0
 31
0.0
  0
LINE
  5
10F
  8
SIZE
  6
CONTINUOUS
 62
    30
 10
-337.49224400000003
 20
123.0
 30
0.0
 11
-337.49224400000003
 21
-123.0
 31
0.0
  0
CIRCLE
  5
110
  8
SIZE
  6
CONTINUOUS
 62
    30
 10
-337.49224400000003
 20
135.0
 30
0.0
 40
6.0
  0
LINE
  5
111
  8
SIZE
  6
CONTINUOUS
 62
    30
 10
-337.49224400000003
 20
135.0
 30
0.0
 11
-337.49224400000003
 21
123.0
 31
0.0
  0
CIRCLE
  5
112
  8
SIZE
  6
CONTINUOUS
 62
    30
 10
-337.49224400000003
 20
-135.0
 30
0.0
 40
6.0
  0
LINE
  5
113
  8
SIZE
  6
CONTINUOUS
 62
    30
 10
-337.49224400000003
 20
-135.0
 30
0.0
 11
-337.49224400000003
 21
-123.0
 31
0.0
  0
TEXT
  5
114
  8
SIZE
  6
CONTINUOUS
 62
    30
 10
-362.49224400000003
 20
-74.05714285714285
 30
0.0
 40
64.0
  1
270
 50
90.0
 41
0.9
 72
     1
 11
-362.49224400000003
 21
0.0
 31
0.0
  0
POINT
  5
115
  8
DEFPOINTS
  6
CONTINUOUS
 62
    30
 10
-135.0
 20
135.0
 30
0.0
  0
POINT
  5
116
  8
DEFPOINTS
  6
CONTINUOUS
 62
    30
 10
-135.0
 20
-135.0
 30
0.0
  0
POINT
  5
117
  8
DEFPOINTS
  6
CONTINUOUS
 62
    30
 10
-337.49224400000003
 20
-135.0
 30
0.0
  0
LINE
  5
118
  8
SIZE
  6
CONTINUOUS
 62
    30
 10
-155.0
 20
157.0
 30
0.0
 11
-480.12939999999992
 21
157.0
 31
0.0
  0
LINE
  5
119
  8
SIZE
  6
CONTINUOUS
 62
    30
 10
-155.0
 20
-169.0
 30
0.0
 11
-480.12939999999992
 21
-169.0
 31
0.0
  0
LINE
  5
11A
  8
SIZE
  6
CONTINUOUS
 62
    30
 10
-460.12939999999998
 20
145.0
 30
0.0
 11
-460.12939999999998
 21
-157.0
 31
0.0
  0
CIRCLE
  5
11B
  8
SIZE
  6
CONTINUOUS
 62
    30
 10
-460.12939999999998
 20
157.0
 30
0.0
 40
6.0
  0
LINE
  5
11C
  8
SIZE
  6
CONTINUOUS
 62
    30
 10
-460.12939999999998
 20
157.0
 30
0.0
 11
-460.12939999999998
 21
145.0
 31
0.0
  0
CIRCLE
  5
11D
  8
SIZE
  6
CONTINUOUS
 62
    30
 10
-460.12939999999998
 20
-169.0
 30
0.0
 40
6.0
  0
LINE
  5
11E
  8
SIZE
  6
CONTINUOUS
 62
    30
 10
-460.12939999999998
 20
-169.0
 30
0.0
 11
-460.12939999999998
 21
-157.0
 31
0.0
  0
TEXT
  5
11F
  8
SIZE
  6
CONTINUOUS
 62
    30
 10
-485.12939999999998
 20
-78.685714285714283
 30
0.0
 40
64.0
  1
326
 50
90.0
 41
0.9
 72
     1
 11
-485.12939999999998
 21
-6.0
 31
0.0
  0
POINT
  5
120
  8
DEFPOINTS
  6
CONTINUOUS
 62
    30
 10
-135.0
 20
157.0
 30
0.0
  0
POINT
  5
121
  8
DEFPOINTS
  6
CONTINUOUS
 62
    30
 10
-135.0
 20
-169.0
 30
0.0
  0
POINT
  5
122
  8
DEFPOINTS
  6
CONTINUOUS
 62
    30
 10
-460.12939999999998
 20
-169.0
 30
0.0
  0
LINE
  5
123
  8
NOTE
  6
CONTINUOUS
 62
     4
 10
-157.09042600000001
 20
190.34685999999999
 30
0.0
 11
-135.0
 21
157.0
 31
0.0
  0
LINE
  5
124
  8
NOTE
  6
CONTINUOUS
 62
     4
 10
-135.0
 20
157.0
 30
0.0
 11
-137.45743999999999
 21
196.924441
 31
0.0
  0
LINE
  5
125
  8
NOTE
  6
CONTINUOUS
 62
     4
 10
-164.81547900000001
 20
161.66528099999999
 30
0.0
 11
-135.0
 21
135.0
 31
0.0
  0
LINE
  5
126
  8
NOTE
  6
CONTINUOUS
 62
     4
 10
-135.0
 20
135.0
 30
0.0
 11
-147.4883209999999
 21
173.000551
 31
0.0
  0
TEXT
  5
127
  8
NOTE
  6
CONTINUOUS
 62
     4
 10
-944.78376700000001
 20
482.140016
 30
0.0
 40
64.0
  1
4×φ6 パネル固定用穴
 41
0.9
  0
TEXT
  5
128
  8
NOTE
  6
CONTINUOUS
 62
     4
 10
-1002.756005
 20
357.34000099999997
 30
0.0
 40
64.0
  1
4×φ6 フード固定用穴
 41
0.9
  0
LINE
  5
129
  8
NOTE
  6
CONTINUOUS
 62
     4
 39
50.0
 10
-947.75670399999979
 20
458.36858499999988
 30
0.0
 11
-231.27934200000001
 21
458.36858499999988
 31
0.0
  0
LINE
  5
12A
  8
NOTE
  6
CONTINUOUS
 62
     4
 39
50.0
 10
-231.27934200000001
 20
452.36858499999988
 30
0.0
 11
-135.0
 21
157.0
 31
0.0
  0
LINE
  5
12B
  8
NOTE
  6
CONTINUOUS
 62
     4
 39
50.0
 10
-1008.086913
 20
322.66660000000002
 30
0.0
 11
-268.43887799999999
 21
322.66660000000002
 31
0.0
  0
LINE
  5
12C
  8
NOTE
  6
CONTINUOUS
 62
     4
 39
50.0
 10
-268.43887799999999
 20
322.66660000000002
 30
0.0
 11
-135.0
 21
135.0
 31
0.0
  0
LINE
  5
12D
  8
SIZE
  6
CONTINUOUS
 62
    30
 10
-145.67882900000001
 20
180.0
 30
0.0
 11
-612.98057099999994
 21
180.0
 31
0.0
  0
LINE
  5
12E
  8
SIZE
  6
CONTINUOUS
 62
    30
 10
-145.67882900000001
 20
-180.0
 30
0.0
 11
-612.98057099999994
 21
-180.0
 31
0.0
  0
LINE
  5
12F
  8
SIZE
  6
CONTINUOUS
 62
    30
 10
-592.98057099999994
 20
168.0
 30
0.0
 11
-592.98057099999994
 21
-168.0
 31
0.0
  0
CIRCLE
  5
130
  8
SIZE
  6
CONTINUOUS
 62
    30
 10
-592.98057099999994
 20
180.0
 30
0.0
 40
6.0
  0
LINE
  5
131
  8
SIZE
  6
CONTINUOUS
 62
    30
 10
-592.98057099999994
 20
180.0
 30
0.0
 11
-592.98057099999994
 21
168.0
 31
0.0
  0
CIRCLE
  5
132
  8
SIZE
  6
CONTINUOUS
 62
    30
 10
-592.98057099999994
 20
-180.0
 30
0.0
 40
6.0
  0
LINE
  5
133
  8
SIZE
  6
CONTINUOUS
 62
    30
 10
-592.98057099999994
 20
-180.0
 30
0.0
 11
-592.98057099999994
 21
-168.0
 31
0.0
  0
TEXT
  5
134
  8
SIZE
  6
CONTINUOUS
 62
    30
 10
-617.98057099999994
 20
-74.05714285714285
 30
0.0
 40
64.0
  1
360
 50
90.0
 41
0.9
 72
     1
 11
-617.98057099999994
 21
0.0
 31
0.0
  0
POINT
  5
135
  8
DEFPOINTS
  6
CONTINUOUS
 62
    30
 10
-125.67882899999999
 20
180.0
 30
0.0
  0
POINT
  5
136
  8
DEFPOINTS
  6
CONTINUOUS
 62
    30
 10
-125.67882899999999
 20
-180.0
 30
0.0
  0
POINT
  5
137
  8
DEFPOINTS
  6
CONTINUOUS
 62
    30
 10
-592.98057099999994
 20
-180.0
 30
0.0
  0
LINE
  5
138
  8
SIZE
  6
CONTINUOUS
 62
    30
 10
-165.67882900000001
 20
180.0
 30
0.0
 11
-480.12939999999992
 21
180.0
 31
0.0
  0
LINE
  5
139
  8
SIZE
  6
CONTINUOUS
 62
    30
 10
-175.0
 20
157.0
 30
0.0
 11
-480.12939999999992
 21
157.0
 31
0.0
  0
LINE
  5
13A
  8
SIZE
  6
CONTINUOUS
 62
    30
 10
-460.12939999999998
 20
192.0
 30
0.0
 11
-460.12939999999998
 21
204.0
 31
0.0
  0
LINE
  5
13B
  8
SIZE
  6
CONTINUOUS
 62
    30
 10
-460.12939999999998
 20
145.0
 30
0.0
 11
-460.12939999999998
 21
133.0
 31
0.0
  0
TEXT
  5
13C
  8
SIZE
  6
CONTINUOUS
 62
    30
 10
-486.95965699999999
 20
201.70404657142859
 30
0.0
 40
64.0
  1
23
 50
90.0
 41
0.9
 72
     1
 11
-486.95965699999999
 21
248.332618
 31
0.0
  0
LINE
  5
13D
  8
SIZE
  6
CONTINUOUS
 62
    30
 10
-460.12939999999998
 20
180.0
 30
0.0
 11
-460.12939999999998
 21
157.0
 31
0.0
  0
LINE
  5
13E
  8
SIZE
  6
CONTINUOUS
 62
    30
 10
-460.12939999999998
 20
180.0
 30
0.0
 11
-460.12939999999998
 21
157.0
 31
0.0
  0
CIRCLE
  5
13F
  8
SIZE
  6
CONTINUOUS
 62
    30
 10
-460.12939999999998
 20
180.0
 30
0.0
 40
6.0
  0
LINE
  5
140
  8
SIZE
  6
CONTINUOUS
 62
    30
 10
-460.12939999999998
 20
180.0
 30
0.0
 11
-460.12939999999998
 21
192.0
 31
0.0
  0
CIRCLE
  5
141
  8
SIZE
  6
CONTINUOUS
 62
    30
 10
-460.12939999999998
 20
157.0
 30
0.0
 40
6.0
  0
LINE
  5
142
  8
SIZE
  6
CONTINUOUS
 62
    30
 10
-460.12939999999998
 20
157.0
 30
0.0
 11
-460.12939999999998
 21
145.0
 31
0.0
  0
POINT
  5
143
  8
DEFPOINTS
  6
CONTINUOUS
 62
    30
 10
-145.67882900000001
 20
180.0
 30
0.0
  0
POINT
  5
144
  8
DEFPOINTS
  6
CONTINUOUS
 62
    30
 10
-155.0
 20
157.0
 30
0.0
  0
POINT
  5
145
  8
DEFPOINTS
  6
CONTINUOUS
 62
    30
 10
-460.12939999999998
 20
157.0
 30
0.0
  0
LINE
  5
146
  8
SIZE
  6
CONTINUOUS
 62
    30
 39
50.0
 10
-460.12939999999998
 20
192.0
 30
0.0
 11
-460.12939999999998
 21
295.822878
 31
0.0
  0
LINE
  5
147
  8
SIZE
  6
CONTINUOUS
 62
    30
 10
-80.0
 20
132.5
 30
0.0
 11
-241.777064
 21
132.5
 31
0.0
  0
LINE
  5
148
  8
SIZE
  6
CONTINUOUS
 62
    30
 10
-80.0
 20
-132.5
 30
0.0
 11
-241.777064
 21
-132.5
 31
0.0
  0
LINE
  5
149
  8
SIZE
  6
CONTINUOUS
 62
    30
 10
-221.777064
 20
120.5
 30
0.0
 11
-221.777064
 21
-120.5
 31
0.0
  0
CIRCLE
  5
14A
  8
SIZE
  6
CONTINUOUS
 62
    30
 10
-221.777064
 20
132.5
 30
0.0
 40
6.0
  0
LINE
  5
14B
  8
SIZE
  6
CONTINUOUS
 62
    30
 10
-221.777064
 20
132.5
 30
0.0
 11
-221.777064
 21
120.5
 31
0.0
  0
CIRCLE
  5
14C
  8
SIZE
  6
CONTINUOUS
 62
    30
 10
-221.777064
 20
-132.5
 30
0.0
 40
6.0
  0
LINE
  5
14D
  8
SIZE
  6
CONTINUOUS
 62
    30
 10
-221.777064
 20
-132.5
 30
0.0
 11
-221.777064
 21
-120.5
 31
0.0
  0
TEXT
  5
14E
  8
SIZE
  6
CONTINUOUS
 62
    30
 10
-246.777064
 20
-74.05714285714285
 30
0.0
 40
64.0
  1
265
 50
90.0
 41
0.9
 72
     1
 11
-246.777064
 21
0.0
 31
0.0
  0
POINT
  5
14F
  8
DEFPOINTS
  6
CONTINUOUS
 62
    30
 10
-60.0
 20
132.5
 30
0.0
  0
POINT
  5
150
  8
DEFPOINTS
  6
CONTINUOUS
 62
    30
 10
-60.0
 20
-132.5
 30
0.0
  0
POINT
  5
151
  8
DEFPOINTS
  6
CONTINUOUS
 62
    30
 10
-221.777064
 20
-132.5
 30
0.0
  0
LINE
  5
152
  8
SIZE
  6
CONTINUOUS
 62
    30
 10
-165.67882900000001
 20
180.0
 30
0.0
 11
-357.49224400000003
 21
180.0
 31
0.0
  0
LINE
  5
153
  8
SIZE
  6
CONTINUOUS
 62
    30
 10
-155.0
 20
135.0
 30
0.0
 11
-357.49224400000003
 21
135.0
 31
0.0
  0
LINE
  5
154
  8
SIZE
  6
CONTINUOUS
 62
    30
 10
-337.49224400000003
 20
192.0
 30
0.0
 11
-337.49224400000003
 21
204.0
 31
0.0
  0
LINE
  5
155
  8
SIZE
  6
CONTINUOUS
 62
    30
 10
-337.49224400000003
 20
123.0
 30
0.0
 11
-337.49224400000003
 21
111.0
 31
0.0
  0
TEXT
  5
156
  8
SIZE
  6
CONTINUOUS
 62
    30
 10
-355.89177799999999
 20
197.67044457142859
 30
0.0
 40
64.0
  1
45
 50
90.0
 41
0.9
 72
     1
 11
-355.89177799999999
 21
244.29901599999999
 31
0.0
  0
LINE
  5
157
  8
SIZE
  6
CONTINUOUS
 62
    30
 10
-337.49224400000003
 20
180.0
 30
0.0
 11
-337.49224400000003
 21
135.0
 31
0.0
  0
LINE
  5
158
  8
SIZE
  6
CONTINUOUS
 62
    30
 10
-337.49224400000003
 20
180.0
 30
0.0
 11
-337.49224400000003
 21
135.0
 31
0.0
  0
CIRCLE
  5
159
  8
SIZE
  6
CONTINUOUS
 62
    30
 10
-337.49224400000003
 20
180.0
 30
0.0
 40
6.0
  0
LINE
  5
15A
  8
SIZE
  6
CONTINUOUS
 62
    30
 10
-337.49224400000003
 20
180.0
 30
0.0
 11
-337.49224400000003
 21
192.0
 31
0.0
  0
CIRCLE
  5
15B
  8
SIZE
  6
CONTINUOUS
 62
    30
 10
-337.49224400000003
 20
135.0
 30
0.0
 40
6.0
  0
LINE
  5
15C
  8
SIZE
  6
CONTINUOUS
 62
    30
 10
-337.49224400000003
 20
135.0
 30
0.0
 11
-337.49224400000003
 21
123.0
 31
0.0
  0
POINT
  5
15D
  8
DEFPOINTS
  6
CONTINUOUS
 62
    30
 10
-145.67882900000001
 20
180.0
 30
0.0
  0
POINT
  5
15E
  8
DEFPOINTS
  6
CONTINUOUS
 62
    30
 10
-135.0
 20
135.0
 30
0.0
  0
POINT
  5
15F
  8
DEFPOINTS
  6
CONTINUOUS
 62
    30
 10
-337.49224400000003
 20
135.0
 30
0.0
  0
LINE
  5
160
  8
SIZE
  6
CONTINUOUS
 62
    30
 39
50.0
 10
-337.49224400000003
 20
204.0
 30
0.0
 11
-337.49224400000003
 21
300.70173799999998
 31
0.0
  0
LINE
  5
161
  8
DETAIL
  6
CONTINUOUS
 62
     5
 39
50.0
 10
-120.0
 20
-102.01643
 30
0.0
 11
120.0
 21
-102.01643
 31
0.0
  0
TEXT
  5
16A
  8
ETC
  6
CONTINUOUS
 62
    61
 10
394.32030551359497
 20
673.62266104339949
 30
0.0
 40
40.0
  1
EX-20SC-S_3
 41
0.9
  0
TEXT
  5
16B
  8
ETC
  6
CONTINUOUS
 62
    61
 10
386.24682651359501
 20
609.7176180433994
 30
0.0
 40
40.0
  1
換気扇
 41
0.9
  0
TEXT
  5
16C
  8
ETC
  6
CONTINUOUS
 62
    61
 10
447.59503060058159
 20
539.30131031473536
 30
0.0
 40
40.0
  1
EX-20SC-S
 41
0.9
  0
TEXT
  5
16D
  8
ETC
  6
CONTINUOUS
 62
    61
 10
447.59503060058159
 20
468.96864544354042
 30
0.0
 40
40.0
  1
EX-20SC-RK
 41
0.9
  0
ENDSEC
  0
EOF
