  0
SECTION
  2
HEADER
  9
$ACADVER
  1
AC1009
  9
$DWGCODEPAGE
  3
dos932
  9
$INSBASE
 10
0.0
 20
0.0
 30
0.0
  9
$EXTMIN
 10
-462.249739
 20
-486.099232
 30
-0.001526
  9
$EXTMAX
 10
723.284923
 20
458.541878
 30
50.001526
  9
$LIMMIN
 10
-2970.0
 20
-2100.0
  9
$LIMMAX
 10
2970.0
 20
2100.0
  9
$ORTHOMODE
 70
     1
  9
$REGENMODE
 70
     0
  9
$FILLMODE
 70
     1
  9
$QTEXTMODE
 70
     0
  9
$MIRRTEXT
 70
     0
  9
$DRAGMODE
 70
     2
  9
$LTSCALE
 40
20.0
  9
$OSMODE
 70
    33
  9
$ATTMODE
 70
     1
  9
$TEXTSIZE
 40
64.0
  9
$TRACEWID
 40
0.05
  9
$TEXTSTYLE
  7
STANDARD
  9
$CLAYER
  8
DETAIL
  9
$CELTYPE
  6
CONTINUOUS
  9
$CECOLOR
 62
     7
  9
$DIMSCALE
 40
1.0
  9
$DIMASZ
 40
12.0
  9
$DIMEXO
 40
20.0
  9
$DIMDLI
 40
200.0
  9
$DIMRND
 40
0.0
  9
$DIMDLE
 40
0.0
  9
$DIMEXE
 40
20.0
  9
$DIMTP
 40
0.0
  9
$DIMTM
 40
0.0
  9
$DIMTXT
 40
64.0
  9
$DIMCEN
 40
0.09
  9
$DIMTSZ
 40
0.0
  9
$DIMTOL
 70
     0
  9
$DIMLIM
 70
     0
  9
$DIMTIH
 70
     0
  9
$DIMTOH
 70
     0
  9
$DIMSE1
 70
     0
  9
$DIMSE2
 70
     0
  9
$DIMTAD
 70
     1
  9
$DIMZIN
 70
     8
  9
$DIMBLK
  1
DOT1
  9
$DIMASO
 70
     1
  9
$DIMSHO
 70
     0
  9
$DIMPOST
  1

  9
$DIMAPOST
  1

  9
$DIMALT
 70
     0
  9
$DIMALTD
 70
     2
  9
$DIMALTF
 40
25.4
  9
$DIMLFAC
 40
1.0
  9
$DIMTOFL
 70
     1
  9
$DIMTVP
 40
0.0
  9
$DIMTIX
 70
     1
  9
$DIMSOXD
 70
     0
  9
$DIMSAH
 70
     1
  9
$DIMBLK1
  1
_ORIGIN
  9
$DIMBLK2
  1
_ORIGIN
  9
$DIMSTYLE
  2
STANDARD
  9
$DIMCLRD
 70
     7
  9
$DIMCLRE
 70
     7
  9
$DIMCLRT
 70
     7
  9
$DIMTFAC
 40
1.0
  9
$DIMGAP
 40
25.0
  9
$LUNITS
 70
     2
  9
$LUPREC
 70
     4
  9
$SKETCHINC
 40
0.1
  9
$FILLETRAD
 40
6.0
  9
$AUNITS
 70
     1
  9
$AUPREC
 70
     3
  9
$MENU
  1
ACAD
  9
$ELEVATION
 40
0.0
  9
$PELEVATION
 40
0.0
  9
$THICKNESS
 40
50.0
  9
$LIMCHECK
 70
     0
  9
$BLIPMODE
 70
     0
  9
$CHAMFERA
 40
0.0
  9
$CHAMFERB
 40
0.0
  9
$SKPOLY
 70
     0
  9
$TDCREATE
 40
2451453.493850809
  9
$TDUPDATE
 40
2453483.510813414
  9
$TDINDWG
 40
0.7959222801
  9
$TDUSRTIMER
 40
0.7959222801
  9
$USRTIMER
 70
     1
  9
$ANGBASE
 50
0.0
  9
$ANGDIR
 70
     0
  9
$PDMODE
 70
     3
  9
$PDSIZE
 40
-2.0
  9
$PLINEWID
 40
0.0
  9
$COORDS
 70
     2
  9
$SPLFRAME
 70
     0
  9
$SPLINETYPE
 70
     6
  9
$SPLINESEGS
 70
     8
  9
$ATTDIA
 70
     0
  9
$ATTREQ
 70
     1
  9
$HANDLING
 70
     0
  9
$HANDSEED
  5
46AF
  9
$SURFTAB1
 70
     6
  9
$SURFTAB2
 70
     6
  9
$SURFTYPE
 70
     6
  9
$SURFU
 70
     6
  9
$SURFV
 70
     6
  9
$UCSNAME
  2

  9
$UCSORG
 10
0.0
 20
0.0
 30
0.0
  9
$UCSXDIR
 10
1.0
 20
0.0
 30
0.0
  9
$UCSYDIR
 10
0.0
 20
1.0
 30
0.0
  9
$PUCSNAME
  2

  9
$PUCSORG
 10
0.0
 20
0.0
 30
0.0
  9
$PUCSXDIR
 10
1.0
 20
0.0
 30
0.0
  9
$PUCSYDIR
 10
0.0
 20
1.0
 30
0.0
  9
$USERI1
 70
     0
  9
$USERI2
 70
     0
  9
$USERI3
 70
     0
  9
$USERI4
 70
     0
  9
$USERI5
 70
     0
  9
$USERR1
 40
20.0
  9
$USERR2
 40
0.0
  9
$USERR3
 40
0.0
  9
$USERR4
 40
0.0
  9
$USERR5
 40
0.0
  9
$WORLDVIEW
 70
     1
  9
$SHADEDGE
 70
     3
  9
$SHADEDIF
 70
    70
  9
$TILEMODE
 70
     1
  9
$MAXACTVP
 70
    48
  9
$PINSBASE
 10
0.0
 20
0.0
 30
0.0
  9
$PLIMCHECK
 70
     0
  9
$PEXTMIN
 10
-100000000000000000000.0
 20
-100000000000000000000.0
 30
-100000000000000000000.0
  9
$PEXTMAX
 10
100000000000000000000.0
 20
100000000000000000000.0
 30
100000000000000000000.0
  9
$PLIMMIN
 10
0.0
 20
0.0
  9
$PLIMMAX
 10
12.0
 20
9.0
  9
$UNITMODE
 70
     0
  9
$VISRETAIN
 70
     0
  9
$PLINEGEN
 70
     0
  9
$PSLTSCALE
 70
     0
  9
$TREEDEPTH
 70
  3020
  0
ENDSEC
  0
SECTION
  2
TABLES
  0
TABLE
  2
LTYPE
 70
     2
  0
LTYPE
  2
CONTINUOUS
 70
     0
  3
実線
 72
    65
 73
     0
 40
0.0
  0
LTYPE
  2
DASHDOT
 70
     0
  3
____ _ ____ _ ____ _ ____ _ ____ _ ____ _ ____
 72
    65
 73
     4
 40
5.5
 49
4.0
 49
-0.6
 49
0.3
 49
-0.6
  0
ENDTAB
  0
TABLE
  2
LAYER
 70
    12
  0
LAYER
  2
0
 70
     0
 62
     7
  6
CONTINUOUS
  0
LAYER
  2
BASIS
 70
     0
 62
     6
  6
DASHDOT
  0
LAYER
  2
OUTLINE
 70
     0
 62
     3
  6
CONTINUOUS
  0
LAYER
  2
DETAIL
 70
     0
 62
     5
  6
CONTINUOUS
  0
LAYER
  2
SIZE
 70
     0
 62
    30
  6
CONTINUOUS
  0
LAYER
  2
ARRANGE
 70
     0
 62
     1
  6
CONTINUOUS
  0
LAYER
  2
DEFPOINTS
 70
     0
 62
     7
  6
CONTINUOUS
  0
LAYER
  2
ETC
 70
     0
 62
    61
  6
CONTINUOUS
  0
LAYER
  2
FIX
 70
     0
 62
    11
  6
CONTINUOUS
  0
LAYER
  2
NOTE
 70
     0
 62
     4
  6
CONTINUOUS
  0
LAYER
  2
SERVICESPACE
 70
    64
 62
     2
  6
DASHDOT
  0
LAYER
  2
SYMBOLLINE
 70
    64
 62
    15
  6
CONTINUOUS
  0
ENDTAB
  0
TABLE
  2
STYLE
 70
     1
  0
STYLE
  2
STANDARD
 70
     0
 40
64.0
 41
0.9
 50
0.0
 71
     0
 42
64.0
  3
SIMPLEX.shx
  4
BIGFONT.shx
  0
ENDTAB
  0
TABLE
  2
APPID
 70
     2
  0
APPID
  2
ACAD
 70
     0
  0
APPID
  2
AUTOCAD_POSTSCRIPT_FIGURE
 70
     0
  0
ENDTAB
  0
TABLE
  2
DIMSTYLE
 70
     1
  0
DIMSTYLE
  2
STANDARD
 70
     0
  3

  4

  5

  6

  7

 40
1.0
 41
0.18
 42
0.0625
 43
0.38
 44
0.18
 45
0.0
 46
0.0
 47
0.0
 48
0.0
140
0.18
141
0.09
142
0.0
143
25.4
144
1.0
145
0.0
146
1.0
147
0.09
 71
     0
 72
     0
 73
     1
 74
     1
 75
     0
 76
     0
 77
     0
 78
     0
170
     0
171
     2
172
     0
173
     0
174
     0
175
     0
176
     7
177
     7
178
     7
  0
ENDTAB
  0
TABLE
  2
VIEW
 70
     1
  0
VIEW
  2
ALL
 70
     0
 40
4282.619808
 10
0.0
 20
41.309904
 41
5940.0
 11
0.0
 21
0.0
 31
1.0
 12
0.0
 22
0.0
 32
0.0
 42
50.0
 43
0.0
 44
0.0
 50
0.0
 71
     0
  0
ENDTAB
  0
TABLE
  2
UCS
 70
     0
  0
ENDTAB
  0
TABLE
  2
VPORT
 70
     1
  0
VPORT
  2
*ACTIVE
 70
     0
 10
0.0
 20
0.0
 11
1.0
 21
1.0
 12
130.517592
 22
-13.778677
 13
0.0
 23
0.0
 14
1.0
 24
1.0
 15
0.0
 25
0.0
 16
0.0
 26
0.0
 36
1.0
 17
0.0
 27
0.0
 37
0.0
 40
952.228588
 41
1.571046
 42
50.0
 43
0.0
 44
0.0
 50
0.0
 51
0.0
 71
     0
 72
   100
 73
     1
 74
     0
 75
     0
 76
     0
 77
     0
 78
     0
  0
ENDTAB
  0
ENDSEC
  0
SECTION
  2
BLOCKS
  0
BLOCK
  8
0
  2
DOT1
 70
     0
 10
0.0
 20
0.0
 30
0.0
  3
DOT1
  1

  0
CIRCLE
  8
SIZE
  6
CONTINUOUS
 62
     7
 10
0.0
 20
0.0
 30
0.0
 40
3.0
  0
ENDBLK
  8
0
  0
BLOCK
  8
0
  2
_ORIGIN
 70
     0
 10
0.0
 20
0.0
 30
0.0
  3
_ORIGIN
  1

  0
CIRCLE
  8
0
  6
CONTINUOUS
 62
     7
 10
0.0
 20
0.0
 30
0.0
 40
0.5
  0
LINE
  8
0
  6
CONTINUOUS
 62
     7
 10
0.0
 20
0.0
 30
0.0
 11
-1.0
 21
0.0
 31
0.0
  0
ENDBLK
  8
0
  0
ENDSEC
  0
SECTION
  2
ENTITIES
  0
TEXT
  8
ETC
  6
CONTINUOUS
 62
    61
 10
261.841566
 20
418.510166
 30
0.0
 40
40.0
  1
EX-20SC_3
 41
0.9
  0
TEXT
  8
ETC
  6
CONTINUOUS
 62
    61
 10
253.768088
 20
353.950847
 30
0.0
 40
40.0
  1
換気扇
 41
0.9
  0
LINE
  8
BASIS
  6
DASHDOT
 62
     6
 10
0.0
 20
200.402246
 30
0.0
 11
0.0
 21
-232.929357
 31
0.0
  0
LINE
  8
BASIS
  6
DASHDOT
 62
     6
 10
227.78438
 20
0.0
 30
0.0
 11
-230.686418
 21
0.0
 31
0.0
  0
CIRCLE
  8
ARRANGE
  6
CONTINUOUS
 62
     1
 39
50.0
 10
0.0
 20
0.0
 30
0.0
 40
40.0
  0
POINT
  8
ARRANGE
  6
CONTINUOUS
 62
     1
 10
0.0
 20
0.0
 30
0.0
 39
50.0
  0
LINE
  8
NOTE
  6
CONTINUOUS
 62
     4
 10
299.807315
 20
-446.260605
 30
0.0
 11
148.0
 21
-100.0
 31
0.0
  0
LINE
  8
NOTE
  6
CONTINUOUS
 62
     4
 10
418.373081
 20
-446.260605
 30
0.0
 11
299.807315
 21
-446.260605
 31
0.0
  0
TEXT
  8
NOTE
  6
CONTINUOUS
 62
     4
 10
310.191851
 20
-418.833653
 30
0.0
 40
64.0
  1
EL
 41
0.9
  0
LINE
  8
NOTE
  6
CONTINUOUS
 62
     4
 10
153.492418
 20
-139.621122
 30
0.0
 11
148.0
 21
-100.0
 31
0.0
  0
LINE
  8
NOTE
  6
CONTINUOUS
 62
     4
 10
148.0
 20
-100.0
 30
0.0
 11
172.567135
 21
-131.566689
 31
0.0
  0
LINE
  8
NOTE
  6
CONTINUOUS
 62
     4
 10
148.0
 20
-120.0
 30
0.0
 11
148.0
 21
-80.0
 31
0.0
  0
LINE
  8
NOTE
  6
CONTINUOUS
 62
     4
 10
128.0
 20
-100.0
 30
0.0
 11
168.0
 21
-100.0
 31
0.0
  0
LINE
  8
SIZE
  6
CONTINUOUS
 62
    30
 10
247.78438
 20
0.0
 30
0.0
 11
361.090101
 21
0.0
 31
0.0
  0
LINE
  8
SIZE
  6
CONTINUOUS
 62
    30
 10
188.0
 20
-100.0
 30
0.0
 11
361.090101
 21
-100.0
 31
0.0
  0
LINE
  8
SIZE
  6
CONTINUOUS
 62
    30
 10
341.090101
 20
-12.0
 30
0.0
 11
341.090101
 21
-88.0
 31
0.0
  0
LINE
  8
SIZE
  6
CONTINUOUS
 62
    30
 10
341.090101
 20
-338.753578
 30
0.0
 11
341.090101
 21
-100.0
 31
0.0
  0
TEXT
  8
SIZE
  6
CONTINUOUS
 62
    30
 10
316.090101
 20
-320.926149
 30
0.0
 40
64.0
  1
100
 50
90.0
 41
0.9
 51
0.0
  7
STANDARD
 71
     0
 72
     1
 11
316.090101
 21
-245.182149
 31
0.0
210
0.0
220
0.0
230
1.0
  0
CIRCLE
  8
SIZE
  6
CONTINUOUS
 62
    30
 10
341.090101
 20
0.0
 30
0.0
 40
6.0
  0
LINE
  8
SIZE
  6
CONTINUOUS
 62
    30
 10
341.090101
 20
0.0
 30
0.0
 11
341.090101
 21
-12.0
 31
0.0
  0
CIRCLE
  8
SIZE
  6
CONTINUOUS
 62
    30
 10
341.090101
 20
-100.0
 30
0.0
 40
6.0
  0
LINE
  8
SIZE
  6
CONTINUOUS
 62
    30
 10
341.090101
 20
-100.0
 30
0.0
 11
341.090101
 21
-88.0
 31
0.0
  0
POINT
  8
DEFPOINTS
  6
CONTINUOUS
 62
    30
 10
227.78438
 20
0.0
 30
0.0
  0
POINT
  8
DEFPOINTS
  6
CONTINUOUS
 62
    30
 10
168.0
 20
-100.0
 30
0.0
  0
POINT
  8
DEFPOINTS
  6
CONTINUOUS
 62
    30
 10
341.090101
 20
-100.0
 30
0.0
  0
LINE
  8
DETAIL
  6
CONTINUOUS
 62
     5
 10
-120.0
 20
120.0
 30
0.0
 11
-120.0
 21
-120.0
 31
0.0
  0
CIRCLE
  8
FIX
  6
CONTINUOUS
 62
    11
 39
50.0
 10
60.0
 20
-132.5
 30
0.0
 40
2.5
  0
CIRCLE
  8
FIX
  6
CONTINUOUS
 62
    11
 39
50.0
 10
-60.0
 20
-132.5
 30
0.0
 40
2.5
  0
CIRCLE
  8
DETAIL
  6
CONTINUOUS
 62
     5
 10
60.0
 20
-132.5
 30
0.0
 40
2.5
  0
CIRCLE
  8
DETAIL
  6
CONTINUOUS
 62
     5
 10
-60.0
 20
-132.5
 30
0.0
 40
2.5
  0
CIRCLE
  8
FIX
  6
CONTINUOUS
 62
    11
 39
50.0
 10
60.0
 20
132.5
 30
0.0
 40
2.5
  0
CIRCLE
  8
FIX
  6
CONTINUOUS
 62
    11
 39
50.0
 10
-60.0
 20
132.5
 30
0.0
 40
2.5
  0
CIRCLE
  8
DETAIL
  6
CONTINUOUS
 62
     5
 10
60.0
 20
132.5
 30
0.0
 40
2.5
  0
CIRCLE
  8
DETAIL
  6
CONTINUOUS
 62
     5
 10
-60.0
 20
132.5
 30
0.0
 40
2.5
  0
LINE
  8
DETAIL
  6
CONTINUOUS
 62
     5
 10
120.0
 20
120.0
 30
0.0
 11
120.0
 21
-120.0
 31
0.0
  0
LINE
  8
DETAIL
  6
CONTINUOUS
 62
     5
 10
120.0
 20
-120.0
 30
0.0
 11
-120.0
 21
-120.0
 31
0.0
  0
LINE
  8
DETAIL
  6
CONTINUOUS
 62
     5
 10
120.0
 20
-46.6
 30
0.0
 11
-120.0
 21
-46.6
 31
0.0
  0
LINE
  8
DETAIL
  6
CONTINUOUS
 62
     5
 10
120.0
 20
120.0
 30
0.0
 11
-120.0
 21
120.0
 31
0.0
  0
LINE
  8
DETAIL
  6
CONTINUOUS
 62
     5
 10
120.0
 20
100.0
 30
0.0
 11
-120.0
 21
100.0
 31
0.0
  0
LINE
  8
DETAIL
  6
CONTINUOUS
 62
     5
 10
120.0
 20
26.7
 30
0.0
 11
-120.0
 21
26.7
 31
0.0
  0
LINE
  8
NOTE
  6
CONTINUOUS
 62
     4
 10
-60.0
 20
152.5
 30
0.0
 11
-60.0
 21
112.5
 31
0.0
  0
LINE
  8
NOTE
  6
CONTINUOUS
 62
     4
 10
-80.0
 20
132.5
 30
0.0
 11
-40.0
 21
132.5
 31
0.0
  0
LINE
  8
NOTE
  6
CONTINUOUS
 62
     4
 10
60.0
 20
152.5
 30
0.0
 11
60.0
 21
112.5
 31
0.0
  0
LINE
  8
NOTE
  6
CONTINUOUS
 62
     4
 10
80.0
 20
132.5
 30
0.0
 11
40.0
 21
132.5
 31
0.0
  0
LINE
  8
NOTE
  6
CONTINUOUS
 62
     4
 10
99.75258
 20
136.942119
 30
0.0
 11
60.0
 21
132.5
 31
0.0
  0
LINE
  8
NOTE
  6
CONTINUOUS
 62
     4
 10
60.0
 20
132.5
 30
0.0
 11
92.205684
 21
156.223278
 31
0.0
  0
LINE
  8
NOTE
  6
CONTINUOUS
 62
     4
 10
198.950019
 20
186.940847
 30
0.0
 11
60.0
 21
132.5
 31
0.0
  0
LINE
  8
NOTE
  6
CONTINUOUS
 62
     4
 39
50.0
 10
469.255229
 20
186.940847
 30
0.0
 11
198.950019
 21
186.940847
 31
0.0
  0
LINE
  8
SIZE
  6
CONTINUOUS
 62
    30
 10
140.0
 20
120.0
 30
0.0
 11
500.200905
 21
120.0
 31
0.0
  0
LINE
  8
SIZE
  6
CONTINUOUS
 62
    30
 10
140.0
 20
-120.0
 30
0.0
 11
500.200905
 21
-120.0
 31
0.0
  0
LINE
  8
SIZE
  6
CONTINUOUS
 62
    30
 10
480.200905
 20
108.0
 30
0.0
 11
480.200905
 21
-108.0
 31
0.0
  0
TEXT
  8
SIZE
  6
CONTINUOUS
 62
    30
 10
453.969836
 20
-116.064
 30
0.0
 40
64.0
  1
□240
 50
90.0
 41
0.9
 51
0.0
  7
STANDARD
 71
     0
 72
     1
 11
453.969836
 21
0.0
 31
0.0
210
0.0
220
0.0
230
1.0
  0
CIRCLE
  8
SIZE
  6
CONTINUOUS
 62
    30
 10
480.200905
 20
120.0
 30
0.0
 40
6.0
  0
LINE
  8
SIZE
  6
CONTINUOUS
 62
    30
 10
480.200905
 20
120.0
 30
0.0
 11
480.200905
 21
108.0
 31
0.0
  0
CIRCLE
  8
SIZE
  6
CONTINUOUS
 62
    30
 10
480.200905
 20
-120.0
 30
0.0
 40
6.0
  0
LINE
  8
SIZE
  6
CONTINUOUS
 62
    30
 10
480.200905
 20
-120.0
 30
0.0
 11
480.200905
 21
-108.0
 31
0.0
  0
POINT
  8
DEFPOINTS
  6
CONTINUOUS
 62
    30
 10
120.0
 20
120.0
 30
0.0
  0
POINT
  8
DEFPOINTS
  6
CONTINUOUS
 62
    30
 10
120.0
 20
-120.0
 30
0.0
  0
POINT
  8
DEFPOINTS
  6
CONTINUOUS
 62
    30
 10
480.200905
 20
-120.0
 30
0.0
  0
LINE
  8
NOTE
  6
CONTINUOUS
 62
     4
 10
-60.0
 20
-152.5
 30
0.0
 11
-60.0
 21
-112.5
 31
0.0
  0
LINE
  8
NOTE
  6
CONTINUOUS
 62
     4
 10
-80.0
 20
-132.5
 30
0.0
 11
-40.0
 21
-132.5
 31
0.0
  0
LINE
  8
NOTE
  6
CONTINUOUS
 62
     4
 10
60.0
 20
-152.5
 30
0.0
 11
60.0
 21
-112.5
 31
0.0
  0
LINE
  8
NOTE
  6
CONTINUOUS
 62
     4
 10
80.0
 20
-132.5
 30
0.0
 11
40.0
 21
-132.5
 31
0.0
  0
LINE
  8
SIZE
  6
CONTINUOUS
 62
    30
 10
-100.0
 20
132.5
 30
0.0
 11
-282.443202
 21
132.5
 31
0.0
  0
LINE
  8
SIZE
  6
CONTINUOUS
 62
    30
 10
-100.0
 20
-132.5
 30
0.0
 11
-282.443202
 21
-132.5
 31
0.0
  0
LINE
  8
SIZE
  6
CONTINUOUS
 62
    30
 10
-262.443202
 20
120.5
 30
0.0
 11
-262.443202
 21
-120.5
 31
0.0
  0
CIRCLE
  8
SIZE
  6
CONTINUOUS
 62
    30
 10
-262.443202
 20
132.5
 30
0.0
 40
6.0
  0
LINE
  8
SIZE
  6
CONTINUOUS
 62
    30
 10
-262.443202
 20
132.5
 30
0.0
 11
-262.443202
 21
120.5
 31
0.0
  0
CIRCLE
  8
SIZE
  6
CONTINUOUS
 62
    30
 10
-262.443202
 20
-132.5
 30
0.0
 40
6.0
  0
LINE
  8
SIZE
  6
CONTINUOUS
 62
    30
 10
-262.443202
 20
-132.5
 30
0.0
 11
-262.443202
 21
-120.5
 31
0.0
  0
TEXT
  8
SIZE
  6
CONTINUOUS
 62
    30
 10
-287.443202
 20
-80.352
 30
0.0
 40
64.0
  1
265
 50
90.0
 41
0.9
 51
0.0
  7
STANDARD
 71
     0
 72
     1
 11
-287.443202
 21
0.0
 31
0.0
210
0.0
220
0.0
230
1.0
  0
POINT
  8
DEFPOINTS
  6
CONTINUOUS
 62
    30
 10
-80.0
 20
132.5
 30
0.0
  0
POINT
  8
DEFPOINTS
  6
CONTINUOUS
 62
    30
 10
-80.0
 20
-132.5
 30
0.0
  0
POINT
  8
DEFPOINTS
  6
CONTINUOUS
 62
    30
 10
-262.443202
 20
-132.5
 30
0.0
  0
LINE
  8
SIZE
  6
CONTINUOUS
 62
    30
 10
60.0
 20
168.0
 30
0.0
 11
60.0
 21
268.034209
 31
0.0
  0
LINE
  8
SIZE
  6
CONTINUOUS
 62
    30
 10
-60.0
 20
168.0
 30
0.0
 11
-60.0
 21
268.034209
 31
0.0
  0
LINE
  8
SIZE
  6
CONTINUOUS
 62
    30
 10
72.0
 20
248.034209
 30
0.0
 11
84.0
 21
248.034209
 31
0.0
  0
LINE
  8
SIZE
  6
CONTINUOUS
 62
    30
 10
-72.0
 20
248.034209
 30
0.0
 11
-84.0
 21
248.034209
 31
0.0
  0
LINE
  8
SIZE
  6
CONTINUOUS
 62
    30
 10
60.0
 20
248.034209
 30
0.0
 11
-60.0
 21
248.034209
 31
0.0
  0
CIRCLE
  8
SIZE
  6
CONTINUOUS
 62
    30
 10
60.0
 20
248.034209
 30
0.0
 40
6.0
  0
LINE
  8
SIZE
  6
CONTINUOUS
 62
    30
 10
60.0
 20
248.034209
 30
0.0
 11
72.0
 21
248.034209
 31
0.0
  0
CIRCLE
  8
SIZE
  6
CONTINUOUS
 62
    30
 10
-60.0
 20
248.034209
 30
0.0
 40
6.0
  0
LINE
  8
SIZE
  6
CONTINUOUS
 62
    30
 10
-60.0
 20
248.034209
 30
0.0
 11
-72.0
 21
248.034209
 31
0.0
  0
TEXT
  8
SIZE
  6
CONTINUOUS
 62
    30
 10
-75.168
 20
273.034209
 30
0.0
 40
64.0
  1
120
 50
0.0
 41
0.9
 51
0.0
  7
STANDARD
 71
     0
 72
     1
 11
0.0
 21
273.034209
 31
0.0
210
0.0
220
0.0
230
1.0
  0
POINT
  8
DEFPOINTS
  6
CONTINUOUS
 62
    30
 10
60.0
 20
148.0
 30
0.0
  0
POINT
  8
DEFPOINTS
  6
CONTINUOUS
 62
    30
 10
-60.0
 20
148.0
 30
0.0
  0
POINT
  8
DEFPOINTS
  6
CONTINUOUS
 62
    30
 10
-60.0
 20
248.034209
 30
0.0
  0
TEXT
  8
NOTE
  6
CONTINUOUS
 62
     4
 10
212.744424
 20
210.884564
 30
0.0
 40
64.0
  1
4×φ5
 41
0.9
  0
LINE
  8
DETAIL
  6
CONTINUOUS
 62
     5
 10
160.0
 20
174.0
 30
0.0
 11
160.0
 21
-174.0
 31
0.0
  0
LINE
  8
DETAIL
  6
CONTINUOUS
 62
     5
 10
-160.0
 20
174.0
 30
0.0
 11
-160.0
 21
-174.0
 31
0.0
  0
LINE
  8
DETAIL
  6
CONTINUOUS
 62
     5
 10
154.0
 20
180.0
 30
0.0
 11
-154.0
 21
180.0
 31
0.0
  0
LINE
  8
DETAIL
  6
CONTINUOUS
 62
     5
 10
154.0
 20
-180.0
 30
0.0
 11
-154.0
 21
-180.0
 31
0.0
  0
ARC
  8
DETAIL
  6
CONTINUOUS
 62
     5
 10
-154.0
 20
174.0
 30
0.0
 40
6.0
 50
90.0
 51
180.0
  0
ARC
  8
DETAIL
  6
CONTINUOUS
 62
     5
 10
154.0
 20
174.0
 30
0.0
 40
6.0
 50
0.0
 51
90.0
  0
ARC
  8
DETAIL
  6
CONTINUOUS
 62
     5
 10
-154.0
 20
-174.0
 30
0.0
 40
6.0
 50
180.0
 51
270.0
  0
ARC
  8
DETAIL
  6
CONTINUOUS
 62
     5
 10
154.0
 20
-174.0
 30
0.0
 40
6.0
 50
270.0
 51
0.0
  0
LINE
  8
OUTLINE
  6
CONTINUOUS
 62
     3
 39
50.0
 10
-154.0
 20
180.0
 30
0.0
 11
154.0
 21
180.0
 31
0.0
  0
LINE
  8
OUTLINE
  6
CONTINUOUS
 62
     3
 39
50.0
 10
160.0
 20
174.0
 30
0.0
 11
160.0
 21
-174.0
 31
0.0
  0
LINE
  8
OUTLINE
  6
CONTINUOUS
 62
     3
 39
50.0
 10
-160.0
 20
174.0
 30
0.0
 11
-160.0
 21
-174.0
 31
0.0
  0
LINE
  8
OUTLINE
  6
CONTINUOUS
 62
     3
 39
50.0
 10
-154.0
 20
-180.0
 30
0.0
 11
154.0
 21
-180.0
 31
0.0
  0
ARC
  8
OUTLINE
  6
CONTINUOUS
 62
     3
 39
50.0
 10
-154.0
 20
174.0
 30
0.0
 40
6.0
 50
90.0
 51
180.0
  0
ARC
  8
OUTLINE
  6
CONTINUOUS
 62
     3
 39
50.0
 10
154.0
 20
174.0
 30
0.0
 40
6.0
 50
0.0
 51
90.0
  0
ARC
  8
OUTLINE
  6
CONTINUOUS
 62
     3
 39
50.0
 10
-154.0
 20
-174.0
 30
0.0
 40
6.0
 50
180.0
 51
270.0
  0
ARC
  8
OUTLINE
  6
CONTINUOUS
 62
     3
 39
50.0
 10
154.0
 20
-174.0
 30
0.0
 40
6.0
 50
270.0
 51
0.0
  0
LINE
  8
NOTE
  6
CONTINUOUS
 62
     4
 10
-135.0
 20
143.0
 30
0.0
 11
-135.0
 21
183.0
 31
0.0
  0
LINE
  8
NOTE
  6
CONTINUOUS
 62
     4
 10
-155.0
 20
163.0
 30
0.0
 11
-115.0
 21
163.0
 31
0.0
  0
LINE
  8
NOTE
  6
CONTINUOUS
 62
     4
 10
-135.0
 20
115.0
 30
0.0
 11
-135.0
 21
155.0
 31
0.0
  0
LINE
  8
NOTE
  6
CONTINUOUS
 62
     4
 10
-155.0
 20
135.0
 30
0.0
 11
-115.0
 21
135.0
 31
0.0
  0
LINE
  8
NOTE
  6
CONTINUOUS
 62
     4
 10
-135.0
 20
-155.0
 30
0.0
 11
-135.0
 21
-115.0
 31
0.0
  0
LINE
  8
NOTE
  6
CONTINUOUS
 62
     4
 10
-155.0
 20
-135.0
 30
0.0
 11
-115.0
 21
-135.0
 31
0.0
  0
LINE
  8
NOTE
  6
CONTINUOUS
 62
     4
 10
-135.0
 20
-183.0
 30
0.0
 11
-135.0
 21
-143.0
 31
0.0
  0
LINE
  8
NOTE
  6
CONTINUOUS
 62
     4
 10
-155.0
 20
-163.0
 30
0.0
 11
-115.0
 21
-163.0
 31
0.0
  0
LINE
  8
NOTE
  6
CONTINUOUS
 62
     4
 10
135.0
 20
-183.0
 30
0.0
 11
135.0
 21
-143.0
 31
0.0
  0
LINE
  8
NOTE
  6
CONTINUOUS
 62
     4
 10
115.0
 20
-163.0
 30
0.0
 11
155.0
 21
-163.0
 31
0.0
  0
LINE
  8
NOTE
  6
CONTINUOUS
 62
     4
 10
135.0
 20
-155.0
 30
0.0
 11
135.0
 21
-115.0
 31
0.0
  0
LINE
  8
NOTE
  6
CONTINUOUS
 62
     4
 10
115.0
 20
-135.0
 30
0.0
 11
155.0
 21
-135.0
 31
0.0
  0
LINE
  8
NOTE
  6
CONTINUOUS
 62
     4
 10
135.0
 20
115.0
 30
0.0
 11
135.0
 21
155.0
 31
0.0
  0
LINE
  8
NOTE
  6
CONTINUOUS
 62
     4
 10
115.0
 20
135.0
 30
0.0
 11
155.0
 21
135.0
 31
0.0
  0
LINE
  8
NOTE
  6
CONTINUOUS
 62
     4
 10
135.0
 20
143.0
 30
0.0
 11
135.0
 21
183.0
 31
0.0
  0
LINE
  8
NOTE
  6
CONTINUOUS
 62
     4
 10
115.0
 20
163.0
 30
0.0
 11
155.0
 21
163.0
 31
0.0
  0
CIRCLE
  8
FIX
  6
CONTINUOUS
 62
    11
 39
50.0
 10
-135.0
 20
163.0
 30
0.0
 40
3.0
  0
CIRCLE
  8
FIX
  6
CONTINUOUS
 62
    11
 39
50.0
 10
-135.0
 20
135.0
 30
0.0
 40
3.0
  0
CIRCLE
  8
FIX
  6
CONTINUOUS
 62
    11
 39
50.0
 10
-135.0
 20
-135.0
 30
0.0
 40
3.0
  0
CIRCLE
  8
FIX
  6
CONTINUOUS
 62
    11
 39
50.0
 10
-135.0
 20
-163.0
 30
0.0
 40
3.0
  0
CIRCLE
  8
FIX
  6
CONTINUOUS
 62
    11
 39
50.0
 10
135.0
 20
-163.0
 30
0.0
 40
3.0
  0
CIRCLE
  8
FIX
  6
CONTINUOUS
 62
    11
 39
50.0
 10
135.0
 20
-135.0
 30
0.0
 40
3.0
  0
CIRCLE
  8
FIX
  6
CONTINUOUS
 62
    11
 39
50.0
 10
135.0
 20
135.0
 30
0.0
 40
3.0
  0
CIRCLE
  8
FIX
  6
CONTINUOUS
 62
    11
 39
50.0
 10
135.0
 20
163.0
 30
0.0
 40
3.0
  0
LINE
  8
NOTE
  6
CONTINUOUS
 62
     4
 39
50.0
 10
-135.0
 20
163.0
 30
0.0
 11
-211.230374
 21
335.538822
 31
0.0
  0
LINE
  8
NOTE
  6
CONTINUOUS
 62
     4
 39
50.0
 10
-211.230374
 20
335.538822
 30
0.0
 11
-458.435363
 21
335.538822
 31
0.0
  0
LINE
  8
NOTE
  6
CONTINUOUS
 62
     4
 39
50.0
 10
-135.0
 20
135.0
 30
0.0
 11
-211.230374
 21
218.008316
 31
0.0
  0
LINE
  8
NOTE
  6
CONTINUOUS
 62
     4
 39
50.0
 10
-211.230374
 20
218.008316
 30
0.0
 11
-453.778443
 21
218.008316
 31
0.0
  0
TEXT
  8
NOTE
  6
CONTINUOUS
 62
     4
 10
-441.359983
 20
234.301434
 30
0.0
 40
64.0
  1
4×φ
 50
0.0
 41
0.9
 51
0.0
  7
STANDARD
 71
     0
 11
0.0
 21
0.0
 31
0.0
210
0.0
220
0.0
230
1.0
  0
TEXT
  8
NOTE
  6
CONTINUOUS
 62
     4
 10
-441.359983
 20
128.701434
 30
0.0
 40
64.0
  1
6
 50
0.0
 41
0.9
 51
0.0
  7
STANDARD
 71
     0
 11
0.0
 21
0.0
 31
0.0
210
0.0
220
0.0
230
1.0
  0
TEXT
  8
NOTE
  6
CONTINUOUS
 62
     4
 10
-439.807673
 20
352.219829
 30
0.0
 40
64.0
  1
4×φ
 50
0.0
 41
0.9
 51
0.0
  7
STANDARD
 71
     0
 11
0.0
 21
0.0
 31
0.0
210
0.0
220
0.0
230
1.0
  0
TEXT
  8
NOTE
  6
CONTINUOUS
 62
     4
 10
-439.807673
 20
246.619829
 30
0.0
 40
64.0
  1
6
 50
0.0
 41
0.9
 51
0.0
  7
STANDARD
 71
     0
 11
0.0
 21
0.0
 31
0.0
210
0.0
220
0.0
230
1.0
  0
LINE
  8
NOTE
  6
CONTINUOUS
 62
     4
 10
-160.602668
 20
193.732774
 30
0.0
 11
-135.0
 21
163.0
 31
0.0
  0
LINE
  8
NOTE
  6
CONTINUOUS
 62
     4
 10
-135.0
 20
163.0
 30
0.0
 11
-141.806174
 21
202.416697
 31
0.0
  0
LINE
  8
NOTE
  6
CONTINUOUS
 62
     4
 10
-169.584796
 20
155.097061
 30
0.0
 11
-135.0
 21
135.0
 31
0.0
  0
LINE
  8
NOTE
  6
CONTINUOUS
 62
     4
 10
-135.0
 20
135.0
 30
0.0
 11
-154.902781
 21
169.696964
 31
0.0
  0
LINE
  8
SIZE
  6
CONTINUOUS
 62
    30
 10
-135.0
 20
-203.0
 30
0.0
 11
-135.0
 21
-356.486168
 31
0.0
  0
LINE
  8
SIZE
  6
CONTINUOUS
 62
    30
 10
135.0
 20
-203.0
 30
0.0
 11
135.0
 21
-356.486168
 31
0.0
  0
LINE
  8
SIZE
  6
CONTINUOUS
 62
    30
 10
-123.0
 20
-336.486168
 30
0.0
 11
123.0
 21
-336.486168
 31
0.0
  0
CIRCLE
  8
SIZE
  6
CONTINUOUS
 62
    30
 10
-135.0
 20
-336.486168
 30
0.0
 40
6.0
  0
LINE
  8
SIZE
  6
CONTINUOUS
 62
    30
 10
-135.0
 20
-336.486168
 30
0.0
 11
-123.0
 21
-336.486168
 31
0.0
  0
CIRCLE
  8
SIZE
  6
CONTINUOUS
 62
    30
 10
135.0
 20
-336.486168
 30
0.0
 40
6.0
  0
LINE
  8
SIZE
  6
CONTINUOUS
 62
    30
 10
135.0
 20
-336.486168
 30
0.0
 11
123.0
 21
-336.486168
 31
0.0
  0
TEXT
  8
SIZE
  6
CONTINUOUS
 62
    30
 10
-80.928
 20
-311.486168
 30
0.0
 40
64.0
  1
270
 50
0.0
 41
0.9
 51
0.0
  7
STANDARD
 71
     0
 72
     1
 11
0.0
 21
-311.486168
 31
0.0
210
0.0
220
0.0
230
1.0
  0
POINT
  8
DEFPOINTS
  6
CONTINUOUS
 62
    30
 10
-135.0
 20
-183.0
 30
0.0
  0
POINT
  8
DEFPOINTS
  6
CONTINUOUS
 62
    30
 10
135.0
 20
-183.0
 30
0.0
  0
POINT
  8
DEFPOINTS
  6
CONTINUOUS
 62
    30
 10
135.0
 20
-336.486168
 30
0.0
  0
LINE
  8
SIZE
  6
CONTINUOUS
 62
    30
 10
-160.0
 20
-194.0
 30
0.0
 11
-160.0
 21
-486.051175
 31
0.0
  0
LINE
  8
SIZE
  6
CONTINUOUS
 62
    30
 10
160.0
 20
-194.0
 30
0.0
 11
160.0
 21
-486.051175
 31
0.0
  0
LINE
  8
SIZE
  6
CONTINUOUS
 62
    30
 10
-148.0
 20
-466.051175
 30
0.0
 11
148.0
 21
-466.051175
 31
0.0
  0
CIRCLE
  8
SIZE
  6
CONTINUOUS
 62
    30
 10
-160.0
 20
-466.051175
 30
0.0
 40
6.0
  0
LINE
  8
SIZE
  6
CONTINUOUS
 62
    30
 10
-160.0
 20
-466.051175
 30
0.0
 11
-148.0
 21
-466.051175
 31
0.0
  0
CIRCLE
  8
SIZE
  6
CONTINUOUS
 62
    30
 10
160.0
 20
-466.051175
 30
0.0
 40
6.0
  0
LINE
  8
SIZE
  6
CONTINUOUS
 62
    30
 10
160.0
 20
-466.051175
 30
0.0
 11
148.0
 21
-466.051175
 31
0.0
  0
TEXT
  8
SIZE
  6
CONTINUOUS
 62
    30
 10
-80.928
 20
-441.051175
 30
0.0
 40
64.0
  1
320
 50
0.0
 41
0.9
 51
0.0
  7
STANDARD
 71
     0
 72
     1
 11
0.0
 21
-441.051175
 31
0.0
210
0.0
220
0.0
230
1.0
  0
POINT
  8
DEFPOINTS
  6
CONTINUOUS
 62
    30
 10
-160.0
 20
-174.0
 30
0.0
  0
POINT
  8
DEFPOINTS
  6
CONTINUOUS
 62
    30
 10
160.0
 20
-174.0
 30
0.0
  0
POINT
  8
DEFPOINTS
  6
CONTINUOUS
 62
    30
 10
160.0
 20
-466.051175
 30
0.0
  0
LINE
  8
SIZE
  6
CONTINUOUS
 62
    30
 10
-174.0
 20
180.0
 30
0.0
 11
-392.929956
 21
180.0
 31
0.0
  0
LINE
  8
SIZE
  6
CONTINUOUS
 62
    30
 10
-174.0
 20
-180.0
 30
0.0
 11
-392.929956
 21
-180.0
 31
0.0
  0
LINE
  8
SIZE
  6
CONTINUOUS
 62
    30
 10
-372.929956
 20
168.0
 30
0.0
 11
-372.929956
 21
-168.0
 31
0.0
  0
CIRCLE
  8
SIZE
  6
CONTINUOUS
 62
    30
 10
-372.929956
 20
180.0
 30
0.0
 40
6.0
  0
LINE
  8
SIZE
  6
CONTINUOUS
 62
    30
 10
-372.929956
 20
180.0
 30
0.0
 11
-372.929956
 21
168.0
 31
0.0
  0
CIRCLE
  8
SIZE
  6
CONTINUOUS
 62
    30
 10
-372.929956
 20
-180.0
 30
0.0
 40
6.0
  0
LINE
  8
SIZE
  6
CONTINUOUS
 62
    30
 10
-372.929956
 20
-180.0
 30
0.0
 11
-372.929956
 21
-168.0
 31
0.0
  0
TEXT
  8
SIZE
  6
CONTINUOUS
 62
    30
 10
-397.929956
 20
-80.928
 30
0.0
 40
64.0
  1
360
 50
90.0
 41
0.9
 51
0.0
  7
STANDARD
 71
     0
 72
     1
 11
-397.929956
 21
0.0
 31
0.0
210
0.0
220
0.0
230
1.0
  0
POINT
  8
DEFPOINTS
  6
CONTINUOUS
 62
    30
 10
-154.0
 20
180.0
 30
0.0
  0
POINT
  8
DEFPOINTS
  6
CONTINUOUS
 62
    30
 10
-154.0
 20
-180.0
 30
0.0
  0
POINT
  8
DEFPOINTS
  6
CONTINUOUS
 62
    30
 10
-372.929956
 20
-180.0
 30
0.0
  0
LINE
  8
SIZE
  6
CONTINUOUS
 62
    30
 10
175.0
 20
135.0
 30
0.0
 11
609.766052
 21
135.0
 31
0.0
  0
LINE
  8
SIZE
  6
CONTINUOUS
 62
    30
 10
175.0
 20
-135.0
 30
0.0
 11
609.766052
 21
-135.0
 31
0.0
  0
LINE
  8
SIZE
  6
CONTINUOUS
 62
    30
 10
589.766052
 20
123.0
 30
0.0
 11
589.766052
 21
-123.0
 31
0.0
  0
CIRCLE
  8
SIZE
  6
CONTINUOUS
 62
    30
 10
589.766052
 20
135.0
 30
0.0
 40
6.0
  0
LINE
  8
SIZE
  6
CONTINUOUS
 62
    30
 10
589.766052
 20
135.0
 30
0.0
 11
589.766052
 21
123.0
 31
0.0
  0
CIRCLE
  8
SIZE
  6
CONTINUOUS
 62
    30
 10
589.766052
 20
-135.0
 30
0.0
 40
6.0
  0
LINE
  8
SIZE
  6
CONTINUOUS
 62
    30
 10
589.766052
 20
-135.0
 30
0.0
 11
589.766052
 21
-123.0
 31
0.0
  0
TEXT
  8
SIZE
  6
CONTINUOUS
 62
    30
 10
564.766052
 20
-80.928
 30
0.0
 40
64.0
  1
270
 50
90.0
 41
0.9
 51
0.0
  7
STANDARD
 71
     0
 72
     1
 11
564.766052
 21
0.0
 31
0.0
210
0.0
220
0.0
230
1.0
  0
POINT
  8
DEFPOINTS
  6
CONTINUOUS
 62
    30
 10
155.0
 20
135.0
 30
0.0
  0
POINT
  8
DEFPOINTS
  6
CONTINUOUS
 62
    30
 10
155.0
 20
-135.0
 30
0.0
  0
POINT
  8
DEFPOINTS
  6
CONTINUOUS
 62
    30
 10
589.766052
 20
-135.0
 30
0.0
  0
LINE
  8
SIZE
  6
CONTINUOUS
 62
    30
 10
175.0
 20
163.0
 30
0.0
 11
723.024402
 21
163.0
 31
0.0
  0
LINE
  8
SIZE
  6
CONTINUOUS
 62
    30
 10
175.0
 20
-163.0
 30
0.0
 11
723.024402
 21
-163.0
 31
0.0
  0
LINE
  8
SIZE
  6
CONTINUOUS
 62
    30
 10
703.024402
 20
151.0
 30
0.0
 11
703.024402
 21
-151.0
 31
0.0
  0
CIRCLE
  8
SIZE
  6
CONTINUOUS
 62
    30
 10
703.024402
 20
163.0
 30
0.0
 40
6.0
  0
LINE
  8
SIZE
  6
CONTINUOUS
 62
    30
 10
703.024402
 20
163.0
 30
0.0
 11
703.024402
 21
151.0
 31
0.0
  0
CIRCLE
  8
SIZE
  6
CONTINUOUS
 62
    30
 10
703.024402
 20
-163.0
 30
0.0
 40
6.0
  0
LINE
  8
SIZE
  6
CONTINUOUS
 62
    30
 10
703.024402
 20
-163.0
 30
0.0
 11
703.024402
 21
-151.0
 31
0.0
  0
TEXT
  8
SIZE
  6
CONTINUOUS
 62
    30
 10
678.024402
 20
-80.352
 30
0.0
 40
64.0
  1
326
 50
90.0
 41
0.9
 51
0.0
  7
STANDARD
 71
     0
 72
     1
 11
678.024402
 21
0.0
 31
0.0
210
0.0
220
0.0
230
1.0
  0
POINT
  8
DEFPOINTS
  6
CONTINUOUS
 62
    30
 10
155.0
 20
163.0
 30
0.0
  0
POINT
  8
DEFPOINTS
  6
CONTINUOUS
 62
    30
 10
155.0
 20
-163.0
 30
0.0
  0
POINT
  8
DEFPOINTS
  6
CONTINUOUS
 62
    30
 10
703.024402
 20
-163.0
 30
0.0
  0
LINE
  8
DETAIL
  6
CONTINUOUS
 62
     5
 10
122.0
 20
122.0
 30
0.0
 11
-122.0
 21
122.0
 31
0.0
  0
LINE
  8
DETAIL
  6
CONTINUOUS
 62
     5
 10
-122.0
 20
122.0
 30
0.0
 11
-122.0
 21
-122.0
 31
0.0
  0
LINE
  8
DETAIL
  6
CONTINUOUS
 62
     5
 10
122.0
 20
-122.0
 30
0.0
 11
-122.0
 21
-122.0
 31
0.0
  0
LINE
  8
DETAIL
  6
CONTINUOUS
 62
     5
 10
122.0
 20
122.0
 30
0.0
 11
122.0
 21
-122.0
 31
0.0
  0
ENDSEC
  0
EOF
