  0
SECTION
  2
HEADER
  9
$ACADVER
  1
AC1009
  9
$INSBASE
 10
0.0
 20
0.0
 30
0.0
  9
$EXTMIN
 10
-467.7443429999999
 20
-411.81403799999993
 30
0.0
  9
$EXTMAX
 10
1049.1697733826411
 20
525.52035765440883
 30
50.0
  9
$LIMMIN
 10
-2970.0
 20
-2100.0
  9
$LIMMAX
 10
2970.0
 20
2100.0
  9
$ORTHOMODE
 70
     1
  9
$REGENMODE
 70
     0
  9
$FILLMODE
 70
     1
  9
$QTEXTMODE
 70
     0
  9
$MIRRTEXT
 70
     0
  9
$DRAGMODE
 70
     2
  9
$LTSCALE
 40
20.0
  9
$OSMODE
 70
   171
  9
$ATTMODE
 70
     1
  9
$TEXTSIZE
 40
64.0
  9
$TRACEWID
 40
0.05
  9
$TEXTSTYLE
  7
STANDARD
  9
$CLAYER
  8
SIZE
  9
$CELTYPE
  6
CONTINUOUS
  9
$CECOLOR
 62
     8
  9
$DIMSCALE
 40
1.0
  9
$DIMASZ
 40
12.0
  9
$DIMEXO
 40
20.0
  9
$DIMDLI
 40
200.0
  9
$DIMRND
 40
0.0
  9
$DIMDLE
 40
0.0
  9
$DIMEXE
 40
20.0
  9
$DIMTP
 40
0.0
  9
$DIMTM
 40
0.0
  9
$DIMTXT
 40
64.0
  9
$DIMCEN
 40
0.09
  9
$DIMTSZ
 40
0.0
  9
$DIMTOL
 70
     0
  9
$DIMLIM
 70
     0
  9
$DIMTIH
 70
     0
  9
$DIMTOH
 70
     0
  9
$DIMSE1
 70
     0
  9
$DIMSE2
 70
     0
  9
$DIMTAD
 70
     1
  9
$DIMZIN
 70
     8
  9
$DIMBLK
  1
DOT1
  9
$DIMASO
 70
     1
  9
$DIMSHO
 70
     0
  9
$DIMPOST
  1

  9
$DIMAPOST
  1

  9
$DIMALT
 70
     0
  9
$DIMALTD
 70
     2
  9
$DIMALTF
 40
25.399999999999999
  9
$DIMLFAC
 40
1.0
  9
$DIMTOFL
 70
     1
  9
$DIMTVP
 40
0.0
  9
$DIMTIX
 70
     1
  9
$DIMSOXD
 70
     0
  9
$DIMSAH
 70
     1
  9
$DIMBLK1
  1
ORIGIN
  9
$DIMBLK2
  1
ORIGIN
  9
$DIMSTYLE
  2
STANDARD
  9
$DIMCLRD
 70
     0
  9
$DIMCLRE
 70
     0
  9
$DIMCLRT
 70
     0
  9
$DIMTFAC
 40
1.0
  9
$DIMGAP
 40
0.09
  9
$LUNITS
 70
     2
  9
$LUPREC
 70
     4
  9
$SKETCHINC
 40
0.1
  9
$FILLETRAD
 40
15.0
  9
$AUNITS
 70
     1
  9
$AUPREC
 70
     3
  9
$MENU
  1
ACAD
  9
$ELEVATION
 40
0.0
  9
$PELEVATION
 40
0.0
  9
$THICKNESS
 40
50.0
  9
$LIMCHECK
 70
     0
  9
$BLIPMODE
 70
     0
  9
$CHAMFERA
 40
0.0
  9
$CHAMFERB
 40
0.0
  9
$SKPOLY
 70
     0
  9
$TDCREATE
 40
2451453.4938508091
  9
$TDUPDATE
 40
2453761.753194259
  9
$TDINDWG
 40
0.748829919
  9
$TDUSRTIMER
 40
0.748829919
  9
$USRTIMER
 70
     1
  9
$ANGBASE
 50
0.0
  9
$ANGDIR
 70
     0
  9
$PDMODE
 70
     3
  9
$PDSIZE
 40
-2.0
  9
$PLINEWID
 40
0.0
  9
$COORDS
 70
     2
  9
$SPLFRAME
 70
     0
  9
$SPLINETYPE
 70
     6
  9
$SPLINESEGS
 70
     8
  9
$ATTDIA
 70
     0
  9
$ATTREQ
 70
     1
  9
$HANDLING
 70
 22529
  9
$HANDSEED
  5
1A8
  9
$SURFTAB1
 70
     6
  9
$SURFTAB2
 70
     6
  9
$SURFTYPE
 70
     6
  9
$SURFU
 70
     6
  9
$SURFV
 70
     6
  9
$UCSNAME
  2

  9
$UCSORG
 10
0.0
 20
0.0
 30
0.0
  9
$UCSXDIR
 10
1.0
 20
0.0
 30
0.0
  9
$UCSYDIR
 10
0.0
 20
1.0
 30
0.0
  9
$PUCSNAME
  2

  9
$PUCSORG
 10
0.0
 20
0.0
 30
0.0
  9
$PUCSXDIR
 10
1.0
 20
0.0
 30
0.0
  9
$PUCSYDIR
 10
0.0
 20
1.0
 30
0.0
  9
$USERI1
 70
     0
  9
$USERI2
 70
     0
  9
$USERI3
 70
     0
  9
$USERI4
 70
     0
  9
$USERI5
 70
     0
  9
$USERR1
 40
20.0
  9
$USERR2
 40
0.0
  9
$USERR3
 40
0.0
  9
$USERR4
 40
0.0
  9
$USERR5
 40
0.0
  9
$WORLDVIEW
 70
     1
  9
$SHADEDGE
 70
     3
  9
$SHADEDIF
 70
    70
  9
$TILEMODE
 70
     1
  9
$MAXACTVP
 70
    64
  9
$PLIMCHECK
 70
     0
  9
$PEXTMIN
 10
1.0000000000000000E+020
 20
1.0000000000000000E+020
 30
1.0000000000000000E+020
  9
$PEXTMAX
 10
-1.0000000000000000E+020
 20
-1.0000000000000000E+020
 30
-1.0000000000000000E+020
  9
$PLIMMIN
 10
0.0
 20
0.0
  9
$PLIMMAX
 10
12.0
 20
9.0
  9
$UNITMODE
 70
     0
  9
$VISRETAIN
 70
     1
  9
$PLINEGEN
 70
     0
  9
$PSLTSCALE
 70
     1
  0
ENDSEC
  0
SECTION
  2
TABLES
  0
TABLE
  2
VPORT
 70
     5
  0
VPORT
  2
*ACTIVE
 70
     0
 10
0.0
 20
0.0
 11
1.0
 21
1.0
 12
136.63560399999989
 22
127.2627117739634
 13
0.0
 23
0.0
 14
1.0
 24
1.0
 15
0.0
 25
0.0
 16
0.0
 26
0.0
 36
1.0
 17
0.0
 27
0.0
 37
0.0
 40
2178.0360730958532
 41
1.4423558897243101
 42
50.0
 43
0.0
 44
0.0
 50
0.0
 51
0.0
 71
     0
 72
   100
 73
     1
 74
     0
 75
     0
 76
     0
 77
     0
 78
     0
  0
ENDTAB
  0
TABLE
  2
LTYPE
 70
     2
  0
LTYPE
  2
CONTINUOUS
 70
     0
  3
実線
 72
    65
 73
     0
 40
0.0
  0
LTYPE
  2
DASHDOT
 70
     0
  3
____ _ ____ _ ____ _ ____ _ ____ _ ____ _ ____
 72
    65
 73
     4
 40
5.5
 49
4.0
 49
-0.6
 49
0.3
 49
-0.6
  0
ENDTAB
  0
TABLE
  2
LAYER
 70
    12
  0
LAYER
  2
0
 70
     0
 62
     7
  6
CONTINUOUS
  0
LAYER
  2
SIZE
 70
     0
 62
    30
  6
CONTINUOUS
  0
LAYER
  2
BASIS
 70
     0
 62
     6
  6
DASHDOT
  0
LAYER
  2
OUTLINE
 70
     0
 62
     3
  6
CONTINUOUS
  0
LAYER
  2
DETAIL
 70
     0
 62
     5
  6
CONTINUOUS
  0
LAYER
  2
ARRANGE
 70
     0
 62
     1
  6
CONTINUOUS
  0
LAYER
  2
DEFPOINTS
 70
     0
 62
     7
  6
CONTINUOUS
  0
LAYER
  2
ETC
 70
     0
 62
    61
  6
CONTINUOUS
  0
LAYER
  2
FIX
 70
     0
 62
    11
  6
CONTINUOUS
  0
LAYER
  2
NOTE
 70
     0
 62
     4
  6
CONTINUOUS
  0
LAYER
  2
SERVICESPACE
 70
     0
 62
     2
  6
DASHDOT
  0
LAYER
  2
SYMBOLLINE
 70
     0
 62
    15
  6
CONTINUOUS
  0
ENDTAB
  0
TABLE
  2
STYLE
 70
     1
  0
STYLE
  2
STANDARD
 70
     0
 40
64.0
 41
0.9
 50
0.0
 71
     0
 42
64.0
  3
SIMPLEX.shx
  4
BIGFONT.shx
  0
ENDTAB
  0
TABLE
  2
VIEW
 70
     1
  0
VIEW
  2
ALL
 70
     0
 40
4282.6198079999986
 10
0.0
 20
41.309903999999989
 41
5940.0
 11
0.0
 21
0.0
 31
1.0
 12
0.0
 22
0.0
 32
0.0
 42
50.0
 43
0.0
 44
0.0
 50
0.0
 71
     0
  0
ENDTAB
  0
TABLE
  2
UCS
 70
     0
  0
ENDTAB
  0
TABLE
  2
APPID
 70
     1
  0
APPID
  2
ACAD
 70
     0
  0
ENDTAB
  0
TABLE
  2
DIMSTYLE
 70
     1
  0
DIMSTYLE
  2
STANDARD
 70
     0
  3

  4

  5

  6

  7

 40
1.0
 41
0.18
 42
0.0625
 43
0.38
 44
0.18
 45
0.0
 46
0.0
 47
0.0
 48
0.0
140
0.18
141
0.09
142
0.0
143
25.399999999999999
144
1.0
145
0.0
146
1.0
147
0.09
 71
     0
 72
     0
 73
     1
 74
     1
 75
     0
 76
     0
 77
     0
 78
     0
170
     0
171
     2
172
     0
173
     0
174
     0
175
     0
176
     0
177
     0
178
     0
  0
ENDTAB
  0
ENDSEC
  0
SECTION
  2
BLOCKS
  0
BLOCK
  8
0
  2
$MODEL_SPACE
 70
     0
 10
0.0
 20
0.0
 30
0.0
  3
$MODEL_SPACE
  1

  0
ENDBLK
  5
20
  8
0
  0
BLOCK
 67
     1
  8
0
  2
$PAPER_SPACE
 70
     0
 10
0.0
 20
0.0
 30
0.0
  3
$PAPER_SPACE
  1

  0
ENDBLK
  5
1C
 67
     1
  8
0
  0
BLOCK
  8
0
  2
DOT1
 70
     0
 10
0.0
 20
0.0
 30
0.0
  3
DOT1
  1

  0
CIRCLE
  5
34
  8
SIZE
  6
CONTINUOUS
 62
     7
 10
0.0
 20
0.0
 30
0.0
 40
3.0
  0
ENDBLK
  5
35
  8
0
  0
BLOCK
  8
0
  2
_ORIGIN
 70
     0
 10
0.0
 20
0.0
 30
0.0
  3
_ORIGIN
  1

  0
CIRCLE
  5
38
  8
0
  6
CONTINUOUS
 62
     7
 10
0.0
 20
0.0
 30
0.0
 40
0.5
  0
LINE
  5
39
  8
0
  6
CONTINUOUS
 62
     7
 10
0.0
 20
0.0
 30
0.0
 11
-1.0
 21
0.0
 31
0.0
  0
ENDBLK
  5
3A
  8
0
  0
ENDSEC
  0
SECTION
  2
ENTITIES
  0
LINE
  5
3D
  8
BASIS
  6
DASHDOT
 62
     6
 10
-132.50515899999999
 20
0.0
 30
0.0
 11
175.66840199999999
 21
0.0
 31
0.0
  0
POINT
  5
3E
  8
ARRANGE
  6
CONTINUOUS
 62
     1
 10
0.0
 20
0.0
 30
0.0
 39
50.0
  0
CIRCLE
  5
3F
  8
ARRANGE
  6
CONTINUOUS
 62
     1
 39
50.0
 10
0.0
 20
0.0
 30
0.0
 40
40.0
  0
LINE
  5
40
  8
DETAIL
  6
CONTINUOUS
 62
     5
 10
0.0
 20
0.0
 30
0.0
 11
0.0
 21
-144.5
 31
0.0
  0
LINE
  5
41
  8
DETAIL
  6
CONTINUOUS
 62
     5
 10
-10.0
 20
-190.5
 30
0.0
 11
-10.0
 21
-193.5
 31
0.0
  0
LINE
  5
42
  8
DETAIL
  6
CONTINUOUS
 62
     5
 10
-10.0
 20
-182.0
 30
0.0
 11
-10.0
 21
-188.49999999999989
 31
0.0
  0
ARC
  5
43
  8
DETAIL
  6
CONTINUOUS
 62
     5
 10
-10.771114999999989
 20
-190.5
 30
0.0
 40
4.0
 50
281.1149999999999
 51
317.69501000000002
  0
ARC
  5
44
  8
DETAIL
  6
CONTINUOUS
 62
     5
 10
-30.0
 20
-173.0
 30
0.0
 40
30.0
 50
317.69501000000002
 51
0.0
  0
LINE
  5
45
  8
DETAIL
  6
CONTINUOUS
 62
     5
 10
-26.939017
 20
-173.0
 30
0.0
 11
-41.668889999999998
 21
-173.0
 31
0.0
  0
LINE
  5
46
  8
DETAIL
  6
CONTINUOUS
 62
     5
 10
-10.458
 20
-173.0
 30
0.0
 11
-10.602
 21
-173.0
 31
0.0
  0
LINE
  5
47
  8
DETAIL
  6
CONTINUOUS
 62
     5
 10
0.0
 20
-130.0
 30
0.0
 11
0.0
 21
-173.0
 31
0.0
  0
LINE
  5
48
  8
DETAIL
  6
CONTINUOUS
 62
     5
 10
-10.0
 20
-173.0
 30
0.0
 11
-10.0
 21
-180.0
 31
0.0
  0
LINE
  5
49
  8
DETAIL
  6
CONTINUOUS
 62
     5
 10
0.0
 20
-173.0
 30
0.0
 11
-26.939017
 21
-173.0
 31
0.0
  0
ARC
  5
4A
  8
DETAIL
  6
CONTINUOUS
 62
     5
 10
-65.713530000000006
 20
127.962751
 30
0.0
 40
34.713529999999999
 50
0.0
 51
47.234135999999992
  0
ARC
  5
4B
  8
DETAIL
  6
CONTINUOUS
 62
     5
 10
-74.427730000000011
 20
128.0
 30
0.0
 40
36.76773
 50
0.0
 51
37.407145999999997
  0
ARC
  5
4C
  8
DETAIL
  6
CONTINUOUS
 62
     5
 10
-38.866982
 20
155.19527299999999
 30
0.0
 40
8.0
 50
191.33518699999999
 51
217.4071459999999
  0
ARC
  5
4D
  8
DETAIL
  6
CONTINUOUS
 62
     5
 10
-36.710870999999997
 20
159.32022799999999
 30
0.0
 40
8.0
 50
170.13892899999991
 51
227.23413599999989
  0
ARC
  5
4E
  8
DETAIL
  6
CONTINUOUS
 62
     5
 10
-26.682327999999998
 20
152.462354
 30
0.0
 40
20.0
 50
146.50375699999989
 51
163.925781
  0
ARC
  5
4F
  8
DETAIL
  6
CONTINUOUS
 62
     5
 10
-26.682327999999998
 20
152.462354
 30
0.0
 40
20.0
 50
148.10952700000001
 51
171.83535800000001
  0
ARC
  5
50
  8
DETAIL
  6
CONTINUOUS
 62
     5
 10
102.0
 20
134.0
 30
0.0
 40
150.0
 50
171.83535800000001
 51
180.0
  0
LINE
  5
51
  8
DETAIL
  6
CONTINUOUS
 62
     5
 10
-31.0
 20
127.962751
 30
0.0
 11
-31.0
 21
-153.84282699999989
 31
0.0
  0
LINE
  5
52
  8
DETAIL
  6
CONTINUOUS
 62
     5
 10
-37.659999999999997
 20
-137.51038399999999
 30
0.0
 11
-37.659999999999997
 21
128.0
 31
0.0
  0
ARC
  5
53
  8
DETAIL
  6
CONTINUOUS
 62
     5
 10
128.82076499999991
 20
-134.50937300000001
 30
0.0
 40
160.98589799999999
 50
186.89753200000001
 51
193.60675000000001
  0
ARC
  5
54
  8
DETAIL
  6
CONTINUOUS
 62
     5
 10
-28.132754999999989
 20
-172.5
 30
0.0
 40
0.5
 50
270.0
 51
13.60675
  0
LINE
  5
55
  8
DETAIL
  6
CONTINUOUS
 62
     5
 10
-27.951525
 20
-173.0
 30
0.0
 11
-41.687159999999992
 21
-173.0
 31
0.0
  0
LINE
  5
56
  8
DETAIL
  6
CONTINUOUS
 62
     5
 10
-31.0
 20
-173.0
 30
0.0
 11
-41.687159999999992
 21
-173.0
 31
0.0
  0
LINE
  5
57
  8
DETAIL
  6
CONTINUOUS
 62
     5
 10
-31.0
 20
-173.0
 30
0.0
 11
-41.687159999999992
 21
-173.0
 31
0.0
  0
LINE
  5
58
  8
DETAIL
  6
CONTINUOUS
 62
     5
 10
-31.0
 20
-173.0
 30
0.0
 11
-41.687159999999992
 21
-173.0
 31
0.0
  0
ARC
  5
59
  8
DETAIL
  6
CONTINUOUS
 62
     5
 10
102.0
 20
-134.0
 30
0.0
 40
150.0
 50
180.0
 51
195.07006200000001
  0
ARC
  5
5A
  8
DETAIL
  6
CONTINUOUS
 62
     5
 10
-39.978978999999988
 20
-160.84025700000001
 30
0.0
 40
6.0
 50
140.75172000000001
 51
166.83142900000001
  0
ARC
  5
5B
  8
DETAIL
  6
CONTINUOUS
 62
     5
 10
-68.535066999999998
 20
-137.51038399999999
 30
0.0
 40
30.874559999999988
 50
320.75171999999998
 51
0.0
  0
LINE
  5
5C
  8
DETAIL
  6
CONTINUOUS
 62
     5
 10
-48.0
 20
134.0
 30
0.0
 11
-48.0
 21
-134.0
 31
0.0
  0
ARC
  5
5D
  8
DETAIL
  6
CONTINUOUS
 62
     5
 10
-11.5
 20
-195.5
 30
0.0
 40
1.5
 50
270.0
 51
0.0
  0
ARC
  5
5E
  8
DETAIL
  6
CONTINUOUS
 62
     5
 10
102.0
 20
-134.0
 30
0.0
 40
150.0
 50
195.07006200000001
 51
199.31547099999989
  0
LINE
  5
5F
  8
DETAIL
  6
CONTINUOUS
 62
     5
 10
-10.0
 20
-174.0
 30
0.0
 11
-10.0
 21
-195.5
 31
0.0
  0
LINE
  5
60
  8
DETAIL
  6
CONTINUOUS
 62
     5
 10
-11.5
 20
-197.0
 30
0.0
 11
-20.682517000000001
 21
-197.0
 31
0.0
  0
ARC
  5
61
  8
DETAIL
  6
CONTINUOUS
 62
     5
 10
-20.682517000000001
 20
-177.0
 30
0.0
 40
20.0
 50
199.31547099999989
 51
270.0
  0
LINE
  5
62
  8
DETAIL
  6
CONTINUOUS
 62
     5
 10
120.0
 20
145.0
 30
0.0
 11
0.0
 21
145.0
 31
0.0
  0
LINE
  5
63
  8
DETAIL
  6
CONTINUOUS
 62
     5
 10
96.5
 20
131.49999999999989
 30
0.0
 11
96.5
 21
0.0
 31
0.0
  0
LINE
  5
64
  8
DETAIL
  6
CONTINUOUS
 62
     5
 10
114.5
 20
131.49999999999989
 30
0.0
 11
114.5
 21
0.0
 31
0.0
  0
LINE
  5
65
  8
DETAIL
  6
CONTINUOUS
 62
     5
 10
99.500000000000014
 20
134.49999999999989
 30
0.0
 11
111.4999999999999
 21
134.49999999999989
 31
0.0
  0
ARC
  5
66
  8
DETAIL
  6
CONTINUOUS
 62
     5
 10
111.4999999999999
 20
131.49999999999989
 30
0.0
 40
3.0
 50
0.0
 51
90.0
  0
ARC
  5
67
  8
DETAIL
  6
CONTINUOUS
 62
     5
 10
99.500000000000014
 20
131.49999999999989
 30
0.0
 40
3.0
 50
90.0
 51
180.0
  0
LINE
  5
68
  8
DETAIL
  6
CONTINUOUS
 62
     5
 10
120.0
 20
145.0
 30
0.0
 11
120.0
 21
-145.0
 31
0.0
  0
ARC
  5
69
  8
DETAIL
  6
CONTINUOUS
 62
     5
 10
111.4999999999999
 20
-131.49999999999989
 30
0.0
 40
3.0
 50
270.0
 51
0.0
  0
LINE
  5
6A
  8
DETAIL
  6
CONTINUOUS
 62
     5
 10
99.500000000000014
 20
-134.49999999999989
 30
0.0
 11
111.4999999999999
 21
-134.49999999999989
 31
0.0
  0
ARC
  5
6B
  8
DETAIL
  6
CONTINUOUS
 62
     5
 10
99.500000000000014
 20
-131.49999999999989
 30
0.0
 40
3.0
 50
180.0
 51
270.0
  0
LINE
  5
6C
  8
DETAIL
  6
CONTINUOUS
 62
     5
 10
114.5
 20
-131.49999999999989
 30
0.0
 11
114.5
 21
0.0
 31
0.0
  0
LINE
  5
6D
  8
DETAIL
  6
CONTINUOUS
 62
     5
 10
96.5
 20
-131.49999999999989
 30
0.0
 11
96.5
 21
0.0
 31
0.0
  0
LINE
  5
6E
  8
DETAIL
  6
CONTINUOUS
 62
     5
 10
120.0
 20
-145.0
 30
0.0
 11
0.0
 21
-145.0
 31
0.0
  0
LINE
  5
6F
  8
DETAIL
  6
CONTINUOUS
 62
     5
 10
0.0
 20
173.0
 30
0.0
 11
-27.082247999999989
 21
172.45835500000001
 31
0.0
  0
LINE
  5
70
  8
DETAIL
  6
CONTINUOUS
 62
     5
 10
0.0
 20
173.0
 30
0.0
 11
0.0
 21
-120.0
 31
0.0
  0
ARC
  5
71
  8
DETAIL
  6
CONTINUOUS
 62
     5
 10
-26.682327999999998
 20
152.462354
 30
0.0
 40
20.0
 50
91.145763000000017
 51
145.14583899999991
  0
CIRCLE
  5
72
  8
FIX
  6
CONTINUOUS
 62
    11
 39
50.0
 10
0.0
 20
157.5
 30
0.0
 40
2.5
  0
LINE
  5
73
  8
NOTE
  6
CONTINUOUS
 62
     4
 10
0.0
 20
177.5
 30
0.0
 11
0.0
 21
137.5
 31
0.0
  0
LINE
  5
74
  8
NOTE
  6
CONTINUOUS
 62
     4
 10
-20.0
 20
157.5
 30
0.0
 11
20.0
 21
157.5
 31
0.0
  0
CIRCLE
  5
75
  8
FIX
  6
CONTINUOUS
 62
    11
 39
50.0
 10
0.0
 20
-157.5
 30
0.0
 40
2.5
  0
LINE
  5
76
  8
NOTE
  6
CONTINUOUS
 62
     4
 10
0.0
 20
-137.5
 30
0.0
 11
0.0
 21
-177.5
 31
0.0
  0
LINE
  5
77
  8
NOTE
  6
CONTINUOUS
 62
     4
 10
-20.0
 20
-157.5
 30
0.0
 11
20.0
 21
-157.5
 31
0.0
  0
LINE
  5
78
  8
DETAIL
  6
CONTINUOUS
 62
     5
 10
0.0
 20
-173.0
 30
0.0
 11
-42.841291999999989
 21
-173.0
 31
0.0
  0
LINE
  5
79
  8
SIZE
  6
CONTINUOUS
 62
    30
 10
140.0
 20
145.0
 30
0.0
 11
420.48537800000003
 21
145.0
 31
0.0
  0
LINE
  5
7A
  8
SIZE
  6
CONTINUOUS
 62
    30
 10
140.0
 20
-145.0
 30
0.0
 11
420.48537800000003
 21
-145.0
 31
0.0
  0
LINE
  5
7B
  8
SIZE
  6
CONTINUOUS
 62
    30
 10
400.48537799999991
 20
133.0
 30
0.0
 11
400.48537799999991
 21
-133.0
 31
0.0
  0
CIRCLE
  5
7C
  8
SIZE
  6
CONTINUOUS
 62
    30
 10
400.48537799999991
 20
145.0
 30
0.0
 40
6.0
  0
LINE
  5
7D
  8
SIZE
  6
CONTINUOUS
 62
    30
 10
400.48537799999991
 20
145.0
 30
0.0
 11
400.48537799999991
 21
133.0
 31
0.0
  0
CIRCLE
  5
7E
  8
SIZE
  6
CONTINUOUS
 62
    30
 10
400.48537799999991
 20
-145.0
 30
0.0
 40
6.0
  0
LINE
  5
7F
  8
SIZE
  6
CONTINUOUS
 62
    30
 10
400.48537799999991
 20
-145.0
 30
0.0
 11
400.48537799999991
 21
-133.0
 31
0.0
  0
TEXT
  5
80
  8
SIZE
  6
CONTINUOUS
 62
    30
 10
375.48537799999991
 20
-110.5371428571428
 30
0.0
 40
64.0
  1
□290
 50
90.0
 41
0.9
 72
     1
 11
375.48537799999991
 21
0.0
 31
0.0
  0
POINT
  5
81
  8
DEFPOINTS
  6
CONTINUOUS
 62
    30
 10
120.0
 20
145.0
 30
0.0
  0
POINT
  5
82
  8
DEFPOINTS
  6
CONTINUOUS
 62
    30
 10
120.0
 20
-145.0
 30
0.0
  0
POINT
  5
83
  8
DEFPOINTS
  6
CONTINUOUS
 62
    30
 10
400.48537799999991
 20
-145.0
 30
0.0
  0
LINE
  5
84
  8
SIZE
  6
CONTINUOUS
 62
    30
 10
0.0
 20
-193.0
 30
0.0
 11
0.0
 21
-408.60708599999992
 31
0.0
  0
LINE
  5
85
  8
SIZE
  6
CONTINUOUS
 62
    30
 10
-10.0
 20
-215.5
 30
0.0
 11
-10.0
 21
-408.60708599999992
 31
0.0
  0
LINE
  5
86
  8
SIZE
  6
CONTINUOUS
 62
    30
 10
12.0
 20
-388.60708599999992
 30
0.0
 11
24.0
 21
-388.60708599999992
 31
0.0
  0
LINE
  5
87
  8
SIZE
  6
CONTINUOUS
 62
    30
 10
-22.0
 20
-388.60708599999992
 30
0.0
 11
-34.0
 21
-388.60708599999992
 31
0.0
  0
LINE
  5
88
  8
SIZE
  6
CONTINUOUS
 62
    30
 10
-166.55305499999989
 20
-388.60708599999992
 30
0.0
 11
-10.0
 21
-388.60708599999992
 31
0.0
  0
TEXT
  5
89
  8
SIZE
  6
CONTINUOUS
 62
    30
 10
-141.55305514285709
 20
-363.60708599999992
 30
0.0
 40
64.0
  1
10
 41
0.9
 72
     1
 11
-100.41019799999989
 21
-363.60708599999992
 31
0.0
  0
LINE
  5
8A
  8
SIZE
  6
CONTINUOUS
 62
    30
 10
0.0
 20
-388.60708599999992
 30
0.0
 11
-10.0
 21
-388.60708599999992
 31
0.0
  0
LINE
  5
8B
  8
SIZE
  6
CONTINUOUS
 62
    30
 10
0.0
 20
-388.60708599999992
 30
0.0
 11
-10.0
 21
-388.60708599999992
 31
0.0
  0
CIRCLE
  5
8C
  8
SIZE
  6
CONTINUOUS
 62
    30
 10
0.0
 20
-388.60708599999992
 30
0.0
 40
6.0
  0
LINE
  5
8D
  8
SIZE
  6
CONTINUOUS
 62
    30
 10
0.0
 20
-388.60708599999992
 30
0.0
 11
12.0
 21
-388.60708599999992
 31
0.0
  0
CIRCLE
  5
8E
  8
SIZE
  6
CONTINUOUS
 62
    30
 10
-10.0
 20
-388.60708599999992
 30
0.0
 40
6.0
  0
LINE
  5
8F
  8
SIZE
  6
CONTINUOUS
 62
    30
 10
-10.0
 20
-388.60708599999992
 30
0.0
 11
-22.0
 21
-388.60708599999992
 31
0.0
  0
POINT
  5
90
  8
DEFPOINTS
  6
CONTINUOUS
 62
    30
 10
0.0
 20
-173.0
 30
0.0
  0
POINT
  5
91
  8
DEFPOINTS
  6
CONTINUOUS
 62
    30
 10
-10.0
 20
-195.5
 30
0.0
  0
POINT
  5
92
  8
DEFPOINTS
  6
CONTINUOUS
 62
    30
 10
-10.0
 20
-388.60708599999992
 30
0.0
  0
LINE
  5
93
  8
SIZE
  6
CONTINUOUS
 62
    30
 10
20.0
 20
-173.0
 30
0.0
 11
166.932344
 21
-173.0
 31
0.0
  0
LINE
  5
94
  8
SIZE
  6
CONTINUOUS
 62
    30
 10
8.5
 20
-197.0
 30
0.0
 11
166.932344
 21
-197.0
 31
0.0
  0
LINE
  5
95
  8
SIZE
  6
CONTINUOUS
 62
    30
 10
146.93234399999989
 20
-161.0
 30
0.0
 11
146.93234399999989
 21
-149.0
 31
0.0
  0
LINE
  5
96
  8
SIZE
  6
CONTINUOUS
 62
    30
 10
146.93234399999989
 20
-209.0
 30
0.0
 11
146.93234399999989
 21
-221.0
 31
0.0
  0
LINE
  5
97
  8
SIZE
  6
CONTINUOUS
 62
    30
 10
146.93234399999989
 20
-383.025172
 30
0.0
 11
146.93234399999989
 21
-197.0
 31
0.0
  0
TEXT
  5
98
  8
SIZE
  6
CONTINUOUS
 62
    30
 10
121.9323439999999
 20
-358.025172
 30
0.0
 40
64.0
  1
24
 50
90.0
 41
0.9
 72
     1
 11
121.9323439999999
 21
-310.025172
 31
0.0
  0
LINE
  5
99
  8
SIZE
  6
CONTINUOUS
 62
    30
 10
146.93234399999989
 20
-173.0
 30
0.0
 11
146.93234399999989
 21
-197.0
 31
0.0
  0
LINE
  5
9A
  8
SIZE
  6
CONTINUOUS
 62
    30
 10
146.93234399999989
 20
-173.0
 30
0.0
 11
146.93234399999989
 21
-197.0
 31
0.0
  0
CIRCLE
  5
9B
  8
SIZE
  6
CONTINUOUS
 62
    30
 10
146.93234399999989
 20
-173.0
 30
0.0
 40
6.0
  0
LINE
  5
9C
  8
SIZE
  6
CONTINUOUS
 62
    30
 10
146.93234399999989
 20
-173.0
 30
0.0
 11
146.93234399999989
 21
-161.0
 31
0.0
  0
CIRCLE
  5
9D
  8
SIZE
  6
CONTINUOUS
 62
    30
 10
146.93234399999989
 20
-197.0
 30
0.0
 40
6.0
  0
LINE
  5
9E
  8
SIZE
  6
CONTINUOUS
 62
    30
 10
146.93234399999989
 20
-197.0
 30
0.0
 11
146.93234399999989
 21
-209.0
 31
0.0
  0
POINT
  5
9F
  8
DEFPOINTS
  6
CONTINUOUS
 62
    30
 10
0.0
 20
-173.0
 30
0.0
  0
POINT
  5
A0
  8
DEFPOINTS
  6
CONTINUOUS
 62
    30
 10
-11.5
 20
-197.0
 30
0.0
  0
POINT
  5
A1
  8
DEFPOINTS
  6
CONTINUOUS
 62
    30
 10
146.93234399999989
 20
-197.0
 30
0.0
  0
LINE
  5
A2
  8
SIZE
  6
CONTINUOUS
 62
    30
 10
195.66840199999999
 20
0.0
 30
0.0
 11
298.71674000000002
 21
0.0
 31
0.0
  0
LINE
  5
A3
  8
SIZE
  6
CONTINUOUS
 62
    30
 10
8.5
 20
-197.0
 30
0.0
 11
298.71674000000002
 21
-197.0
 31
0.0
  0
LINE
  5
A4
  8
SIZE
  6
CONTINUOUS
 62
    30
 10
278.71674000000002
 20
-12.0
 30
0.0
 11
278.71674000000002
 21
-185.0
 31
0.0
  0
LINE
  5
A5
  8
SIZE
  6
CONTINUOUS
 62
    30
 10
278.71674000000002
 20
-411.81403799999993
 30
0.0
 11
278.71674000000002
 21
-197.0
 31
0.0
  0
TEXT
  5
A6
  8
SIZE
  6
CONTINUOUS
 62
    30
 10
253.7167399999999
 20
-386.81403757142851
 30
0.0
 40
64.0
  1
197
 50
90.0
 41
0.9
 72
     1
 11
253.7167399999999
 21
-318.2426089999999
 31
0.0
  0
CIRCLE
  5
A7
  8
SIZE
  6
CONTINUOUS
 62
    30
 10
278.71674000000002
 20
0.0
 30
0.0
 40
6.0
  0
LINE
  5
A8
  8
SIZE
  6
CONTINUOUS
 62
    30
 10
278.71674000000002
 20
0.0
 30
0.0
 11
278.71674000000002
 21
-12.0
 31
0.0
  0
CIRCLE
  5
A9
  8
SIZE
  6
CONTINUOUS
 62
    30
 10
278.71674000000002
 20
-197.0
 30
0.0
 40
6.0
  0
LINE
  5
AA
  8
SIZE
  6
CONTINUOUS
 62
    30
 10
278.71674000000002
 20
-197.0
 30
0.0
 11
278.71674000000002
 21
-185.0
 31
0.0
  0
POINT
  5
AB
  8
DEFPOINTS
  6
CONTINUOUS
 62
    30
 10
175.66840199999999
 20
0.0
 30
0.0
  0
POINT
  5
AC
  8
DEFPOINTS
  6
CONTINUOUS
 62
    30
 10
-11.5
 20
-197.0
 30
0.0
  0
POINT
  5
AD
  8
DEFPOINTS
  6
CONTINUOUS
 62
    30
 10
278.71674000000002
 20
-197.0
 30
0.0
  0
LINE
  5
AE
  8
SIZE
  6
CONTINUOUS
 62
    30
 10
195.66840199999999
 20
0.0
 30
0.0
 11
298.71674000000002
 21
0.0
 31
0.0
  0
LINE
  5
AF
  8
SIZE
  6
CONTINUOUS
 62
    30
 10
40.0
 20
157.5
 30
0.0
 11
298.71674000000002
 21
157.5
 31
0.0
  0
LINE
  5
B0
  8
SIZE
  6
CONTINUOUS
 62
    30
 10
278.71674000000002
 20
12.0
 30
0.0
 11
278.71674000000002
 21
145.5
 31
0.0
  0
LINE
  5
B1
  8
SIZE
  6
CONTINUOUS
 62
    30
 10
278.71674000000002
 20
466.46956499999999
 30
0.0
 11
278.71674000000002
 21
157.5
 31
0.0
  0
TEXT
  5
B2
  8
SIZE
  6
CONTINUOUS
 62
    30
 10
253.7167399999999
 20
222.04099328571431
 30
0.0
 40
64.0
  1
157.5
 50
90.0
 41
0.9
 72
     1
 11
253.7167399999999
 21
331.75527899999997
 31
0.0
  0
CIRCLE
  5
B3
  8
SIZE
  6
CONTINUOUS
 62
    30
 10
278.71674000000002
 20
0.0
 30
0.0
 40
6.0
  0
LINE
  5
B4
  8
SIZE
  6
CONTINUOUS
 62
    30
 10
278.71674000000002
 20
0.0
 30
0.0
 11
278.71674000000002
 21
12.0
 31
0.0
  0
CIRCLE
  5
B5
  8
SIZE
  6
CONTINUOUS
 62
    30
 10
278.71674000000002
 20
157.5
 30
0.0
 40
6.0
  0
LINE
  5
B6
  8
SIZE
  6
CONTINUOUS
 62
    30
 10
278.71674000000002
 20
157.5
 30
0.0
 11
278.71674000000002
 21
145.5
 31
0.0
  0
POINT
  5
B7
  8
DEFPOINTS
  6
CONTINUOUS
 62
    30
 10
175.66840199999999
 20
0.0
 30
0.0
  0
POINT
  5
B8
  8
DEFPOINTS
  6
CONTINUOUS
 62
    30
 10
20.0
 20
157.5
 30
0.0
  0
POINT
  5
B9
  8
DEFPOINTS
  6
CONTINUOUS
 62
    30
 10
278.71674000000002
 20
157.5
 30
0.0
  0
LINE
  5
BA
  8
SIZE
  6
CONTINUOUS
 62
    30
 10
-20.0
 20
173.0
 30
0.0
 11
-229.49459899999999
 21
173.0
 31
0.0
  0
LINE
  5
BB
  8
SIZE
  6
CONTINUOUS
 62
    30
 10
-31.5
 20
-197.0
 30
0.0
 11
-229.49459899999999
 21
-197.0
 31
0.0
  0
LINE
  5
BC
  8
SIZE
  6
CONTINUOUS
 62
    30
 10
-209.49459899999991
 20
161.0
 30
0.0
 11
-209.49459899999991
 21
-185.0
 31
0.0
  0
CIRCLE
  5
BD
  8
SIZE
  6
CONTINUOUS
 62
    30
 10
-209.49459899999991
 20
173.0
 30
0.0
 40
6.0
  0
LINE
  5
BE
  8
SIZE
  6
CONTINUOUS
 62
    30
 10
-209.49459899999991
 20
173.0
 30
0.0
 11
-209.49459899999991
 21
161.0
 31
0.0
  0
CIRCLE
  5
BF
  8
SIZE
  6
CONTINUOUS
 62
    30
 10
-209.49459899999991
 20
-197.0
 30
0.0
 40
6.0
  0
LINE
  5
C0
  8
SIZE
  6
CONTINUOUS
 62
    30
 10
-209.49459899999991
 20
-197.0
 30
0.0
 11
-209.49459899999991
 21
-185.0
 31
0.0
  0
TEXT
  5
C1
  8
SIZE
  6
CONTINUOUS
 62
    30
 10
-234.49459899999999
 20
-86.057142857142836
 30
0.0
 40
64.0
  1
370
 50
90.0
 41
0.9
 72
     1
 11
-234.49459899999999
 21
-12.0
 31
0.0
  0
POINT
  5
C2
  8
DEFPOINTS
  6
CONTINUOUS
 62
    30
 10
0.0
 20
173.0
 30
0.0
  0
POINT
  5
C3
  8
DEFPOINTS
  6
CONTINUOUS
 62
    30
 10
-11.5
 20
-197.0
 30
0.0
  0
POINT
  5
C4
  8
DEFPOINTS
  6
CONTINUOUS
 62
    30
 10
-209.49459899999991
 20
-197.0
 30
0.0
  0
LINE
  5
C5
  8
SIZE
  6
CONTINUOUS
 62
    30
 10
40.0
 20
157.5
 30
0.0
 11
531.768776
 21
157.5
 31
0.0
  0
LINE
  5
C6
  8
SIZE
  6
CONTINUOUS
 62
    30
 10
40.0
 20
-157.5
 30
0.0
 11
531.768776
 21
-157.5
 31
0.0
  0
LINE
  5
C7
  8
SIZE
  6
CONTINUOUS
 62
    30
 10
511.76877599999989
 20
145.5
 30
0.0
 11
511.76877599999989
 21
-145.5
 31
0.0
  0
CIRCLE
  5
C8
  8
SIZE
  6
CONTINUOUS
 62
    30
 10
511.76877599999989
 20
157.5
 30
0.0
 40
6.0
  0
LINE
  5
C9
  8
SIZE
  6
CONTINUOUS
 62
    30
 10
511.76877599999989
 20
157.5
 30
0.0
 11
511.76877599999989
 21
145.5
 31
0.0
  0
CIRCLE
  5
CA
  8
SIZE
  6
CONTINUOUS
 62
    30
 10
511.76877599999989
 20
-157.5
 30
0.0
 40
6.0
  0
LINE
  5
CB
  8
SIZE
  6
CONTINUOUS
 62
    30
 10
511.76877599999989
 20
-157.5
 30
0.0
 11
511.76877599999989
 21
-145.5
 31
0.0
  0
TEXT
  5
CC
  8
SIZE
  6
CONTINUOUS
 62
    30
 10
486.76877599999989
 20
-68.571428571428569
 30
0.0
 40
64.0
  1
315
 50
90.0
 41
0.9
 72
     1
 11
486.76877599999989
 21
0.0
 31
0.0
  0
POINT
  5
CD
  8
DEFPOINTS
  6
CONTINUOUS
 62
    30
 10
20.0
 20
157.5
 30
0.0
  0
POINT
  5
CE
  8
DEFPOINTS
  6
CONTINUOUS
 62
    30
 10
20.0
 20
-157.5
 30
0.0
  0
POINT
  5
CF
  8
DEFPOINTS
  6
CONTINUOUS
 62
    30
 10
511.76877599999989
 20
-157.5
 30
0.0
  0
LINE
  5
D0
  8
SIZE
  6
CONTINUOUS
 62
    30
 10
-48.0
 20
154.0
 30
0.0
 11
-48.0
 21
285.17878899999999
 31
0.0
  0
LINE
  5
D1
  8
SIZE
  6
CONTINUOUS
 62
    30
 10
-31.0
 20
147.962751
 30
0.0
 11
-31.0
 21
285.17878899999999
 31
0.0
  0
LINE
  5
D2
  8
SIZE
  6
CONTINUOUS
 62
    30
 10
-60.0
 20
265.17878899999999
 30
0.0
 11
-72.0
 21
265.17878899999999
 31
0.0
  0
LINE
  5
D3
  8
SIZE
  6
CONTINUOUS
 62
    30
 10
-19.0
 20
265.17878899999999
 30
0.0
 11
-7.0
 21
265.17878899999999
 31
0.0
  0
LINE
  5
D4
  8
SIZE
  6
CONTINUOUS
 62
    30
 10
-225.70908299999999
 20
265.17878899999999
 30
0.0
 11
-48.0
 21
265.17878899999999
 31
0.0
  0
TEXT
  5
D5
  8
SIZE
  6
CONTINUOUS
 62
    30
 10
-200.70908314285711
 20
290.17878899999988
 30
0.0
 40
64.0
  1
17
 41
0.9
 72
     1
 11
-159.566226
 21
290.17878899999988
 31
0.0
  0
LINE
  5
D6
  8
SIZE
  6
CONTINUOUS
 62
    30
 10
-48.0
 20
265.17878899999999
 30
0.0
 11
-31.0
 21
265.17878899999999
 31
0.0
  0
LINE
  5
D7
  8
SIZE
  6
CONTINUOUS
 62
    30
 10
-48.0
 20
265.17878899999999
 30
0.0
 11
-31.0
 21
265.17878899999999
 31
0.0
  0
CIRCLE
  5
D8
  8
SIZE
  6
CONTINUOUS
 62
    30
 10
-48.0
 20
265.17878899999999
 30
0.0
 40
6.0
  0
LINE
  5
D9
  8
SIZE
  6
CONTINUOUS
 62
    30
 10
-48.0
 20
265.17878899999999
 30
0.0
 11
-60.0
 21
265.17878899999999
 31
0.0
  0
CIRCLE
  5
DA
  8
SIZE
  6
CONTINUOUS
 62
    30
 10
-31.0
 20
265.17878899999999
 30
0.0
 40
6.0
  0
LINE
  5
DB
  8
SIZE
  6
CONTINUOUS
 62
    30
 10
-31.0
 20
265.17878899999999
 30
0.0
 11
-19.0
 21
265.17878899999999
 31
0.0
  0
POINT
  5
DC
  8
DEFPOINTS
  6
CONTINUOUS
 62
    30
 10
-48.0
 20
134.0
 30
0.0
  0
POINT
  5
DD
  8
DEFPOINTS
  6
CONTINUOUS
 62
    30
 10
-31.0
 20
127.962751
 30
0.0
  0
POINT
  5
DE
  8
DEFPOINTS
  6
CONTINUOUS
 62
    30
 10
-31.0
 20
265.17878899999999
 30
0.0
  0
LINE
  5
DF
  8
SIZE
  6
CONTINUOUS
 62
    30
 10
-48.0
 20
154.0
 30
0.0
 11
-48.0
 21
408.55883899999998
 31
0.0
  0
LINE
  5
E0
  8
SIZE
  6
CONTINUOUS
 62
    30
 10
0.0
 20
193.0
 30
0.0
 11
0.0
 21
408.55883899999998
 31
0.0
  0
LINE
  5
E1
  8
SIZE
  6
CONTINUOUS
 62
    30
 10
-60.0
 20
388.55883899999998
 30
0.0
 11
-72.0
 21
388.55883899999998
 31
0.0
  0
LINE
  5
E2
  8
SIZE
  6
CONTINUOUS
 62
    30
 10
12.0
 20
388.55883899999998
 30
0.0
 11
24.0
 21
388.55883899999998
 31
0.0
  0
LINE
  5
E3
  8
SIZE
  6
CONTINUOUS
 62
    30
 10
-230.1990339999999
 20
388.55883899999998
 30
0.0
 11
-48.0
 21
388.55883899999998
 31
0.0
  0
TEXT
  5
E4
  8
SIZE
  6
CONTINUOUS
 62
    30
 10
-205.19903442857139
 20
413.55883899999998
 30
0.0
 40
64.0
  1
48
 41
0.9
 72
     1
 11
-158.5704629999999
 21
413.55883899999998
 31
0.0
  0
LINE
  5
E5
  8
SIZE
  6
CONTINUOUS
 62
    30
 10
-48.0
 20
388.55883899999998
 30
0.0
 11
0.0
 21
388.55883899999998
 31
0.0
  0
LINE
  5
E6
  8
SIZE
  6
CONTINUOUS
 62
    30
 10
-48.0
 20
388.55883899999998
 30
0.0
 11
0.0
 21
388.55883899999998
 31
0.0
  0
CIRCLE
  5
E7
  8
SIZE
  6
CONTINUOUS
 62
    30
 10
-48.0
 20
388.55883899999998
 30
0.0
 40
6.0
  0
LINE
  5
E8
  8
SIZE
  6
CONTINUOUS
 62
    30
 10
-48.0
 20
388.55883899999998
 30
0.0
 11
-60.0
 21
388.55883899999998
 31
0.0
  0
CIRCLE
  5
E9
  8
SIZE
  6
CONTINUOUS
 62
    30
 10
0.0
 20
388.55883899999998
 30
0.0
 40
6.0
  0
LINE
  5
EA
  8
SIZE
  6
CONTINUOUS
 62
    30
 10
0.0
 20
388.55883899999998
 30
0.0
 11
12.0
 21
388.55883899999998
 31
0.0
  0
POINT
  5
EB
  8
DEFPOINTS
  6
CONTINUOUS
 62
    30
 10
-48.0
 20
134.0
 30
0.0
  0
POINT
  5
EC
  8
DEFPOINTS
  6
CONTINUOUS
 62
    30
 10
0.0
 20
173.0
 30
0.0
  0
POINT
  5
ED
  8
DEFPOINTS
  6
CONTINUOUS
 62
    30
 10
0.0
 20
388.55883899999998
 30
0.0
  0
LINE
  5
EE
  8
SIZE
  6
CONTINUOUS
 62
    30
 10
0.0
 20
193.0
 30
0.0
 11
0.0
 21
408.55883899999998
 31
0.0
  0
LINE
  5
EF
  8
SIZE
  6
CONTINUOUS
 62
    30
 10
120.0
 20
165.0
 30
0.0
 11
120.0
 21
408.55883899999998
 31
0.0
  0
LINE
  5
F0
  8
SIZE
  6
CONTINUOUS
 62
    30
 10
-12.0
 20
388.55883899999998
 30
0.0
 11
-24.0
 21
388.55883899999998
 31
0.0
  0
LINE
  5
F1
  8
SIZE
  6
CONTINUOUS
 62
    30
 10
132.0
 20
388.55883899999998
 30
0.0
 11
144.0
 21
388.55883899999998
 31
0.0
  0
LINE
  5
F2
  8
SIZE
  6
CONTINUOUS
 62
    30
 10
0.0
 20
388.55883899999998
 30
0.0
 11
120.0
 21
388.55883899999998
 31
0.0
  0
CIRCLE
  5
F3
  8
SIZE
  6
CONTINUOUS
 62
    30
 10
0.0
 20
388.55883899999998
 30
0.0
 40
6.0
  0
LINE
  5
F4
  8
SIZE
  6
CONTINUOUS
 62
    30
 10
0.0
 20
388.55883899999998
 30
0.0
 11
-12.0
 21
388.55883899999998
 31
0.0
  0
CIRCLE
  5
F5
  8
SIZE
  6
CONTINUOUS
 62
    30
 10
120.0
 20
388.55883899999998
 30
0.0
 40
6.0
  0
LINE
  5
F6
  8
SIZE
  6
CONTINUOUS
 62
    30
 10
120.0
 20
388.55883899999998
 30
0.0
 11
132.0
 21
388.55883899999998
 31
0.0
  0
TEXT
  5
F7
  8
SIZE
  6
CONTINUOUS
 62
    30
 10
-8.5714285714285694
 20
413.55883899999998
 30
0.0
 40
64.0
  1
120
 41
0.9
 72
     1
 11
60.0
 21
413.55883899999998
 31
0.0
  0
POINT
  5
F8
  8
DEFPOINTS
  6
CONTINUOUS
 62
    30
 10
0.0
 20
173.0
 30
0.0
  0
POINT
  5
F9
  8
DEFPOINTS
  6
CONTINUOUS
 62
    30
 10
120.0
 20
145.0
 30
0.0
  0
POINT
  5
FA
  8
DEFPOINTS
  6
CONTINUOUS
 62
    30
 10
120.0
 20
388.55883899999998
 30
0.0
  0
LINE
  5
FB
  8
NOTE
  6
CONTINUOUS
 62
     4
 39
50.0
 10
0.0
 20
-157.5
 30
0.0
 11
-205.78089099999991
 21
-320.95467599999989
 31
0.0
  0
LINE
  5
FC
  8
NOTE
  6
CONTINUOUS
 62
     4
 39
50.0
 10
-205.78089099999991
 20
-320.95467599999989
 30
0.0
 11
-467.7443429999999
 21
-320.95467599999989
 31
0.0
  0
TEXT
  5
FD
  8
NOTE
  6
CONTINUOUS
 62
     4
 10
-456.9267769999999
 20
-297.767878
 30
0.0
 40
64.0
  1
4-φ5
 41
0.9
  0
LINE
  5
FE
  8
NOTE
  6
CONTINUOUS
 62
     4
 10
-36.387816000000001
 20
-174.1110459999999
 30
0.0
 11
0.0
 21
-157.5
 31
0.0
  0
LINE
  5
FF
  8
NOTE
  6
CONTINUOUS
 62
     4
 10
0.0
 20
-157.5
 30
0.0
 11
-23.207249999999991
 21
-190.07949599999989
 31
0.0
  0
LINE
  5
100
  8
OUTLINE
  6
CONTINUOUS
 62
     3
 10
120.0
 20
-145.0
 30
0.0
 11
0.0
 21
-145.0
 31
0.0
  0
LINE
  5
101
  8
OUTLINE
  6
CONTINUOUS
 62
     3
 10
120.0
 20
145.0
 30
0.0
 11
0.0
 21
145.0
 31
0.0
  0
ARC
  5
102
  8
OUTLINE
  6
CONTINUOUS
 62
     3
 10
-30.0
 20
-173.0
 30
0.0
 40
30.0
 50
317.69501000000002
 51
0.0
  0
LINE
  5
103
  8
OUTLINE
  6
CONTINUOUS
 62
     3
 10
0.0
 20
173.0
 30
0.0
 11
0.0
 21
-120.0
 31
0.0
  0
LINE
  5
104
  8
OUTLINE
  6
CONTINUOUS
 62
     3
 10
-48.0
 20
134.0
 30
0.0
 11
-48.0
 21
-134.0
 31
0.0
  0
ARC
  5
105
  8
OUTLINE
  6
CONTINUOUS
 62
     3
 10
-20.682517000000001
 20
-177.0
 30
0.0
 40
20.0
 50
199.31547099999989
 51
270.0
  0
LINE
  5
106
  8
OUTLINE
  6
CONTINUOUS
 62
     3
 10
-10.0
 20
-174.0
 30
0.0
 11
-10.0
 21
-195.5
 31
0.0
  0
LINE
  5
107
  8
OUTLINE
  6
CONTINUOUS
 62
     3
 10
-11.5
 20
-197.0
 30
0.0
 11
-20.682517000000001
 21
-197.0
 31
0.0
  0
ARC
  5
108
  8
OUTLINE
  6
CONTINUOUS
 62
     3
 10
-11.5
 20
-195.5
 30
0.0
 40
1.5
 50
270.0
 51
0.0
  0
ARC
  5
109
  8
OUTLINE
  6
CONTINUOUS
 62
     3
 10
-10.771114999999989
 20
-190.5
 30
0.0
 40
4.0
 50
281.1149999999999
 51
317.69501000000002
  0
LINE
  5
10A
  8
OUTLINE
  6
CONTINUOUS
 62
     3
 10
-10.0
 20
-190.5
 30
0.0
 11
-10.0
 21
-193.5
 31
0.0
  0
LINE
  5
10B
  8
OUTLINE
  6
CONTINUOUS
 62
     3
 10
0.0
 20
0.0
 30
0.0
 11
0.0
 21
-144.5
 31
0.0
  0
LINE
  5
10C
  8
OUTLINE
  6
CONTINUOUS
 62
     3
 10
0.0
 20
-173.0
 30
0.0
 11
-42.841291999999989
 21
-173.0
 31
0.0
  0
ARC
  5
10D
  8
OUTLINE
  6
CONTINUOUS
 62
     3
 10
102.0
 20
-134.0
 30
0.0
 40
150.0
 50
195.07006200000001
 51
199.31547099999989
  0
ARC
  5
10E
  8
OUTLINE
  6
CONTINUOUS
 62
     3
 10
102.0
 20
-134.0
 30
0.0
 40
150.0
 50
180.0
 51
195.07006200000001
  0
LINE
  5
10F
  8
OUTLINE
  6
CONTINUOUS
 62
     3
 10
0.0
 20
-173.0
 30
0.0
 11
-26.939017
 21
-173.0
 31
0.0
  0
LINE
  5
110
  8
OUTLINE
  6
CONTINUOUS
 62
     3
 10
-10.0
 20
-173.0
 30
0.0
 11
-10.0
 21
-180.0
 31
0.0
  0
LINE
  5
111
  8
OUTLINE
  6
CONTINUOUS
 62
     3
 10
0.0
 20
-130.0
 30
0.0
 11
0.0
 21
-173.0
 31
0.0
  0
LINE
  5
112
  8
OUTLINE
  6
CONTINUOUS
 62
     3
 10
-10.458
 20
-173.0
 30
0.0
 11
-10.602
 21
-173.0
 31
0.0
  0
LINE
  5
113
  8
OUTLINE
  6
CONTINUOUS
 62
     3
 10
-10.0
 20
-182.0
 30
0.0
 11
-10.0
 21
-188.49999999999989
 31
0.0
  0
ARC
  5
114
  8
OUTLINE
  6
CONTINUOUS
 62
     3
 10
-26.682327999999998
 20
152.462354
 30
0.0
 40
20.0
 50
91.145763000000017
 51
145.14583899999991
  0
LINE
  5
115
  8
OUTLINE
  6
CONTINUOUS
 62
     3
 10
0.0
 20
173.0
 30
0.0
 11
-27.082247999999989
 21
172.45835500000001
 31
0.0
  0
ARC
  5
116
  8
OUTLINE
  6
CONTINUOUS
 62
     3
 10
102.0
 20
134.0
 30
0.0
 40
150.0
 50
171.83535800000001
 51
180.0
  0
ARC
  5
117
  8
OUTLINE
  6
CONTINUOUS
 62
     3
 10
-26.682327999999998
 20
152.462354
 30
0.0
 40
20.0
 50
148.10952700000001
 51
171.83535800000001
  0
ARC
  5
118
  8
OUTLINE
  6
CONTINUOUS
 62
     3
 10
-26.682327999999998
 20
152.462354
 30
0.0
 40
20.0
 50
146.50375699999989
 51
163.925781
  0
LINE
  5
119
  8
OUTLINE
  6
CONTINUOUS
 62
     3
 10
120.0
 20
145.0
 30
0.0
 11
120.0
 21
-145.0
 31
0.0
  0
TEXT
  5
124
  8
ETC
  6
CONTINUOUS
 62
    61
 10
497.85548766835478
 20
461.52035765440883
 30
0.0
 40
64.0
  1
EX-25EF5_4
 41
0.9
  0
TEXT
  5
125
  8
ETC
  6
CONTINUOUS
 62
    61
 10
489.78200966835482
 20
363.50163265440881
 30
0.0
 40
64.0
  1
換気扇
 41
0.9
  0
TEXT
  5
126
  8
ETC
  6
CONTINUOUS
 62
    61
 10
633.62450997651035
 20
189.95961974250321
 30
0.0
 40
50.0
  1
EX-25LF5
 41
0.9
  0
TEXT
  5
127
  8
ETC
  6
CONTINUOUS
 62
    61
 10
631.37131380593405
 20
270.38179678440667
 30
0.0
 40
50.0
  1
EX-25EF5
 41
0.9
  0
ENDSEC
  0
EOF
