  0
SECTION
  2
HEADER
  9
$ACADVER
  1
AC1009
  9
$DWGCODEPAGE
  3
dos932
  9
$INSBASE
 10
0.0
 20
0.0
 30
0.0
  9
$EXTMIN
 10
-590.50138720835457
 20
-224.94505639763699
 30
-0.0015257624927045
  9
$EXTMAX
 10
811.20301424665558
 20
573.89832343195849
 30
0.0022888765696933
  9
$LIMMIN
 10
-2970.0
 20
-2100.0
  9
$LIMMAX
 10
2970.0
 20
2100.0
  9
$ORTHOMODE
 70
     1
  9
$REGENMODE
 70
     1
  9
$FILLMODE
 70
     1
  9
$QTEXTMODE
 70
     0
  9
$MIRRTEXT
 70
     0
  9
$LTSCALE
 40
20.0
  9
$ATTMODE
 70
     1
  9
$TEXTSIZE
 40
64.0
  9
$TRACEWID
 40
0.05
  9
$TEXTSTYLE
  7
STANDARD
  9
$CLAYER
  8
NOTE
  9
$CELTYPE
  6
CONTINUOUS
  9
$CECOLOR
 62
     7
  9
$DIMSCALE
 40
1.0
  9
$DIMASZ
 40
12.0
  9
$DIMEXO
 40
20.0
  9
$DIMDLI
 40
200.0
  9
$DIMRND
 40
0.0
  9
$DIMDLE
 40
0.0
  9
$DIMEXE
 40
20.0
  9
$DIMTP
 40
0.0
  9
$DIMTM
 40
0.0
  9
$DIMTXT
 40
64.0
  9
$DIMCEN
 40
0.09
  9
$DIMTSZ
 40
0.0
  9
$DIMTOL
 70
     0
  9
$DIMLIM
 70
     0
  9
$DIMTIH
 70
     0
  9
$DIMTOH
 70
     0
  9
$DIMSE1
 70
     0
  9
$DIMSE2
 70
     0
  9
$DIMTAD
 70
     1
  9
$DIMZIN
 70
     8
  9
$DIMBLK
  1

  9
$DIMASO
 70
     1
  9
$DIMSHO
 70
     0
  9
$DIMPOST
  1

  9
$DIMAPOST
  1

  9
$DIMALT
 70
     0
  9
$DIMALTD
 70
     2
  9
$DIMALTF
 40
25.399999999999999
  9
$DIMLFAC
 40
1.0
  9
$DIMTOFL
 70
     1
  9
$DIMTVP
 40
0.0
  9
$DIMTIX
 70
     1
  9
$DIMSOXD
 70
     0
  9
$DIMSAH
 70
     0
  9
$DIMBLK1
  1

  9
$DIMBLK2
  1

  9
$DIMSTYLE
  2
STANDARD
  9
$DIMCLRD
 70
     7
  9
$DIMCLRE
 70
     7
  9
$DIMCLRT
 70
     7
  9
$DIMTFAC
 40
1.0
  9
$DIMGAP
 40
25.0
  9
$LUNITS
 70
     2
  9
$LUPREC
 70
     4
  9
$SKETCHINC
 40
0.1
  9
$FILLETRAD
 40
3.0
  9
$AUNITS
 70
     1
  9
$AUPREC
 70
     3
  9
$MENU
  1
ACAD
  9
$ELEVATION
 40
0.0
  9
$PELEVATION
 40
0.0
  9
$THICKNESS
 40
50.0
  9
$LIMCHECK
 70
     0
  9
$CHAMFERA
 40
0.0
  9
$CHAMFERB
 40
0.0
  9
$SKPOLY
 70
     0
  9
$TDCREATE
 40
2453019.62301037
  9
$TDUPDATE
 40
2459017.509890602
  9
$TDINDWG
 40
1.7124639931
  9
$TDUSRTIMER
 40
1.7124639931
  9
$USRTIMER
 70
     1
  9
$ANGBASE
 50
0.0
  9
$ANGDIR
 70
     0
  9
$PDMODE
 70
     3
  9
$PDSIZE
 40
-2.0
  9
$PLINEWID
 40
0.0
  9
$SPLFRAME
 70
     0
  9
$SPLINETYPE
 70
     6
  9
$SPLINESEGS
 70
     8
  9
$SURFTAB1
 70
     6
  9
$SURFTAB2
 70
     6
  9
$SURFTYPE
 70
     6
  9
$SURFU
 70
     6
  9
$SURFV
 70
     6
  9
$UCSNAME
  2

  9
$UCSORG
 10
0.0
 20
0.0
 30
0.0
  9
$UCSXDIR
 10
1.0
 20
0.0
 30
0.0
  9
$UCSYDIR
 10
0.0
 20
1.0
 30
0.0
  9
$PUCSNAME
  2

  9
$PUCSORG
 10
0.0
 20
0.0
 30
0.0
  9
$PUCSXDIR
 10
1.0
 20
0.0
 30
0.0
  9
$PUCSYDIR
 10
0.0
 20
1.0
 30
0.0
  9
$USERI1
 70
     0
  9
$USERI2
 70
     0
  9
$USERI3
 70
     0
  9
$USERI4
 70
     0
  9
$USERI5
 70
     0
  9
$USERR1
 40
20.0
  9
$USERR2
 40
0.0
  9
$USERR3
 40
0.0
  9
$USERR4
 40
0.0
  9
$USERR5
 40
0.0
  9
$WORLDVIEW
 70
     1
  9
$SHADEDGE
 70
     3
  9
$SHADEDIF
 70
    70
  9
$TILEMODE
 70
     1
  9
$MAXACTVP
 70
    48
  9
$PINSBASE
 10
0.0
 20
0.0
 30
0.0
  9
$PLIMCHECK
 70
     0
  9
$PEXTMIN
 10
-100000000000000000000.0
 20
-100000000000000000000.0
 30
-100000000000000000000.0
  9
$PEXTMAX
 10
100000000000000000000.0
 20
100000000000000000000.0
 30
100000000000000000000.0
  9
$PLIMMIN
 10
0.0
 20
0.0
  9
$PLIMMAX
 10
12.0
 20
9.0
  9
$UNITMODE
 70
     0
  9
$VISRETAIN
 70
     0
  9
$PLINEGEN
 70
     0
  9
$PSLTSCALE
 70
     0
  9
$TREEDEPTH
 70
  3020
  9
$ATTDIA
 70
     0
  9
$ATTREQ
 70
     1
  9
$BLIPMODE
 70
     1
  9
$COORDS
 70
     1
  9
$DRAGMODE
 70
     2
  9
$OSMODE
 70
     0
  9
$HANDLING
 70
     0
  9
$HANDSEED
  5
E5FA
  0
ENDSEC
  0
SECTION
  2
TABLES
  0
TABLE
  2
LTYPE
 70
     2
  0
LTYPE
  2
CONTINUOUS
 70
     0
  3
実線
 72
    65
 73
     0
 40
0.0
  0
LTYPE
  2
DASHDOT
 70
     0
  3
____ _ ____ _ ____ _ ____ _ ____ _ ____ _ ____
 72
    65
 73
     4
 40
5.5
 49
4.0
 49
-0.6
 49
0.3
 49
-0.6
  0
ENDTAB
  0
TABLE
  2
LAYER
 70
    12
  0
LAYER
  2
0
 70
     0
 62
     7
  6
CONTINUOUS
  0
LAYER
  2
BASIS
 70
     0
 62
     6
  6
DASHDOT
  0
LAYER
  2
OUTLINE
 70
     0
 62
     3
  6
CONTINUOUS
  0
LAYER
  2
DETAIL
 70
     0
 62
     5
  6
CONTINUOUS
  0
LAYER
  2
SIZE
 70
     0
 62
    30
  6
CONTINUOUS
  0
LAYER
  2
ARRANGE
 70
     0
 62
     1
  6
CONTINUOUS
  0
LAYER
  2
ETC
 70
     0
 62
    61
  6
CONTINUOUS
  0
LAYER
  2
FIX
 70
     0
 62
    11
  6
CONTINUOUS
  0
LAYER
  2
NOTE
 70
     0
 62
     4
  6
CONTINUOUS
  0
LAYER
  2
DEFPOINTS
 70
    64
 62
     7
  6
CONTINUOUS
  0
LAYER
  2
SERVICESPACE
 70
    64
 62
     2
  6
DASHDOT
  0
LAYER
  2
SYMBOLLINE
 70
    64
 62
    15
  6
CONTINUOUS
  0
ENDTAB
  0
TABLE
  2
STYLE
 70
     1
  0
STYLE
  2
STANDARD
 70
     0
 40
64.0
 41
0.9
 50
0.0
 71
     0
 42
64.0
  3
SIMPLEX.shx
  4
BIGFONT.shx
  0
ENDTAB
  0
TABLE
  2
APPID
 70
    17
  0
APPID
  2
ACAD
 70
     0
  0
APPID
  2
AUTOCAD_POSTSCRIPT_FIGURE
 70
     0
  0
APPID
  2
ACAD_EXEMPT_FROM_CAD_STANDARDS
 70
     0
  0
APPID
  2
ACAD_PSEXT
 70
     0
  0
APPID
  2
ACAUTHENVIRON
 70
     0
  0
APPID
  2
GENIUS_GENOENT_13
 70
     0
  0
APPID
  2
GENIUS_GENCFG_13
 70
     0
  0
APPID
  2
GENIUS_GENCFG0_13
 70
     0
  0
APPID
  2
GENIUS_GENCFG1_13
 70
     0
  0
APPID
  2
GENIUS_GENCFG2_13
 70
     0
  0
APPID
  2
GENIUS_GENCFG3_13
 70
     0
  0
APPID
  2
GENIUS_GENCFG4_13
 70
     0
  0
APPID
  2
GENIUS_GEVCFG0_13
 70
     0
  0
APPID
  2
CONTENTBLOCKICON
 70
     0
  0
APPID
  2
CONTENTBLOCKDESCRIPTION
 70
     0
  0
APPID
  2
ACAD_NAV_VCDISPLAY
 70
     0
  0
APPID
  2
ACAD_MLEADERVER
 70
     0
  0
ENDTAB
  0
TABLE
  2
DIMSTYLE
 70
     1
  0
DIMSTYLE
  2
STANDARD
 70
     0
  3

  4

  5
_ORIGIN
  6

  7

 40
1.0
 41
12.0
 42
20.0
 43
200.0
 44
20.0
 45
0.0
 46
0.0
 47
0.0
 48
0.0
140
64.0
141
0.09
142
0.0
143
25.399999999999999
144
1.0
145
0.0
146
1.0
147
25.0
 71
     0
 72
     0
 73
     0
 74
     0
 75
     0
 76
     0
 77
     1
 78
     8
170
     0
171
     2
172
     1
173
     0
174
     1
175
     0
176
     7
177
     7
178
     7
  0
ENDTAB
  0
TABLE
  2
VIEW
 70
     1
  0
VIEW
  2
ALL
 70
     0
 40
4282.6198079999986
 10
0.0
 20
41.309904000000003
 41
5940.0
 11
0.0
 21
0.0
 31
1.0
 12
0.0
 22
0.0
 32
0.0
 42
50.0
 43
0.0
 44
0.0
 50
0.0
 71
     0
  0
ENDTAB
  0
TABLE
  2
UCS
 70
     0
  0
ENDTAB
  0
TABLE
  2
VPORT
 70
     1
  0
VPORT
  2
*ACTIVE
 70
     0
 10
0.0
 20
0.0
 11
1.0
 21
1.0
 12
110.35081351915051
 22
174.47663351716071
 13
0.0
 23
0.0
 14
1.0
 24
1.0
 15
0.0
 25
0.0
 16
0.0
 26
0.0
 36
1.0
 17
0.0
 27
0.0
 37
0.0
 40
805.02999296041151
 41
1.747787610619469
 42
50.0
 43
0.0
 44
0.0
 50
0.0
 51
0.0
 71
     0
 72
  1000
 73
     1
 74
     3
 75
     0
 76
     0
 77
     0
 78
     0
  0
ENDTAB
  0
ENDSEC
  0
SECTION
  2
BLOCKS
  0
BLOCK
  8
0
  2
_ORIGIN
 70
     0
 10
0.0
 20
0.0
 30
0.0
  3
_ORIGIN
  1
_ORIGIN
  0
CIRCLE
  8
0
  6
CONTINUOUS
 62
     7
 10
0.0
 20
0.0
 30
0.0
 40
0.5
  0
LINE
  8
0
  6
CONTINUOUS
 62
     7
 10
0.0
 20
0.0
 30
0.0
 11
-1.0
 21
0.0
 31
0.0
  0
ENDBLK
  8
0
  0
ENDSEC
  0
SECTION
  2
ENTITIES
  0
CIRCLE
  8
ARRANGE
  6
CONTINUOUS
 62
     1
 10
0.0
 20
0.0
 30
0.0
 40
40.0
  0
POINT
  8
ARRANGE
  6
CONTINUOUS
 62
     1
 10
0.0
 20
0.0
 30
0.0
  0
LINE
  8
BASIS
  6
DASHDOT
 62
     6
 10
-0.0000171685655914
 20
-76.541830554236185
 30
0.0
 11
0.0000080399240687
 21
179.11560069721219
 31
0.0
  0
CIRCLE
  8
FIX
  6
CONTINUOUS
 62
    11
 10
-85.0
 20
0.0
 30
0.0
 40
2.5
  0
LINE
  8
BASIS
  6
DASHDOT
 62
     6
 10
-105.9825461708847
 20
0.0
 30
0.0
 11
-64.017453829115311
 21
0.0
 31
0.0
  0
LINE
  8
BASIS
  6
DASHDOT
 62
     6
 10
-85.000017168565591
 20
-26.0
 30
0.0
 11
-85.0
 21
20.0
 31
0.0
  0
CIRCLE
  8
FIX
  6
CONTINUOUS
 62
    11
 10
85.0
 20
0.0
 30
0.0
 40
2.5
  0
LINE
  8
BASIS
  6
DASHDOT
 62
     6
 10
84.999982831434409
 20
-26.0
 30
0.0
 11
85.0
 21
20.0
 31
0.0
  0
LINE
  8
NOTE
  6
CONTINUOUS
 62
     4
 10
-89.233356058432946
 20
11.228480858677131
 30
0.0
 11
-225.27457053246789
 21
354.34610247792187
 31
0.0
  0
LINE
  8
NOTE
  6
CONTINUOUS
 62
     4
 10
-590.0893357509218
 20
354.34614508214599
 30
0.0
 11
-225.27457053246789
 21
354.34610247792187
 31
0.0
  0
TEXT
  8
NOTE
  6
CONTINUOUS
 62
     4
 10
-575.63558974295529
 20
375.94796650244552
 30
0.0
 40
64.0
  1
4-φ5×8
 50
359.9999937379431
 41
0.9
  0
CIRCLE
  8
DETAIL
  6
CONTINUOUS
 62
     5
 10
-105.0
 20
29.999999999999488
 30
0.0
 40
2.9952893918751951
  0
LINE
  8
NOTE
  6
CONTINUOUS
 62
     4
 10
-146.9163793374012
 20
0.0
 30
0.0
 11
-188.38918656147669
 21
0.0
 31
0.0
  0
TEXT
  8
NOTE
  6
CONTINUOUS
 62
     4
 10
-324.28281893317347
 20
196.90164655747279
 30
0.0
 40
64.0
  1
EL
 41
0.9
 72
     2
 11
-239.25424750460209
 21
196.90164655747279
 31
0.0
  0
LINE
  8
NOTE
  6
CONTINUOUS
 62
     4
 10
-172.77149079640779
 20
6.2074538124639957
 30
0.0
 11
-173.0
 21
0.0
 31
0.0
  0
LINE
  8
NOTE
  6
CONTINUOUS
 62
     4
 10
-173.0
 20
0.0
 30
0.0
 11
-175.9058404041418
 21
5.4900629172767026
 31
0.0
  0
LINE
  8
NOTE
  6
CONTINUOUS
 62
     4
 10
-173.0
 20
0.0
 30
0.0
 11
-175.67733120054979
 21
11.6975167297407
 31
0.0
  0
LINE
  8
NOTE
  6
CONTINUOUS
 62
     4
 10
-175.67733120054979
 20
11.69751672974067
 30
0.0
 11
-214.06717638844839
 21
178.96961362630961
 31
0.0
  0
LINE
  8
NOTE
  6
CONTINUOUS
 62
     4
 10
-214.06717638844839
 20
178.96961362630961
 30
0.0
 11
-336.09574781701991
 21
178.96961362630961
 31
0.0
  0
LINE
  8
NOTE
  6
CONTINUOUS
 62
     4
 10
-85.612341961642414
 20
6.1814068349636102
 30
0.0
 11
-84.999998093241629
 21
0.0000045444770933
 31
0.0
  0
LINE
  8
NOTE
  6
CONTINUOUS
 62
     4
 10
-84.999998093241629
 20
0.0000045444770933
 30
0.0
 11
-88.621012190032161
 21
5.0470785681906136
 31
0.0
  0
LINE
  8
NOTE
  6
CONTINUOUS
 62
     4
 10
-84.999998093241629
 20
0.0000045444770933
 30
0.0
 11
-89.233356058432946
 21
11.228480858677131
 31
0.0
  0
CIRCLE
  8
DETAIL
  6
CONTINUOUS
 62
     5
 10
104.999984129727
 20
29.999986988507601
 30
0.0
 40
2.9952893918751928
  0
LINE
  8
DETAIL
  6
CONTINUOUS
 62
     5
 10
0.0
 20
0.0
 30
0.0
 11
144.5
 21
0.0
 31
0.0
  0
LINE
  8
DETAIL
  6
CONTINUOUS
 62
     5
 10
130.0
 20
0.0
 30
0.0
 11
173.0
 21
0.0
 31
0.0
  0
ARC
  8
DETAIL
  6
CONTINUOUS
 62
     5
 10
-127.962751
 20
-69.713529999999992
 30
0.0
 40
34.713529999999999
 50
90.0
 51
137.23413600000231
  0
ARC
  8
DETAIL
  6
CONTINUOUS
 62
     5
 10
-128.0
 20
-78.427730000000025
 30
0.0
 40
36.76773
 50
90.0
 51
127.40714599999821
  0
ARC
  8
DETAIL
  6
CONTINUOUS
 62
     5
 10
-155.19527299999979
 20
-42.866982000000007
 30
0.0
 40
8.0
 50
281.33518699999991
 51
307.40714599999819
  0
ARC
  8
DETAIL
  6
CONTINUOUS
 62
     5
 10
-159.32022799999999
 20
-40.710870999999997
 30
0.0
 40
8.0
 50
260.13892900000332
 51
317.23413600000231
  0
ARC
  8
DETAIL
  6
CONTINUOUS
 62
     5
 10
-152.462354
 20
-30.682327999999981
 30
0.0
 40
20.0
 50
236.50375700000191
 51
253.92578100000051
  0
ARC
  8
DETAIL
  6
CONTINUOUS
 62
     5
 10
-152.462354
 20
-30.682327999999981
 30
0.0
 40
20.0
 50
238.10952699999851
 51
261.83535800000539
  0
ARC
  8
DETAIL
  6
CONTINUOUS
 62
     5
 10
-134.0
 20
98.0
 30
0.0
 40
150.0
 50
261.83535800000539
 51
270.0
  0
LINE
  8
DETAIL
  6
CONTINUOUS
 62
     5
 10
-127.962751
 20
-35.0
 30
0.0
 11
127.962751
 21
-35.0
 31
0.0
  0
LINE
  8
DETAIL
  6
CONTINUOUS
 62
     5
 10
128.0
 20
-41.659999999999997
 30
0.0
 11
-128.0
 21
-41.659999999999997
 31
0.0
  0
LINE
  8
DETAIL
  6
CONTINUOUS
 62
     5
 10
-134.0
 20
-52.0
 30
0.0
 11
134.0
 21
-52.0
 31
0.0
  0
LINE
  8
DETAIL
  6
CONTINUOUS
 62
     5
 10
-145.0
 20
90.0
 30
0.0
 11
-145.0
 21
0.0
 31
0.0
  0
LINE
  8
DETAIL
  6
CONTINUOUS
 62
     5
 10
-145.0
 20
90.0
 30
0.0
 11
145.0
 21
90.0
 31
0.0
  0
LINE
  8
DETAIL
  6
CONTINUOUS
 62
     5
 10
145.0
 20
90.0
 30
0.0
 11
145.0
 21
0.0
 31
0.0
  0
LINE
  8
DETAIL
  6
CONTINUOUS
 62
     5
 10
-173.0
 20
0.0
 30
0.0
 11
-172.45835500000001
 21
-31.082247999999989
 31
0.0
  0
LINE
  8
DETAIL
  6
CONTINUOUS
 62
     5
 10
-173.0
 20
0.0
 30
0.0
 11
120.0
 21
0.0
 31
0.0
  0
ARC
  8
DETAIL
  6
CONTINUOUS
 62
     5
 10
-152.462354
 20
-30.682327999999981
 30
0.0
 40
20.0
 50
181.14576300000081
 51
235.1458390000036
  0
LINE
  8
OUTLINE
  6
CONTINUOUS
 62
     3
 10
145.0
 20
90.0
 30
0.0
 11
145.0
 21
0.0
 31
0.0
  0
LINE
  8
OUTLINE
  6
CONTINUOUS
 62
     3
 10
-145.0
 20
90.0
 30
0.0
 11
-145.0
 21
0.0
 31
0.0
  0
LINE
  8
OUTLINE
  6
CONTINUOUS
 62
     3
 10
-173.0
 20
0.0
 30
0.0
 11
-145.0
 21
0.0
 31
0.0
  0
LINE
  8
OUTLINE
  6
CONTINUOUS
 62
     3
 10
-134.0
 20
-52.0
 30
0.0
 11
134.0
 21
-52.0
 31
0.0
  0
LINE
  8
OUTLINE
  6
CONTINUOUS
 62
     3
 10
145.0
 20
0.0
 30
0.0
 11
173.0
 21
0.0
 31
0.0
  0
ARC
  8
OUTLINE
  6
CONTINUOUS
 62
     3
 10
-152.462354
 20
-30.682327999999981
 30
0.0
 40
20.0
 50
181.14576300000081
 51
235.1458390000036
  0
LINE
  8
OUTLINE
  6
CONTINUOUS
 62
     3
 10
-173.0
 20
0.0
 30
0.0
 11
-172.45835500000001
 21
-31.082247999999989
 31
0.0
  0
ARC
  8
OUTLINE
  6
CONTINUOUS
 62
     3
 10
-134.0
 20
98.0
 30
0.0
 40
150.0
 50
261.83535800000539
 51
270.0
  0
ARC
  8
OUTLINE
  6
CONTINUOUS
 62
     3
 10
-152.462354
 20
-30.682327999999981
 30
0.0
 40
20.0
 50
238.10952699999851
 51
261.83535800000539
  0
ARC
  8
OUTLINE
  6
CONTINUOUS
 62
     3
 10
-152.462354
 20
-30.682327999999981
 30
0.0
 40
20.0
 50
236.50375700000191
 51
253.92578100000051
  0
LINE
  8
DETAIL
  6
CONTINUOUS
 62
     5
 10
173.0
 20
0.0
 30
0.0
 11
172.45835500000001
 21
-31.082247999999989
 31
0.0
  0
ARC
  8
DETAIL
  6
CONTINUOUS
 62
     5
 10
152.462354
 20
-30.682327999999981
 30
0.0
 40
20.0
 50
304.8541609999964
 51
358.85423699999922
  0
ARC
  8
DETAIL
  6
CONTINUOUS
 62
     5
 10
134.0
 20
98.0
 30
0.0
 40
150.0
 50
270.0
 51
278.16464199999461
  0
ARC
  8
DETAIL
  6
CONTINUOUS
 62
     5
 10
155.19527299999979
 20
-42.866982000000007
 30
0.0
 40
8.0
 50
232.59285400000181
 51
258.66481300000009
  0
ARC
  8
DETAIL
  6
CONTINUOUS
 62
     5
 10
159.32022799999999
 20
-40.710870999999997
 30
0.0
 40
8.0
 50
222.76586399999769
 51
279.86107099999668
  0
ARC
  8
DETAIL
  6
CONTINUOUS
 62
     5
 10
152.462354
 20
-30.682327999999981
 30
0.0
 40
20.0
 50
286.07421899999952
 51
303.49624299999812
  0
ARC
  8
DETAIL
  6
CONTINUOUS
 62
     5
 10
152.462354
 20
-30.682327999999981
 30
0.0
 40
20.0
 50
278.16464199999461
 51
301.89047300000152
  0
ARC
  8
DETAIL
  6
CONTINUOUS
 62
     5
 10
127.962751
 20
-69.713529999999992
 30
0.0
 40
34.713529999999999
 50
42.76586399999767
 51
90.0
  0
ARC
  8
DETAIL
  6
CONTINUOUS
 62
     5
 10
128.0
 20
-78.427730000000025
 30
0.0
 40
36.76773
 50
52.592854000001779
 51
90.0
  0
ARC
  8
OUTLINE
  6
CONTINUOUS
 62
     3
 10
134.0
 20
98.0
 30
0.0
 40
150.0
 50
270.0
 51
278.16464199999461
  0
ARC
  8
OUTLINE
  6
CONTINUOUS
 62
     3
 10
152.462354
 20
-30.682327999999981
 30
0.0
 40
20.0
 50
286.07421899999952
 51
303.49624299999812
  0
ARC
  8
OUTLINE
  6
CONTINUOUS
 62
     3
 10
152.462354
 20
-30.682327999999981
 30
0.0
 40
20.0
 50
278.16464199999461
 51
301.89047300000152
  0
LINE
  8
OUTLINE
  6
CONTINUOUS
 62
     3
 10
173.0
 20
0.0
 30
0.0
 11
172.45835500000001
 21
-31.082247999999989
 31
0.0
  0
ARC
  8
OUTLINE
  6
CONTINUOUS
 62
     3
 10
152.462354
 20
-30.682327999999981
 30
0.0
 40
20.0
 50
304.8541609999964
 51
358.85423699999922
  0
LINE
  8
SIZE
  6
CONTINUOUS
 62
    30
 10
-208.38918656147669
 20
0.0
 30
0.0
 11
-408.34333235732129
 21
0.0000000000000568
 31
0.0
  0
LINE
  8
SIZE
  6
CONTINUOUS
 62
    30
 10
-154.0
 20
-52.0
 30
0.0
 11
-408.34333235732129
 21
-51.999999999999908
 31
0.0
  0
LINE
  8
SIZE
  6
CONTINUOUS
 62
    30
 10
-388.34333235732129
 20
12.00000000000006
 30
0.0
 11
-388.34333235732129
 21
24.00000000000006
 31
0.0
  0
LINE
  8
SIZE
  6
CONTINUOUS
 62
    30
 10
-388.34333235732129
 20
-63.999999999999943
 30
0.0
 11
-388.34333235732129
 21
-224.88571428571419
 31
0.0
  0
LINE
  8
SIZE
  6
CONTINUOUS
 62
    30
 10
-388.34333235732129
 20
0.0000000000000568
 30
0.0
 11
-388.34333235732129
 21
-51.999999999999943
 31
0.0
  0
CIRCLE
  8
SIZE
  6
CONTINUOUS
 62
    30
 10
-388.34333235732129
 20
0.0000000000000568
 30
0.0
 40
6.0
  0
LINE
  8
SIZE
  6
CONTINUOUS
 62
    30
 10
-388.34333235732129
 20
0.0000000000000568
 30
0.0
 11
-388.34333235732129
 21
12.00000000000006
 31
0.0
  0
CIRCLE
  8
SIZE
  6
CONTINUOUS
 62
    30
 10
-388.34333235732129
 20
-51.999999999999943
 30
0.0
 40
6.0
  0
LINE
  8
SIZE
  6
CONTINUOUS
 62
    30
 10
-388.34333235732129
 20
-51.999999999999943
 30
0.0
 11
-388.34333235732129
 21
-63.999999999999943
 31
0.0
  0
TEXT
  8
SIZE
  6
CONTINUOUS
 62
    30
 10
-413.34333235732129
 20
-199.8857142857143
 30
0.0
 40
64.0
  1
52
 50
90.0
 41
0.9
 72
     1
 11
-413.34333235732129
 21
-153.2571428571429
 31
0.0
  0
LINE
  8
SIZE
  6
CONTINUOUS
 62
    30
 10
-165.0
 20
90.0
 30
0.0
 11
-408.34333235732129
 21
90.000000000000057
 31
0.0
  0
LINE
  8
SIZE
  6
CONTINUOUS
 62
    30
 10
-208.38918656147669
 20
0.0
 30
0.0
 11
-408.34333235732129
 21
0.0000000000000568
 31
0.0
  0
LINE
  8
SIZE
  6
CONTINUOUS
 62
    30
 10
-388.34333235732129
 20
102.0000000000001
 30
0.0
 11
-388.34333235732129
 21
114.0000000000001
 31
0.0
  0
LINE
  8
SIZE
  6
CONTINUOUS
 62
    30
 10
-388.34333235732129
 20
-11.99999999999994
 30
0.0
 11
-388.34333235732129
 21
-23.99999999999994
 31
0.0
  0
LINE
  8
SIZE
  6
CONTINUOUS
 62
    30
 10
-388.34333235732129
 20
90.000000000000057
 30
0.0
 11
-388.34333235732129
 21
0.0000000000000568
 31
0.0
  0
CIRCLE
  8
SIZE
  6
CONTINUOUS
 62
    30
 10
-388.34333235732129
 20
90.000000000000057
 30
0.0
 40
6.0
  0
LINE
  8
SIZE
  6
CONTINUOUS
 62
    30
 10
-388.34333235732129
 20
90.000000000000057
 30
0.0
 11
-388.34333235732129
 21
102.0000000000001
 31
0.0
  0
CIRCLE
  8
SIZE
  6
CONTINUOUS
 62
    30
 10
-388.34333235732129
 20
0.0000000000000568
 30
0.0
 40
6.0
  0
LINE
  8
SIZE
  6
CONTINUOUS
 62
    30
 10
-388.34333235732129
 20
0.0000000000000568
 30
0.0
 11
-388.34333235732129
 21
-11.99999999999994
 31
0.0
  0
TEXT
  8
SIZE
  6
CONTINUOUS
 62
    30
 10
-413.34333235732129
 20
-1.6285714285714259
 30
0.0
 40
64.0
  1
90
 50
90.0
 41
0.9
 72
     1
 11
-413.34333235732129
 21
45.0
 31
0.0
  0
LINE
  8
SIZE
  6
CONTINUOUS
 62
    30
 10
124.999984129727
 20
29.999986988507569
 30
0.0
 11
315.78303288952878
 21
29.999986988507541
 31
0.0
  0
LINE
  8
SIZE
  6
CONTINUOUS
 62
    30
 10
193.0
 20
0.0
 30
0.0
 11
315.78303288952878
 21
-0.0000000000000284
 31
0.0
  0
LINE
  8
SIZE
  6
CONTINUOUS
 62
    30
 10
295.78303288952878
 20
41.999986988507537
 30
0.0
 11
295.78303288952878
 21
53.999986988507537
 31
0.0
  0
LINE
  8
SIZE
  6
CONTINUOUS
 62
    30
 10
295.78303288952878
 20
-12.00000000000003
 30
0.0
 11
295.78303288952878
 21
-167.2571428571429
 31
0.0
  0
LINE
  8
SIZE
  6
CONTINUOUS
 62
    30
 10
295.78303288952878
 20
29.999986988507541
 30
0.0
 11
295.78303288952878
 21
-0.0000000000000284
 31
0.0
  0
CIRCLE
  8
SIZE
  6
CONTINUOUS
 62
    30
 10
295.78303288952878
 20
29.999986988507541
 30
0.0
 40
6.0
  0
LINE
  8
SIZE
  6
CONTINUOUS
 62
    30
 10
295.78303288952878
 20
29.999986988507541
 30
0.0
 11
295.78303288952878
 21
41.999986988507537
 31
0.0
  0
CIRCLE
  8
SIZE
  6
CONTINUOUS
 62
    30
 10
295.78303288952878
 20
-0.0000000000000284
 30
0.0
 40
6.0
  0
LINE
  8
SIZE
  6
CONTINUOUS
 62
    30
 10
295.78303288952878
 20
-0.0000000000000284
 30
0.0
 11
295.78303288952878
 21
-12.00000000000003
 31
0.0
  0
TEXT
  8
SIZE
  6
CONTINUOUS
 62
    30
 10
270.78303288952878
 20
-142.2571428571429
 30
0.0
 40
64.0
  1
30
 50
90.0
 41
0.9
 72
     1
 11
270.78303288952878
 21
-95.628571428571433
 31
0.0
  0
LINE
  8
SIZE
  6
CONTINUOUS
 62
    30
 10
-145.0
 20
178.0
 30
0.0
 11
-145.0
 21
348.35098764600622
 31
0.0
  0
LINE
  8
SIZE
  6
CONTINUOUS
 62
    30
 10
145.0
 20
178.0
 30
0.0
 11
145.0
 21
348.35098764600622
 31
0.0
  0
LINE
  8
SIZE
  6
CONTINUOUS
 62
    30
 10
-133.0
 20
328.35098764600622
 30
0.0
 11
133.0
 21
328.35098764600622
 31
0.0
  0
CIRCLE
  8
SIZE
  6
CONTINUOUS
 62
    30
 10
-145.0
 20
328.35098764600622
 30
0.0
 40
6.0
  0
LINE
  8
SIZE
  6
CONTINUOUS
 62
    30
 10
-145.0
 20
328.35098764600622
 30
0.0
 11
-133.0
 21
328.35098764600622
 31
0.0
  0
CIRCLE
  8
SIZE
  6
CONTINUOUS
 62
    30
 10
145.0
 20
328.35098764600622
 30
0.0
 40
6.0
  0
LINE
  8
SIZE
  6
CONTINUOUS
 62
    30
 10
145.0
 20
328.35098764600622
 30
0.0
 11
133.0
 21
328.35098764600622
 31
0.0
  0
TEXT
  8
SIZE
  6
CONTINUOUS
 62
    30
 10
-135.5371428571429
 20
353.35098764600622
 30
0.0
 40
64.0
  1
□290
 41
0.9
 72
     1
 11
-25.0
 21
353.35098764600622
 31
0.0
  0
LINE
  8
SIZE
  6
CONTINUOUS
 62
    30
 10
85.0
 20
40.0
 30
0.0
 11
85.0
 21
220.91654899727061
 31
0.0
  0
LINE
  8
SIZE
  6
CONTINUOUS
 62
    30
 10
-85.0
 20
40.0
 30
0.0
 11
-85.0
 21
220.91654899727061
 31
0.0
  0
LINE
  8
SIZE
  6
CONTINUOUS
 62
    30
 10
73.0
 20
200.91654899727061
 30
0.0
 11
-73.0
 21
200.91654899727061
 31
0.0
  0
CIRCLE
  8
SIZE
  6
CONTINUOUS
 62
    30
 10
85.0
 20
200.91654899727061
 30
0.0
 40
6.0
  0
LINE
  8
SIZE
  6
CONTINUOUS
 62
    30
 10
85.0
 20
200.91654899727061
 30
0.0
 11
73.0
 21
200.91654899727061
 31
0.0
  0
CIRCLE
  8
SIZE
  6
CONTINUOUS
 62
    30
 10
-85.0
 20
200.91654899727061
 30
0.0
 40
6.0
  0
LINE
  8
SIZE
  6
CONTINUOUS
 62
    30
 10
-85.0
 20
200.91654899727061
 30
0.0
 11
-73.0
 21
200.91654899727061
 31
0.0
  0
TEXT
  8
SIZE
  6
CONTINUOUS
 62
    30
 10
-68.571428571428569
 20
225.9165489972705
 30
0.0
 40
64.0
  1
170
 41
0.9
 72
     1
 11
0.0
 21
225.9165489972705
 31
0.0
  0
LINE
  8
SIZE
  6
CONTINUOUS
 62
    30
 10
173.0
 20
20.0
 30
0.0
 11
173.0
 21
478.94427753849641
 31
0.0
  0
LINE
  8
SIZE
  6
CONTINUOUS
 62
    30
 10
-173.0
 20
20.0
 30
0.0
 11
-173.0
 21
478.94427753849641
 31
0.0
  0
LINE
  8
SIZE
  6
CONTINUOUS
 62
    30
 10
161.0
 20
458.94427753849641
 30
0.0
 11
-161.0
 21
458.94427753849641
 31
0.0
  0
CIRCLE
  8
SIZE
  6
CONTINUOUS
 62
    30
 10
173.0
 20
458.94427753849641
 30
0.0
 40
6.0
  0
LINE
  8
SIZE
  6
CONTINUOUS
 62
    30
 10
173.0
 20
458.94427753849641
 30
0.0
 11
161.0
 21
458.94427753849641
 31
0.0
  0
CIRCLE
  8
SIZE
  6
CONTINUOUS
 62
    30
 10
-173.0
 20
458.94427753849641
 30
0.0
 40
6.0
  0
LINE
  8
SIZE
  6
CONTINUOUS
 62
    30
 10
-173.0
 20
458.94427753849641
 30
0.0
 11
-161.0
 21
458.94427753849641
 31
0.0
  0
TEXT
  8
SIZE
  6
CONTINUOUS
 62
    30
 10
-72.685714285714297
 20
483.94427753849641
 30
0.0
 40
64.0
  1
346
 41
0.9
 72
     1
 11
0.0
 21
483.94427753849641
 31
0.0
  0
LINE
  8
SIZE
  6
CONTINUOUS
 62
    30
 10
-147.962751
 20
-35.0
 30
0.0
 11
-276.51707574289168
 21
-34.999999999999943
 31
0.0
  0
LINE
  8
SIZE
  6
CONTINUOUS
 62
    30
 10
-154.0
 20
-52.0
 30
0.0
 11
-276.51707574289168
 21
-51.999999999999972
 31
0.0
  0
LINE
  8
SIZE
  6
CONTINUOUS
 62
    30
 10
-256.51707574289168
 20
-22.999999999999972
 30
0.0
 11
-256.51707574289168
 21
-10.99999999999997
 31
0.0
  0
LINE
  8
SIZE
  6
CONTINUOUS
 62
    30
 10
-256.51707574289168
 20
-63.999999999999972
 30
0.0
 11
-256.51707574289179
 21
-208.28571428571411
 31
0.0
  0
LINE
  8
SIZE
  6
CONTINUOUS
 62
    30
 10
-256.51707574289168
 20
-34.999999999999972
 30
0.0
 11
-256.51707574289168
 21
-51.999999999999972
 31
0.0
  0
CIRCLE
  8
SIZE
  6
CONTINUOUS
 62
    30
 10
-256.51707574289168
 20
-34.999999999999972
 30
0.0
 40
6.0
  0
LINE
  8
SIZE
  6
CONTINUOUS
 62
    30
 10
-256.51707574289168
 20
-34.999999999999972
 30
0.0
 11
-256.51707574289168
 21
-22.999999999999972
 31
0.0
  0
CIRCLE
  8
SIZE
  6
CONTINUOUS
 62
    30
 10
-256.51707574289168
 20
-51.999999999999972
 30
0.0
 40
6.0
  0
LINE
  8
SIZE
  6
CONTINUOUS
 62
    30
 10
-256.51707574289168
 20
-51.999999999999972
 30
0.0
 11
-256.51707574289168
 21
-63.999999999999972
 31
0.0
  0
TEXT
  8
SIZE
  6
CONTINUOUS
 62
    30
 10
-281.51707574289168
 20
-183.28571428571431
 30
0.0
 40
64.0
  1
17
 50
90.0
 41
0.9
 72
     1
 11
-281.51707574289168
 21
-142.14285714285711
 31
0.0
  0
LINE
  8
DETAIL
  6
CONTINUOUS
 62
     5
 10
-145.0
 20
158.0
 30
0.0
 11
-145.0
 21
90.0
 31
0.0
  0
LINE
  8
DETAIL
  6
CONTINUOUS
 62
     5
 10
-145.0
 20
158.0
 30
0.0
 11
145.0
 21
158.0
 31
0.0
  0
LINE
  8
DETAIL
  6
CONTINUOUS
 62
     5
 10
145.0
 20
158.0
 30
0.0
 11
145.0
 21
90.0
 31
0.0
  0
LINE
  8
OUTLINE
  6
CONTINUOUS
 62
     3
 10
-145.0
 20
90.0
 30
0.0
 11
145.0
 21
90.0
 31
0.0
  0
LINE
  8
SIZE
  6
CONTINUOUS
 62
    30
 10
-165.0
 20
158.0
 30
0.0
 11
-408.34333235732117
 21
158.00000000000011
 31
0.0
  0
LINE
  8
SIZE
  6
CONTINUOUS
 62
    30
 10
-165.0
 20
90.0
 30
0.0
 11
-408.34333235732129
 21
90.000000000000057
 31
0.0
  0
LINE
  8
SIZE
  6
CONTINUOUS
 62
    30
 10
-388.34333235732129
 20
78.000000000000057
 30
0.0
 11
-388.34333235732129
 21
66.000000000000057
 31
0.0
  0
LINE
  8
SIZE
  6
CONTINUOUS
 62
    30
 10
-388.34333235732117
 20
170.00000000000011
 30
0.0
 11
-388.34333235732117
 21
325.25714285714292
 31
0.0
  0
LINE
  8
SIZE
  6
CONTINUOUS
 62
    30
 10
-388.34333235732129
 20
90.000000000000057
 30
0.0
 11
-388.34333235732117
 21
158.00000000000011
 31
0.0
  0
CIRCLE
  8
SIZE
  6
CONTINUOUS
 62
    30
 10
-388.34333235732129
 20
90.000000000000057
 30
0.0
 40
6.0
  0
LINE
  8
SIZE
  6
CONTINUOUS
 62
    30
 10
-388.34333235732129
 20
90.000000000000057
 30
0.0
 11
-388.34333235732129
 21
78.000000000000057
 31
0.0
  0
CIRCLE
  8
SIZE
  6
CONTINUOUS
 62
    30
 10
-388.34333235732117
 20
158.00000000000011
 30
0.0
 40
6.0
  0
LINE
  8
SIZE
  6
CONTINUOUS
 62
    30
 10
-388.34333235732117
 20
158.00000000000011
 30
0.0
 11
-388.34333235732117
 21
170.00000000000011
 31
0.0
  0
TEXT
  8
SIZE
  6
CONTINUOUS
 62
    30
 10
-413.34333235732129
 20
206.99999999999989
 30
0.0
 40
64.0
  1
68
 50
90.0
 41
0.9
 72
     1
 11
-413.34333235732129
 21
253.62857142857141
 31
0.0
  0
LINE
  8
BASIS
  6
DASHDOT
 62
     6
 10
64.017453829115311
 20
0.0
 30
0.0
 11
105.9825461708847
 21
0.0
 31
0.0
  0
TEXT
  8
ETC
  6
CONTINUOUS
 62
    61
 10
287.01290452759707
 20
509.68084093017268
 30
0.0
 40
64.0
  1
EX-25EF8_1
 41
0.9
  0
TEXT
  8
ETC
  6
CONTINUOUS
 62
    61
 10
282.82691052759668
 20
391.72553091534161
 30
0.0
 40
64.0
  1
換気扇
 41
0.9
  0
TEXT
  8
ETC
  6
CONTINUOUS
 62
    61
 10
333.5283087761527
 20
283.57675802911632
 30
0.0
 40
40.0
  1
EX-25EF8
 50
0.0
 41
0.9
 51
0.0
  7
STANDARD
 71
     0
 11
0.0
 21
0.0
 31
0.0
210
0.0
220
0.0
230
1.0
  0
TEXT
  8
ETC
  6
CONTINUOUS
 62
    61
 10
333.5283087761527
 20
217.57675802911632
 30
0.0
 40
40.0
  1
EX-25LF8
 50
0.0
 41
0.9
 51
0.0
  7
STANDARD
 71
     0
 11
0.0
 21
0.0
 31
0.0
210
0.0
220
0.0
230
1.0
  0
ENDSEC
  0
EOF
