  0
SECTION
  2
HEADER
  9
$ACADVER
  1
AC1009
  9
$DWGCODEPAGE
  3
dos932
  9
$INSBASE
 10
0.0
 20
0.0
 30
0.0
  9
$EXTMIN
 10
-226.1398145185558
 20
-234.23765894751699
 30
-0.0073736516182521
  9
$EXTMAX
 10
1246.2616085031309
 20
646.95740554825898
 30
0.0110616026431103
  9
$LIMMIN
 10
-2970.0
 20
-2100.0
  9
$LIMMAX
 10
2970.0
 20
2100.0
  9
$ORTHOMODE
 70
     1
  9
$REGENMODE
 70
     1
  9
$FILLMODE
 70
     1
  9
$QTEXTMODE
 70
     0
  9
$MIRRTEXT
 70
     0
  9
$LTSCALE
 40
20.0
  9
$ATTMODE
 70
     1
  9
$TEXTSIZE
 40
64.0
  9
$TRACEWID
 40
0.05
  9
$TEXTSTYLE
  7
STANDARD
  9
$CLAYER
  8
NOTE
  9
$CELTYPE
  6
CONTINUOUS
  9
$CECOLOR
 62
     7
  9
$DIMSCALE
 40
1.0
  9
$DIMASZ
 40
12.0
  9
$DIMEXO
 40
20.0
  9
$DIMDLI
 40
200.0
  9
$DIMRND
 40
0.0
  9
$DIMDLE
 40
0.0
  9
$DIMEXE
 40
20.0
  9
$DIMTP
 40
0.0
  9
$DIMTM
 40
0.0
  9
$DIMTXT
 40
64.0
  9
$DIMCEN
 40
0.09
  9
$DIMTSZ
 40
0.0
  9
$DIMTOL
 70
     0
  9
$DIMLIM
 70
     0
  9
$DIMTIH
 70
     0
  9
$DIMTOH
 70
     0
  9
$DIMSE1
 70
     0
  9
$DIMSE2
 70
     0
  9
$DIMTAD
 70
     1
  9
$DIMZIN
 70
     8
  9
$DIMBLK
  1

  9
$DIMASO
 70
     1
  9
$DIMSHO
 70
     0
  9
$DIMPOST
  1

  9
$DIMAPOST
  1

  9
$DIMALT
 70
     0
  9
$DIMALTD
 70
     2
  9
$DIMALTF
 40
25.399999999999999
  9
$DIMLFAC
 40
1.0
  9
$DIMTOFL
 70
     1
  9
$DIMTVP
 40
0.0
  9
$DIMTIX
 70
     1
  9
$DIMSOXD
 70
     0
  9
$DIMSAH
 70
     0
  9
$DIMBLK1
  1

  9
$DIMBLK2
  1

  9
$DIMSTYLE
  2
STANDARD
  9
$DIMCLRD
 70
     7
  9
$DIMCLRE
 70
     7
  9
$DIMCLRT
 70
     7
  9
$DIMTFAC
 40
1.0
  9
$DIMGAP
 40
25.0
  9
$LUNITS
 70
     2
  9
$LUPREC
 70
     4
  9
$SKETCHINC
 40
0.1
  9
$FILLETRAD
 40
3.0
  9
$AUNITS
 70
     1
  9
$AUPREC
 70
     3
  9
$MENU
  1
ACAD
  9
$ELEVATION
 40
0.0
  9
$PELEVATION
 40
0.0
  9
$THICKNESS
 40
50.0
  9
$LIMCHECK
 70
     0
  9
$CHAMFERA
 40
0.0
  9
$CHAMFERB
 40
0.0
  9
$SKPOLY
 70
     0
  9
$TDCREATE
 40
2453019.62301037
  9
$TDUPDATE
 40
2459017.510038148
  9
$TDINDWG
 40
1.7248487963
  9
$TDUSRTIMER
 40
1.7248487963
  9
$USRTIMER
 70
     1
  9
$ANGBASE
 50
0.0
  9
$ANGDIR
 70
     0
  9
$PDMODE
 70
     3
  9
$PDSIZE
 40
-2.0
  9
$PLINEWID
 40
0.0
  9
$SPLFRAME
 70
     0
  9
$SPLINETYPE
 70
     6
  9
$SPLINESEGS
 70
     8
  9
$SURFTAB1
 70
     6
  9
$SURFTAB2
 70
     6
  9
$SURFTYPE
 70
     6
  9
$SURFU
 70
     6
  9
$SURFV
 70
     6
  9
$UCSNAME
  2

  9
$UCSORG
 10
0.0
 20
0.0
 30
0.0
  9
$UCSXDIR
 10
1.0
 20
0.0
 30
0.0
  9
$UCSYDIR
 10
0.0
 20
1.0
 30
0.0
  9
$PUCSNAME
  2

  9
$PUCSORG
 10
0.0
 20
0.0
 30
0.0
  9
$PUCSXDIR
 10
1.0
 20
0.0
 30
0.0
  9
$PUCSYDIR
 10
0.0
 20
1.0
 30
0.0
  9
$USERI1
 70
     0
  9
$USERI2
 70
     0
  9
$USERI3
 70
     0
  9
$USERI4
 70
     0
  9
$USERI5
 70
     0
  9
$USERR1
 40
20.0
  9
$USERR2
 40
0.0
  9
$USERR3
 40
0.0
  9
$USERR4
 40
0.0
  9
$USERR5
 40
0.0
  9
$WORLDVIEW
 70
     1
  9
$SHADEDGE
 70
     3
  9
$SHADEDIF
 70
    70
  9
$TILEMODE
 70
     1
  9
$MAXACTVP
 70
    48
  9
$PINSBASE
 10
0.0
 20
0.0
 30
0.0
  9
$PLIMCHECK
 70
     0
  9
$PEXTMIN
 10
-100000000000000000000.0
 20
-100000000000000000000.0
 30
-100000000000000000000.0
  9
$PEXTMAX
 10
100000000000000000000.0
 20
100000000000000000000.0
 30
100000000000000000000.0
  9
$PLIMMIN
 10
0.0
 20
0.0
  9
$PLIMMAX
 10
12.0
 20
9.0
  9
$UNITMODE
 70
     0
  9
$VISRETAIN
 70
     0
  9
$PLINEGEN
 70
     0
  9
$PSLTSCALE
 70
     0
  9
$TREEDEPTH
 70
  3020
  9
$ATTDIA
 70
     0
  9
$ATTREQ
 70
     1
  9
$BLIPMODE
 70
     1
  9
$COORDS
 70
     1
  9
$DRAGMODE
 70
     2
  9
$OSMODE
 70
     0
  9
$HANDLING
 70
     0
  9
$HANDSEED
  5
EBBB
  0
ENDSEC
  0
SECTION
  2
TABLES
  0
TABLE
  2
LTYPE
 70
     2
  0
LTYPE
  2
CONTINUOUS
 70
     0
  3
実線
 72
    65
 73
     0
 40
0.0
  0
LTYPE
  2
DASHDOT
 70
     0
  3
____ _ ____ _ ____ _ ____ _ ____ _ ____ _ ____
 72
    65
 73
     4
 40
5.5
 49
4.0
 49
-0.6
 49
0.3
 49
-0.6
  0
ENDTAB
  0
TABLE
  2
LAYER
 70
    12
  0
LAYER
  2
0
 70
     0
 62
     7
  6
CONTINUOUS
  0
LAYER
  2
BASIS
 70
     0
 62
     6
  6
DASHDOT
  0
LAYER
  2
OUTLINE
 70
     0
 62
     3
  6
CONTINUOUS
  0
LAYER
  2
DETAIL
 70
     0
 62
     5
  6
CONTINUOUS
  0
LAYER
  2
SIZE
 70
     0
 62
    30
  6
CONTINUOUS
  0
LAYER
  2
ARRANGE
 70
     0
 62
     1
  6
CONTINUOUS
  0
LAYER
  2
ETC
 70
     0
 62
    61
  6
CONTINUOUS
  0
LAYER
  2
FIX
 70
     0
 62
    11
  6
CONTINUOUS
  0
LAYER
  2
NOTE
 70
     0
 62
     4
  6
CONTINUOUS
  0
LAYER
  2
DEFPOINTS
 70
    64
 62
     7
  6
CONTINUOUS
  0
LAYER
  2
SERVICESPACE
 70
    64
 62
     2
  6
DASHDOT
  0
LAYER
  2
SYMBOLLINE
 70
    64
 62
    15
  6
CONTINUOUS
  0
ENDTAB
  0
TABLE
  2
STYLE
 70
     1
  0
STYLE
  2
STANDARD
 70
     0
 40
64.0
 41
0.9
 50
0.0
 71
     0
 42
64.0
  3
SIMPLEX.shx
  4
BIGFONT.shx
  0
ENDTAB
  0
TABLE
  2
APPID
 70
    17
  0
APPID
  2
ACAD
 70
     0
  0
APPID
  2
AUTOCAD_POSTSCRIPT_FIGURE
 70
     0
  0
APPID
  2
ACAD_EXEMPT_FROM_CAD_STANDARDS
 70
     0
  0
APPID
  2
ACAD_PSEXT
 70
     0
  0
APPID
  2
ACAUTHENVIRON
 70
     0
  0
APPID
  2
GENIUS_GENOENT_13
 70
     0
  0
APPID
  2
GENIUS_GENCFG_13
 70
     0
  0
APPID
  2
GENIUS_GENCFG0_13
 70
     0
  0
APPID
  2
GENIUS_GENCFG1_13
 70
     0
  0
APPID
  2
GENIUS_GENCFG2_13
 70
     0
  0
APPID
  2
GENIUS_GENCFG3_13
 70
     0
  0
APPID
  2
GENIUS_GENCFG4_13
 70
     0
  0
APPID
  2
GENIUS_GEVCFG0_13
 70
     0
  0
APPID
  2
CONTENTBLOCKICON
 70
     0
  0
APPID
  2
CONTENTBLOCKDESCRIPTION
 70
     0
  0
APPID
  2
ACAD_NAV_VCDISPLAY
 70
     0
  0
APPID
  2
ACAD_MLEADERVER
 70
     0
  0
ENDTAB
  0
TABLE
  2
DIMSTYLE
 70
     1
  0
DIMSTYLE
  2
STANDARD
 70
     0
  3

  4

  5
_ORIGIN
  6

  7

 40
1.0
 41
12.0
 42
20.0
 43
200.0
 44
20.0
 45
0.0
 46
0.0
 47
0.0
 48
0.0
140
64.0
141
0.09
142
0.0
143
25.399999999999999
144
1.0
145
0.0
146
1.0
147
25.0
 71
     0
 72
     0
 73
     0
 74
     0
 75
     0
 76
     0
 77
     1
 78
     8
170
     0
171
     2
172
     1
173
     0
174
     1
175
     0
176
     7
177
     7
178
     7
  0
ENDTAB
  0
TABLE
  2
VIEW
 70
     1
  0
VIEW
  2
ALL
 70
     0
 40
4282.6198079999986
 10
0.0
 20
41.309904000000003
 41
5940.0
 11
0.0
 21
0.0
 31
1.0
 12
0.0
 22
0.0
 32
0.0
 42
50.0
 43
0.0
 44
0.0
 50
0.0
 71
     0
  0
ENDTAB
  0
TABLE
  2
UCS
 70
     0
  0
ENDTAB
  0
TABLE
  2
VPORT
 70
     1
  0
VPORT
  2
*ACTIVE
 70
     0
 10
0.0
 20
0.0
 11
1.0
 21
1.0
 12
510.06089699228778
 22
206.35987330037091
 13
0.0
 23
0.0
 14
1.0
 24
1.0
 15
0.0
 25
0.0
 16
0.0
 26
0.0
 36
1.0
 17
0.0
 27
0.0
 37
0.0
 40
719.43130985824428
 41
1.953615279672579
 42
50.0
 43
0.0
 44
0.0
 50
0.0
 51
0.0
 71
     0
 72
  1000
 73
     1
 74
     3
 75
     0
 76
     0
 77
     0
 78
     0
  0
ENDTAB
  0
ENDSEC
  0
SECTION
  2
BLOCKS
  0
BLOCK
  8
0
  2
_ORIGIN
 70
     0
 10
0.0
 20
0.0
 30
0.0
  3
_ORIGIN
  1
_ORIGIN
  0
CIRCLE
  8
0
  6
CONTINUOUS
 62
     7
 10
0.0
 20
0.0
 30
0.0
 40
0.5
  0
LINE
  8
0
  6
CONTINUOUS
 62
     7
 10
0.0
 20
0.0
 30
0.0
 11
-1.0
 21
0.0
 31
0.0
  0
ENDBLK
  8
0
  0
ENDSEC
  0
SECTION
  2
ENTITIES
  0
CIRCLE
  8
FIX
  6
CONTINUOUS
 62
    11
 10
0.0
 20
157.5
 30
0.0
 40
2.5
  0
LINE
  8
BASIS
  6
DASHDOT
 62
     6
 10
0.0
 20
177.5
 30
0.0
 11
0.0
 21
137.5
 31
0.0
  0
LINE
  8
BASIS
  6
DASHDOT
 62
     6
 10
-24.0
 20
157.5
 30
0.0
 11
20.0
 21
157.5
 31
0.0
  0
CIRCLE
  8
FIX
  6
CONTINUOUS
 62
    11
 10
0.0
 20
-157.5
 30
0.0
 40
2.5
  0
LINE
  8
NOTE
  6
CONTINUOUS
 62
     4
 10
0.0
 20
-137.5
 30
0.0
 11
0.0
 21
-177.5
 31
0.0
  0
LINE
  8
BASIS
  6
DASHDOT
 62
     6
 10
-24.0
 20
-157.5
 30
0.0
 11
20.0
 21
-157.5
 31
0.0
  0
LINE
  8
NOTE
  6
CONTINUOUS
 62
     4
 10
568.11881831544622
 20
400.79322031308777
 30
0.0
 11
188.03110879201239
 21
400.79322031308777
 31
0.0
  0
TEXT
  8
NOTE
  6
CONTINUOUS
 62
     4
 10
206.82766175570191
 20
428.7814841295135
 30
0.0
 40
64.0
  1
4-φ5×8
 41
0.9
  0
LINE
  8
NOTE
  6
CONTINUOUS
 62
     4
 10
188.03110879201239
 20
400.79322031308777
 30
0.0
 11
7.3599941140895453
 21
166.97789463122311
 31
0.0
  0
LINE
  8
DETAIL
  6
CONTINUOUS
 62
     4
 10
4.9497979902628799
 20
161.2528921041764
 30
0.0
 11
0.0
 21
157.5
 31
0.0
  0
LINE
  8
DETAIL
  6
CONTINUOUS
 62
     4
 10
0.0
 20
157.5
 30
0.0
 11
2.4101961238266649
 21
163.22500252704671
 31
0.0
  0
LINE
  8
DETAIL
  6
CONTINUOUS
 62
     4
 10
0.0
 20
157.5
 30
0.0
 11
7.3599941140895453
 21
166.97789463122311
 31
0.0
  0
LINE
  8
BASIS
  6
DASHDOT
 62
     6
 10
-84.079028494248632
 20
0.0
 30
0.0
 11
164.26855306435209
 21
0.0
 31
0.0
  0
POINT
  8
ARRANGE
  6
CONTINUOUS
 62
     1
 10
0.0
 20
0.0
 30
0.0
  0
CIRCLE
  8
ARRANGE
  6
CONTINUOUS
 62
     1
 10
0.0
 20
0.0
 30
0.0
 40
40.0
  0
LINE
  8
DETAIL
  6
CONTINUOUS
 62
     5
 10
0.0
 20
0.0
 30
0.0
 11
0.0
 21
-144.5
 31
0.0
  0
LINE
  8
DETAIL
  6
CONTINUOUS
 62
     5
 10
-10.0
 20
-190.5
 30
0.0
 11
-10.0
 21
-193.5
 31
0.0
  0
LINE
  8
DETAIL
  6
CONTINUOUS
 62
     5
 10
-10.0
 20
-182.0
 30
0.0
 11
-10.0
 21
-188.49999999999989
 31
0.0
  0
ARC
  8
DETAIL
  6
CONTINUOUS
 62
     5
 10
-10.771115000000011
 20
-190.5
 30
0.0
 40
4.0
 50
281.11500000000058
 51
317.69501000000201
  0
ARC
  8
DETAIL
  6
CONTINUOUS
 62
     5
 10
-30.0
 20
-173.0
 30
0.0
 40
30.0
 50
317.69501000000201
 51
0.0
  0
LINE
  8
DETAIL
  6
CONTINUOUS
 62
     5
 10
-30.939016999999922
 20
-173.0
 30
0.0
 11
-45.668889999999919
 21
-173.0
 31
0.0
  0
LINE
  8
DETAIL
  6
CONTINUOUS
 62
     5
 10
-14.45800000000008
 20
-173.0
 30
0.0
 11
-14.601999999999981
 21
-173.0
 31
0.0
  0
LINE
  8
DETAIL
  6
CONTINUOUS
 62
     5
 10
0.0
 20
-130.0
 30
0.0
 11
0.0
 21
-173.0
 31
0.0
  0
LINE
  8
DETAIL
  6
CONTINUOUS
 62
     5
 10
-10.0
 20
-173.0
 30
0.0
 11
-10.0
 21
-180.0
 31
0.0
  0
LINE
  8
DETAIL
  6
CONTINUOUS
 62
     5
 10
0.0
 20
-173.0
 30
0.0
 11
-30.939016999999922
 21
-173.0
 31
0.0
  0
ARC
  8
DETAIL
  6
CONTINUOUS
 62
     5
 10
-69.713529999999992
 20
127.962751
 30
0.0
 40
34.713529999999999
 50
0.0
 51
47.234136000002508
  0
ARC
  8
DETAIL
  6
CONTINUOUS
 62
     5
 10
-78.427729999999997
 20
128.0
 30
0.0
 40
36.76773
 50
0.0
 51
37.407145999997717
  0
ARC
  8
DETAIL
  6
CONTINUOUS
 62
     5
 10
-42.866982000000007
 20
155.19527299999999
 30
0.0
 40
8.0
 50
191.33518700000059
 51
217.40714599999771
  0
ARC
  8
DETAIL
  6
CONTINUOUS
 62
     5
 10
-40.710870999999997
 20
159.32022799999999
 30
0.0
 40
8.0
 50
170.1389290000034
 51
227.23413600000251
  0
ARC
  8
DETAIL
  6
CONTINUOUS
 62
     5
 10
-30.682327999999981
 20
152.462354
 30
0.0
 40
20.0
 50
146.50375700000191
 51
163.9257810000002
  0
ARC
  8
DETAIL
  6
CONTINUOUS
 62
     5
 10
-30.682327999999981
 20
152.462354
 30
0.0
 40
20.0
 50
148.10952699999339
 51
171.8353579999924
  0
ARC
  8
DETAIL
  6
CONTINUOUS
 62
     5
 10
98.0
 20
134.0
 30
0.0
 40
150.0
 50
171.8353579999924
 51
180.0
  0
LINE
  8
DETAIL
  6
CONTINUOUS
 62
     5
 10
-35.0
 20
127.962751
 30
0.0
 11
-35.0
 21
-153.8428269999998
 31
0.0
  0
LINE
  8
DETAIL
  6
CONTINUOUS
 62
     5
 10
-41.659999999999968
 20
-137.5103839999999
 30
0.0
 11
-41.659999999999968
 21
128.0
 31
0.0
  0
ARC
  8
DETAIL
  6
CONTINUOUS
 62
     5
 10
124.82076499999989
 20
-134.50937300000001
 30
0.0
 40
160.98589799999999
 50
186.89753199999561
 51
193.60674999999381
  0
ARC
  8
DETAIL
  6
CONTINUOUS
 62
     5
 10
-32.132754999999968
 20
-172.5
 30
0.0
 40
0.5
 50
270.0
 51
13.606749999993781
  0
LINE
  8
DETAIL
  6
CONTINUOUS
 62
     5
 10
-31.95152499999995
 20
-173.0
 30
0.0
 11
-45.687159999999949
 21
-173.0
 31
0.0
  0
LINE
  8
DETAIL
  6
CONTINUOUS
 62
     5
 10
-35.0
 20
-173.0
 30
0.0
 11
-45.687159999999949
 21
-173.0
 31
0.0
  0
LINE
  8
DETAIL
  6
CONTINUOUS
 62
     5
 10
-35.0
 20
-173.0
 30
0.0
 11
-45.687159999999949
 21
-173.0
 31
0.0
  0
LINE
  8
DETAIL
  6
CONTINUOUS
 62
     5
 10
-35.0
 20
-173.0
 30
0.0
 11
-45.687159999999949
 21
-173.0
 31
0.0
  0
ARC
  8
DETAIL
  6
CONTINUOUS
 62
     5
 10
98.0
 20
-134.0
 30
0.0
 40
150.0
 50
180.0
 51
195.07006200000239
  0
ARC
  8
DETAIL
  6
CONTINUOUS
 62
     5
 10
-43.978978999999981
 20
-160.84025700000009
 30
0.0
 40
6.0
 50
140.75172000000509
 51
166.83142899999669
  0
ARC
  8
DETAIL
  6
CONTINUOUS
 62
     5
 10
-72.535067000000026
 20
-137.5103839999999
 30
0.0
 40
30.874559999999988
 50
320.7517200000018
 51
0.0
  0
LINE
  8
DETAIL
  6
CONTINUOUS
 62
     5
 10
-52.0
 20
134.0
 30
0.0
 11
-52.0
 21
-134.0
 31
0.0
  0
ARC
  8
DETAIL
  6
CONTINUOUS
 62
     5
 10
-15.12520252197999
 20
-187.5409240860732
 30
0.0
 40
9.4664983122038908
 50
267.73095318133079
 51
302.77928422478692
  0
ARC
  8
DETAIL
  6
CONTINUOUS
 62
     5
 10
98.0
 20
-134.0
 30
0.0
 40
150.0
 50
195.07006200000239
 51
199.31547099999241
  0
LINE
  8
DETAIL
  6
CONTINUOUS
 62
     5
 10
-10.0
 20
-174.0
 30
0.0
 11
-10.0
 21
-195.5
 31
0.0
  0
LINE
  8
DETAIL
  6
CONTINUOUS
 62
     5
 10
-15.5
 20
-197.0
 30
0.0
 11
-24.682516999999962
 21
-197.0
 31
0.0
  0
ARC
  8
DETAIL
  6
CONTINUOUS
 62
     5
 10
-24.682516999999962
 20
-177.0
 30
0.0
 40
20.0
 50
199.31547099999241
 51
270.0
  0
LINE
  8
DETAIL
  6
CONTINUOUS
 62
     5
 10
0.0
 20
173.0
 30
0.0
 11
-31.082247999999939
 21
172.45835500000001
 31
0.0
  0
LINE
  8
DETAIL
  6
CONTINUOUS
 62
     5
 10
0.0
 20
173.0
 30
0.0
 11
0.0
 21
-120.0
 31
0.0
  0
ARC
  8
DETAIL
  6
CONTINUOUS
 62
     5
 10
-30.682327999999981
 20
152.462354
 30
0.0
 40
20.0
 50
91.14576300000401
 51
145.14583900000571
  0
LINE
  8
BASIS
  6
DASHDOT
 62
     6
 10
0.0
 20
-137.5
 30
0.0
 11
0.0
 21
-177.5
 31
0.0
  0
LINE
  8
DETAIL
  6
CONTINUOUS
 62
     5
 10
0.0
 20
-173.0
 30
0.0
 11
-46.841292000000067
 21
-173.0
 31
0.0
  0
LINE
  8
SIZE
  6
CONTINUOUS
 62
    30
 10
102.2854961711391
 20
145.0
 30
0.0
 11
456.42394138611212
 21
145.0
 31
0.0
  0
LINE
  8
SIZE
  6
CONTINUOUS
 62
    30
 10
102.2854961711391
 20
-145.0
 30
0.0
 11
456.42394138611212
 21
-145.0
 31
0.0
  0
LINE
  8
SIZE
  6
CONTINUOUS
 62
    30
 10
455.13844521497282
 20
133.0
 30
0.0
 11
455.13844521497282
 21
-133.0
 31
0.0
  0
CIRCLE
  8
SIZE
  6
CONTINUOUS
 62
    30
 10
455.13844521497282
 20
145.0
 30
0.0
 40
6.0
  0
LINE
  8
SIZE
  6
CONTINUOUS
 62
    30
 10
455.13844521497282
 20
145.0
 30
0.0
 11
455.13844521497282
 21
133.0
 31
0.0
  0
CIRCLE
  8
SIZE
  6
CONTINUOUS
 62
    30
 10
455.13844521497282
 20
-145.0
 30
0.0
 40
6.0
  0
LINE
  8
SIZE
  6
CONTINUOUS
 62
    30
 10
455.13844521497282
 20
-145.0
 30
0.0
 11
455.13844521497282
 21
-133.0
 31
0.0
  0
TEXT
  8
SIZE
  6
CONTINUOUS
 62
    30
 10
430.13844521497282
 20
-110.5371428571429
 30
0.0
 40
64.0
  1
□290
 50
90.0
 41
0.9
 72
     1
 11
430.13844521497282
 21
0.0
 31
0.0
  0
LINE
  8
SIZE
  6
CONTINUOUS
 62
    30
 10
-66.554205958585953
 20
-173.0
 30
0.0
 11
-127.67505742887781
 21
-173.0
 31
0.0
  0
LINE
  8
SIZE
  6
CONTINUOUS
 62
    30
 10
-50.025322831404083
 20
-197.0
 30
0.0
 11
-127.67505742887781
 21
-197.0
 31
0.0
  0
TEXT
  8
SIZE
  6
CONTINUOUS
 62
    30
 10
-148.93562098570661
 20
-234.0214046279043
 30
0.0
 40
64.0
  1
24
 50
90.0
 41
0.9
 72
     1
 11
-148.93562098570661
 21
-186.0214046279043
 31
0.0
  0
LINE
  8
SIZE
  6
CONTINUOUS
 62
    30
 10
-107.67505742887759
 20
-173.0
 30
0.0
 11
-107.67505742887759
 21
-197.0
 31
0.0
  0
LINE
  8
SIZE
  6
CONTINUOUS
 62
    30
 10
-107.67505742887759
 20
-173.0
 30
0.0
 11
-107.67505742887759
 21
-197.0
 31
0.0
  0
CIRCLE
  8
SIZE
  6
CONTINUOUS
 62
    30
 10
-107.67505742887759
 20
-173.0
 30
0.0
 40
6.0
  0
LINE
  8
SIZE
  6
CONTINUOUS
 62
    30
 10
-107.67505742887759
 20
-173.0
 30
0.0
 11
-107.67505742887759
 21
-161.0
 31
0.0
  0
CIRCLE
  8
SIZE
  6
CONTINUOUS
 62
    30
 10
-107.67505742887759
 20
-197.0
 30
0.0
 40
6.0
  0
LINE
  8
SIZE
  6
CONTINUOUS
 62
    30
 10
-107.67505742887759
 20
-197.0
 30
0.0
 11
-107.67505742887759
 21
-209.0
 31
0.0
  0
LINE
  8
SIZE
  6
CONTINUOUS
 62
    30
 10
40.0
 20
157.5
 30
0.0
 11
586.4218432149728
 21
157.5
 31
0.0
  0
LINE
  8
SIZE
  6
CONTINUOUS
 62
    30
 10
40.0
 20
-157.5
 30
0.0
 11
586.4218432149728
 21
-157.5
 31
0.0
  0
LINE
  8
SIZE
  6
CONTINUOUS
 62
    30
 10
566.4218432149728
 20
145.5
 30
0.0
 11
566.4218432149728
 21
-145.5
 31
0.0
  0
CIRCLE
  8
SIZE
  6
CONTINUOUS
 62
    30
 10
566.4218432149728
 20
157.5
 30
0.0
 40
6.0
  0
LINE
  8
SIZE
  6
CONTINUOUS
 62
    30
 10
566.4218432149728
 20
157.5
 30
0.0
 11
566.4218432149728
 21
145.5
 31
0.0
  0
CIRCLE
  8
SIZE
  6
CONTINUOUS
 62
    30
 10
566.4218432149728
 20
-157.5
 30
0.0
 40
6.0
  0
LINE
  8
SIZE
  6
CONTINUOUS
 62
    30
 10
566.4218432149728
 20
-157.5
 30
0.0
 11
566.4218432149728
 21
-145.5
 31
0.0
  0
TEXT
  8
SIZE
  6
CONTINUOUS
 62
    30
 10
541.4218432149728
 20
-68.571428571428569
 30
0.0
 40
64.0
  1
315
 50
90.0
 41
0.9
 72
     1
 11
541.4218432149728
 21
0.0
 31
0.0
  0
LINE
  8
SIZE
  6
CONTINUOUS
 62
    30
 10
-52.0
 20
154.0
 30
0.0
 11
-52.0
 21
285.17878900000011
 31
0.0
  0
LINE
  8
SIZE
  6
CONTINUOUS
 62
    30
 10
-35.0
 20
147.962751
 30
0.0
 11
-35.0
 21
285.17878900000011
 31
0.0
  0
LINE
  8
SIZE
  6
CONTINUOUS
 62
    30
 10
-64.0
 20
265.17878900000011
 30
0.0
 11
-72.0
 21
265.17878900000011
 31
0.0
  0
LINE
  8
SIZE
  6
CONTINUOUS
 62
    30
 10
-23.0
 20
265.17878900000011
 30
0.0
 11
-7.0
 21
265.17878900000011
 31
0.0
  0
LINE
  8
SIZE
  6
CONTINUOUS
 62
    30
 10
-225.70908299999999
 20
265.17878900000011
 30
0.0
 11
-52.0
 21
265.17878900000011
 31
0.0
  0
TEXT
  8
SIZE
  6
CONTINUOUS
 62
    30
 10
-200.7090831428572
 20
290.17878899999982
 30
0.0
 40
64.0
  1
17
 41
0.9
 72
     1
 11
-159.566226
 21
290.17878899999982
 31
0.0
  0
LINE
  8
SIZE
  6
CONTINUOUS
 62
    30
 10
-52.0
 20
265.17878900000011
 30
0.0
 11
-35.0
 21
265.17878900000011
 31
0.0
  0
LINE
  8
SIZE
  6
CONTINUOUS
 62
    30
 10
-52.0
 20
265.17878900000011
 30
0.0
 11
-35.0
 21
265.17878900000011
 31
0.0
  0
CIRCLE
  8
SIZE
  6
CONTINUOUS
 62
    30
 10
-52.0
 20
265.17878900000011
 30
0.0
 40
6.0
  0
LINE
  8
SIZE
  6
CONTINUOUS
 62
    30
 10
-52.0
 20
265.17878900000011
 30
0.0
 11
-64.0
 21
265.17878900000011
 31
0.0
  0
CIRCLE
  8
SIZE
  6
CONTINUOUS
 62
    30
 10
-35.0
 20
265.17878900000011
 30
0.0
 40
6.0
  0
LINE
  8
SIZE
  6
CONTINUOUS
 62
    30
 10
-35.0
 20
265.17878900000011
 30
0.0
 11
-23.0
 21
265.17878900000011
 31
0.0
  0
LINE
  8
SIZE
  6
CONTINUOUS
 62
    30
 10
0.0
 20
193.0
 30
0.0
 11
0.0
 21
568.99099036433643
 31
0.0
  0
LINE
  8
SIZE
  6
CONTINUOUS
 62
    30
 10
12.0
 20
548.99099036433643
 30
0.0
 11
24.0
 21
548.99099036433643
 31
0.0
  0
CIRCLE
  8
SIZE
  6
CONTINUOUS
 62
    30
 10
0.0
 20
548.99099036433643
 30
0.0
 40
6.0
  0
LINE
  8
SIZE
  6
CONTINUOUS
 62
    30
 10
0.0
 20
548.99099036433643
 30
0.0
 11
12.0
 21
548.99099036433643
 31
0.0
  0
LINE
  8
SIZE
  6
CONTINUOUS
 62
    30
 10
0.0
 20
193.0
 30
0.0
 11
0.0
 21
568.99099036433643
 31
0.0
  0
LINE
  8
SIZE
  6
CONTINUOUS
 62
    30
 10
-12.0
 20
548.99099036433643
 30
0.0
 11
-24.0
 21
548.99099036433643
 31
0.0
  0
CIRCLE
  8
SIZE
  6
CONTINUOUS
 62
    30
 10
0.0
 20
548.99099036433643
 30
0.0
 40
6.0
  0
LINE
  8
SIZE
  6
CONTINUOUS
 62
    30
 10
0.0
 20
548.99099036433643
 30
0.0
 11
-12.0
 21
548.99099036433643
 31
0.0
  0
ARC
  8
OUTLINE
  6
CONTINUOUS
 62
     3
 10
-30.0
 20
-173.0
 30
0.0
 40
30.0
 50
317.69501000000201
 51
0.0
  0
LINE
  8
OUTLINE
  6
CONTINUOUS
 62
     3
 10
0.0
 20
173.0
 30
0.0
 11
0.0
 21
145.0
 31
0.0
  0
LINE
  8
OUTLINE
  6
CONTINUOUS
 62
     3
 10
-52.0
 20
134.0
 30
0.0
 11
-52.0
 21
-134.0
 31
0.0
  0
ARC
  8
OUTLINE
  6
CONTINUOUS
 62
     3
 10
-24.682516999999962
 20
-177.0
 30
0.0
 40
20.0
 50
199.31547099999241
 51
270.0
  0
LINE
  8
OUTLINE
  6
CONTINUOUS
 62
     3
 10
-10.0
 20
-194.42496900074059
 30
0.0
 11
-10.0
 21
-195.5
 31
0.0
  0
LINE
  8
OUTLINE
  6
CONTINUOUS
 62
     3
 10
-15.5
 20
-197.0
 30
0.0
 11
-24.682516999999962
 21
-197.0
 31
0.0
  0
ARC
  8
OUTLINE
  6
CONTINUOUS
 62
     3
 10
-15.12520252197999
 20
-187.5409240860732
 30
0.0
 40
9.4664983122038908
 50
267.73095318133079
 51
302.77928422478692
  0
ARC
  8
OUTLINE
  6
CONTINUOUS
 62
     3
 10
-10.771115000000011
 20
-190.5
 30
0.0
 40
4.0
 50
281.11500000000058
 51
317.69501000000201
  0
ARC
  8
OUTLINE
  6
CONTINUOUS
 62
     3
 10
98.0
 20
-134.0
 30
0.0
 40
150.0
 50
195.07006200000239
 51
199.31547099999241
  0
ARC
  8
OUTLINE
  6
CONTINUOUS
 62
     3
 10
98.0
 20
-134.0
 30
0.0
 40
150.0
 50
180.0
 51
195.07006200000239
  0
LINE
  8
OUTLINE
  6
CONTINUOUS
 62
     3
 10
0.0
 20
-144.84508265020091
 30
0.0
 11
0.0
 21
-173.0
 31
0.0
  0
ARC
  8
OUTLINE
  6
CONTINUOUS
 62
     3
 10
-30.682327999999981
 20
152.462354
 30
0.0
 40
20.0
 50
91.14576300000401
 51
145.14583900000571
  0
LINE
  8
OUTLINE
  6
CONTINUOUS
 62
     3
 10
0.0
 20
173.0
 30
0.0
 11
-31.082247999999939
 21
172.45835500000001
 31
0.0
  0
ARC
  8
OUTLINE
  6
CONTINUOUS
 62
     3
 10
98.0
 20
134.0
 30
0.0
 40
150.0
 50
171.8353579999924
 51
180.0
  0
ARC
  8
OUTLINE
  6
CONTINUOUS
 62
     3
 10
-30.682327999999981
 20
152.462354
 30
0.0
 40
20.0
 50
148.10952699999339
 51
171.8353579999924
  0
ARC
  8
OUTLINE
  6
CONTINUOUS
 62
     3
 10
-30.682327999999981
 20
152.462354
 30
0.0
 40
20.0
 50
146.50375700000191
 51
163.9257810000002
  0
LINE
  8
SIZE
  6
CONTINUOUS
 62
    30
 10
0.0
 20
196.63844704937131
 30
0.0
 11
0.0
 21
424.79348239073119
 31
0.0
  0
LINE
  8
SIZE
  6
CONTINUOUS
 62
    30
 10
29.936252534511251
 20
183.8532006963396
 30
0.0
 11
29.936252534511251
 21
424.79348239073119
 31
0.0
  0
LINE
  8
SIZE
  6
CONTINUOUS
 62
    30
 10
41.936252534511247
 20
404.79348239073119
 30
0.0
 11
53.936252534511247
 21
404.79348239073119
 31
0.0
  0
LINE
  8
SIZE
  6
CONTINUOUS
 62
    30
 10
-12.0
 20
404.79348239073119
 30
0.0
 11
-208.1085154337371
 21
404.79348239073119
 31
0.0
  0
LINE
  8
SIZE
  6
CONTINUOUS
 62
    30
 10
29.936252534511251
 20
404.79348239073119
 30
0.0
 11
0.0
 21
404.79348239073119
 31
0.0
  0
CIRCLE
  8
SIZE
  6
CONTINUOUS
 62
    30
 10
29.936252534511251
 20
404.79348239073119
 30
0.0
 40
6.0
  0
LINE
  8
SIZE
  6
CONTINUOUS
 62
    30
 10
29.936252534511251
 20
404.79348239073119
 30
0.0
 11
41.936252534511247
 21
404.79348239073119
 31
0.0
  0
CIRCLE
  8
SIZE
  6
CONTINUOUS
 62
    30
 10
0.0
 20
404.79348239073119
 30
0.0
 40
6.0
  0
LINE
  8
SIZE
  6
CONTINUOUS
 62
    30
 10
0.0
 20
404.79348239073119
 30
0.0
 11
-12.0
 21
404.79348239073119
 31
0.0
  0
TEXT
  8
SIZE
  6
CONTINUOUS
 62
    30
 10
-183.1085154337371
 20
429.79348239073119
 30
0.0
 40
64.0
  1
30
 41
0.9
 72
     1
 11
-136.47994400516561
 21
429.79348239073119
 31
0.0
  0
LINE
  8
DETAIL
  6
CONTINUOUS
 62
     5
 10
33.698623798687208
 20
145.0
 30
0.0
 11
33.698623798687208
 21
151.8976790981404
 31
0.0
  0
LINE
  8
DETAIL
  6
CONTINUOUS
 62
     5
 10
32.444544088374982
 20
153.15156832111731
 30
0.0
 11
33.698533859615402
 21
151.8975785498769
 31
0.0
  0
LINE
  8
DETAIL
  6
CONTINUOUS
 62
     5
 10
32.444500043961973
 20
153.15180285286621
 30
0.0
 11
29.936252534511251
 21
153.15180285286621
 31
0.0
  0
LINE
  8
DETAIL
  6
CONTINUOUS
 62
     5
 10
33.698623798687208
 20
151.8976790981404
 30
0.0
 11
29.936252534511251
 21
151.8976790981404
 31
0.0
  0
LINE
  8
DETAIL
  6
CONTINUOUS
 62
     5
 10
27.428005025060319
 20
153.15180285286621
 30
0.0
 11
29.936252534511251
 21
153.15180285286621
 31
0.0
  0
LINE
  8
DETAIL
  6
CONTINUOUS
 62
     5
 10
27.427962555105179
 20
153.15175776190611
 30
0.0
 11
26.17397278386477
 21
151.8977679906657
 31
0.0
  0
LINE
  8
DETAIL
  6
CONTINUOUS
 62
     5
 10
26.17388127033507
 20
151.8976790981404
 30
0.0
 11
29.936252534511251
 21
151.8976790981404
 31
0.0
  0
LINE
  8
DETAIL
  6
CONTINUOUS
 62
     5
 10
26.17388127033507
 20
145.0
 30
0.0
 11
26.17388127033507
 21
151.8976790981404
 31
0.0
  0
LINE
  8
NOTE
  6
CONTINUOUS
 62
     4
 10
29.936252534511251
 20
139.91884752541321
 30
0.0
 11
29.936252534511251
 21
163.8532006963396
 31
0.0
  0
ARC
  8
DETAIL
  6
CONTINUOUS
 62
     5
 10
71.318889741709313
 20
-143.7577105185409
 30
0.0
 40
1.087372131659782
 50
270.0
 51
300.00000000001512
  0
LINE
  8
DETAIL
  6
CONTINUOUS
 62
     5
 10
89.737213165977323
 20
-144.29613086750791
 30
0.0
 11
89.737213165977323
 21
145.0
 31
0.0
  0
LINE
  8
DETAIL
  6
CONTINUOUS
 62
     5
 10
89.733119087270438
 20
-144.30139658437079
 30
0.0
 11
89.733119087270438
 21
-144.84508265020079
 31
0.0
  0
LINE
  8
DETAIL
  6
CONTINUOUS
 62
     5
 10
0.0
 20
-144.84508265020079
 30
0.0
 11
89.733119087270438
 21
-144.84508265020079
 31
0.0
  0
LINE
  8
DETAIL
  6
CONTINUOUS
 62
     5
 10
0.0
 20
-97.368767081563419
 30
0.0
 11
0.0
 21
142.63132428427841
 31
0.0
  0
LINE
  8
DETAIL
  6
CONTINUOUS
 62
     5
 10
0.0
 20
-162.61770034873601
 30
0.0
 11
0.0
 21
-107.36877088847361
 31
0.0
  0
ARC
  8
DETAIL
  6
CONTINUOUS
 62
     5
 10
-8.0647513804369737
 20
-123.0542414042293
 30
0.0
 40
2.000835836247242
 50
180.00035947079849
 51
264.29045019690238
  0
ARC
  8
DETAIL
  6
CONTINUOUS
 62
     5
 10
-8.0647513804369737
 20
-118.6723611503962
 30
0.0
 40
2.0008358362471821
 50
95.710973809504537
 51
180.00103404369949
  0
LINE
  8
DETAIL
  6
CONTINUOUS
 62
     5
 10
-10.06558721683405
 20
-123.054253957423
 30
0.0
 11
-10.06558721683405
 21
-118.6723972604314
 31
0.0
  0
LINE
  8
DETAIL
  6
CONTINUOUS
 62
     5
 10
-8.2638552149328461
 20
-116.6814564044485
 30
0.0
 11
-0.0614080352979727
 21
-115.86121168654471
 31
0.0
  0
LINE
  8
DETAIL
  6
CONTINUOUS
 62
     5
 10
-0.0614080352979727
 20
-125.86539086808079
 30
0.0
 11
-8.2638419870572761
 21
-125.0451474728297
 31
0.0
  0
LINE
  8
DETAIL
  6
CONTINUOUS
 62
     5
 10
0.0
 20
-107.36877088847361
 30
0.0
 11
0.0
 21
-96.844979892282481
 31
0.0
  0
LINE
  8
DETAIL
  6
CONTINUOUS
 62
     5
 10
89.737213165977323
 20
145.0
 30
0.0
 11
0.0
 21
145.0
 31
0.0
  0
LINE
  8
DETAIL
  6
CONTINUOUS
 62
     5
 10
85.901352951473882
 20
-119.8443920156766
 30
0.0
 11
85.901352951473882
 21
119.7382896915903
 31
0.0
  0
LINE
  8
DETAIL
  6
CONTINUOUS
 62
     5
 10
69.489827891171046
 20
119.7382896915903
 30
0.0
 11
69.489827891171046
 21
-119.8443920156766
 31
0.0
  0
CIRCLE
  8
DETAIL
  6
CONTINUOUS
 62
     5
 10
77.695590421323004
 20
115.3773099034108
 30
0.0
 40
4.8347795210661184
  0
LINE
  8
DETAIL
  6
CONTINUOUS
 62
     5
 10
75.900773488570906
 20
117.1721325852579
 30
0.0
 11
79.490407354073454
 21
113.5824872215631
 31
0.0
  0
LINE
  8
DETAIL
  6
CONTINUOUS
 62
     5
 10
79.490413103169089
 20
117.17212683616231
 30
0.0
 11
75.90076773947419
 21
113.5824929706593
 31
0.0
  0
CIRCLE
  8
DETAIL
  6
CONTINUOUS
 62
     5
 10
77.695590421323004
 20
29.559973404486811
 30
0.0
 40
4.8347795210661184
  0
LINE
  8
DETAIL
  6
CONTINUOUS
 62
     5
 10
75.900773488570906
 20
31.354796086334488
 30
0.0
 11
79.490407354073454
 21
27.765150722640211
 31
0.0
  0
LINE
  8
DETAIL
  6
CONTINUOUS
 62
     5
 10
79.490413103169089
 20
31.354790337238342
 30
0.0
 11
75.90076773947419
 21
27.76515647173585
 31
0.0
  0
CIRCLE
  8
DETAIL
  6
CONTINUOUS
 62
     5
 10
77.695590421323004
 20
-56.257363094436641
 30
0.0
 40
4.8347795210661184
  0
LINE
  8
DETAIL
  6
CONTINUOUS
 62
     5
 10
75.900773488570906
 20
-54.462540412589483
 30
0.0
 11
79.490407354073454
 21
-58.052185776283778
 31
0.0
  0
LINE
  8
DETAIL
  6
CONTINUOUS
 62
     5
 10
79.490413103169089
 20
-54.462546161685111
 30
0.0
 11
75.90076773947419
 21
-58.052180027187603
 31
0.0
  0
ARC
  8
DETAIL
  6
CONTINUOUS
 62
     5
 10
92.494994252920321
 20
115.0218836905993
 30
0.0
 40
0.36245737721994
 50
72.999999999977618
 51
162.99999999999071
  0
ARC
  8
DETAIL
  6
CONTINUOUS
 62
     5
 10
91.801754825581781
 20
115.23382825313389
 30
0.0
 40
0.3624573772198627
 50
253.00000000001191
 51
342.99999999999068
  0
ARC
  8
DETAIL
  6
CONTINUOUS
 62
     5
 10
157.3415931558832
 20
102.2863987610626
 30
0.0
 40
0.3262116394978895
 50
342.99999999999068
 51
73.000000000011866
  0
ARC
  8
DETAIL
  6
CONTINUOUS
 62
     5
 10
157.22088709987679
 20
101.89158704170779
 30
0.0
 40
0.3262116394977832
 50
238.5668777572271
 51
343.00000000000489
  0
ARC
  8
DETAIL
  6
CONTINUOUS
 62
     5
 10
157.22088709987679
 20
101.89158704170779
 30
0.0
 40
0.6524232789958225
 50
238.56687775721221
 51
343.00000000000489
  0
ARC
  8
DETAIL
  6
CONTINUOUS
 62
     5
 10
157.3415931558832
 20
102.2863987610626
 30
0.0
 40
0.6524232789960447
 50
343.00000000000489
 51
72.999999999991275
  0
LINE
  8
DETAIL
  6
CONTINUOUS
 62
     5
 10
153.4392875113704
 20
103.82057014731249
 30
0.0
 11
157.05076675913159
 21
101.61324713542869
 31
0.0
  0
LINE
  8
DETAIL
  6
CONTINUOUS
 62
     5
 10
156.88064641838639
 20
101.3349072291491
 30
0.0
 11
153.26916717066149
 21
103.5422302411493
 31
0.0
  0
LINE
  8
DETAIL
  6
CONTINUOUS
 62
     5
 10
157.53234326216369
 20
102.9103142456682
 30
0.0
 11
89.782539223987953
 21
121.7891239141981
 31
0.0
  0
LINE
  8
DETAIL
  6
CONTINUOUS
 62
     5
 10
157.43696820902321
 20
102.59835650336539
 30
0.0
 11
145.92919371520281
 21
106.11663624143409
 31
0.0
  0
LINE
  8
DETAIL
  6
CONTINUOUS
 62
     5
 10
94.565144911646712
 20
114.7679938104215
 30
0.0
 11
92.600966534187592
 21
115.36850340426859
 31
0.0
  0
LINE
  8
DETAIL
  6
CONTINUOUS
 62
     5
 10
141.94756599832539
 20
101.3580806283084
 30
0.0
 11
94.353200349112171
 21
114.0747543830835
 31
0.0
  0
LINE
  8
DETAIL
  6
CONTINUOUS
 62
     5
 10
89.782539223987953
 20
115.4721457235844
 30
0.0
 11
91.695782544314511
 21
114.88720853946459
 31
0.0
  0
LINE
  8
DETAIL
  6
CONTINUOUS
 62
     5
 10
141.94756598886099
 20
101.35808063082339
 30
0.0
 11
144.96484595567131
 21
102.9623968470429
 31
0.0
  0
LINE
  8
DETAIL
  6
CONTINUOUS
 62
     5
 10
94.353200349112171
 20
114.0747543830835
 30
0.0
 11
94.565144911646712
 21
114.7679938104215
 31
0.0
  0
LINE
  8
DETAIL
  6
CONTINUOUS
 62
     5
 10
153.26916717066149
 20
103.5422302411493
 30
0.0
 11
153.4392875113704
 21
103.82057014731249
 31
0.0
  0
LINE
  8
DETAIL
  6
CONTINUOUS
 62
     5
 10
144.96484595567131
 20
102.9623968470429
 30
0.0
 11
146.02456876834279
 21
106.42859398373631
 31
0.0
  0
LINE
  8
DETAIL
  6
CONTINUOUS
 62
     5
 10
157.43696820902321
 20
102.59835650336539
 30
0.0
 11
157.53234326216369
 21
102.9103142456682
 31
0.0
  0
LINE
  8
DETAIL
  6
CONTINUOUS
 62
     5
 10
157.532844842179
 20
101.79621198856729
 30
0.0
 11
157.6535508981849
 21
102.1910237079227
 31
0.0
  0
LINE
  8
DETAIL
  6
CONTINUOUS
 62
     5
 10
157.9655086404878
 20
102.0956486547821
 30
0.0
 11
157.8448025844813
 21
101.7008369354273
 31
0.0
  0
LINE
  8
DETAIL
  6
CONTINUOUS
 62
     5
 10
157.53234326216369
 20
17.09297774674425
 30
0.0
 11
89.782539223987953
 21
35.97178741527415
 31
0.0
  0
LINE
  8
DETAIL
  6
CONTINUOUS
 62
     5
 10
89.782539223987953
 20
29.654809224660429
 30
0.0
 11
91.695782544314511
 21
29.0698720405411
 31
0.0
  0
ARC
  8
DETAIL
  6
CONTINUOUS
 62
     5
 10
92.494994252920321
 20
29.204547191675889
 30
0.0
 40
0.3624573772198385
 50
73.000000000011866
 51
163.00000000000489
  0
ARC
  8
DETAIL
  6
CONTINUOUS
 62
     5
 10
91.801754825581781
 20
29.41649175421043
 30
0.0
 40
0.3624573772199498
 50
252.9999999999776
 51
342.99999999998431
  0
ARC
  8
DETAIL
  6
CONTINUOUS
 62
     5
 10
157.3415931558832
 20
16.469062262139769
 30
0.0
 40
0.3262116394978847
 50
343.00000000000489
 51
73.000000000011866
  0
ARC
  8
DETAIL
  6
CONTINUOUS
 62
     5
 10
157.22088709987679
 20
16.07425054278383
 30
0.0
 40
0.3262116394979233
 50
238.5668777571891
 51
342.99999999999068
  0
ARC
  8
DETAIL
  6
CONTINUOUS
 62
     5
 10
157.22088709987679
 20
16.07425054278383
 30
0.0
 40
0.6524232789959821
 50
238.5668777571891
 51
342.99999999999068
  0
ARC
  8
DETAIL
  6
CONTINUOUS
 62
     5
 10
157.3415931558832
 20
16.469062262139769
 30
0.0
 40
0.6524232789957789
 50
342.99999999999068
 51
72.999999999991275
  0
LINE
  8
DETAIL
  6
CONTINUOUS
 62
     5
 10
153.4392875113704
 20
18.0032336483896
 30
0.0
 11
157.05076675913159
 21
15.79591063650477
 31
0.0
  0
LINE
  8
DETAIL
  6
CONTINUOUS
 62
     5
 10
156.88064641838639
 20
15.517570730225691
 30
0.0
 11
153.26916717066089
 21
17.724893742225898
 31
0.0
  0
LINE
  8
DETAIL
  6
CONTINUOUS
 62
     5
 10
157.43696820902321
 20
16.781020004441441
 30
0.0
 11
145.92919371520281
 21
20.299299742510069
 31
0.0
  0
LINE
  8
DETAIL
  6
CONTINUOUS
 62
     5
 10
94.565144911646712
 20
28.950657311498109
 30
0.0
 11
92.600966534187023
 21
29.551166905345159
 31
0.0
  0
LINE
  8
DETAIL
  6
CONTINUOUS
 62
     5
 10
141.94756599832539
 20
15.54074412938496
 30
0.0
 11
94.353200349112171
 21
28.257417884159569
 31
0.0
  0
LINE
  8
DETAIL
  6
CONTINUOUS
 62
     5
 10
141.94756598886099
 20
15.54074413189997
 30
0.0
 11
144.96484595567131
 21
17.1450603481195
 31
0.0
  0
LINE
  8
DETAIL
  6
CONTINUOUS
 62
     5
 10
94.353200349112171
 20
28.257417884159569
 30
0.0
 11
94.565144911646712
 21
28.950657311498109
 31
0.0
  0
LINE
  8
DETAIL
  6
CONTINUOUS
 62
     5
 10
153.26916717066089
 20
17.724893742225898
 30
0.0
 11
153.4392875113704
 21
18.0032336483896
 31
0.0
  0
LINE
  8
DETAIL
  6
CONTINUOUS
 62
     5
 10
144.96484595567131
 20
17.1450603481195
 30
0.0
 11
146.02456876834279
 21
20.61125748481285
 31
0.0
  0
LINE
  8
DETAIL
  6
CONTINUOUS
 62
     5
 10
157.43696820902321
 20
16.781020004441441
 30
0.0
 11
157.53234326216369
 21
17.09297774674425
 31
0.0
  0
LINE
  8
DETAIL
  6
CONTINUOUS
 62
     5
 10
157.532844842179
 20
15.978875489643849
 30
0.0
 11
157.6535508981849
 21
16.37368720899866
 31
0.0
  0
LINE
  8
DETAIL
  6
CONTINUOUS
 62
     5
 10
157.96550864048709
 20
16.278312155858149
 30
0.0
 11
157.8448025844807
 21
15.88350043650331
 31
0.0
  0
LINE
  8
DETAIL
  6
CONTINUOUS
 62
     5
 10
157.53234326216369
 20
-68.724358752179739
 30
0.0
 11
89.782539223987953
 21
-49.845549083649303
 31
0.0
  0
LINE
  8
DETAIL
  6
CONTINUOUS
 62
     5
 10
89.782539223987953
 20
-56.162527274263027
 30
0.0
 11
91.695782544314511
 21
-56.747464458382858
 31
0.0
  0
ARC
  8
DETAIL
  6
CONTINUOUS
 62
     5
 10
92.494994252920321
 20
-56.612789307247539
 30
0.0
 40
0.3624573772198288
 50
73.000000000011866
 51
163.00000000000489
  0
ARC
  8
DETAIL
  6
CONTINUOUS
 62
     5
 10
91.801754825581781
 20
-56.400844744713027
 30
0.0
 40
0.3624573772199738
 50
252.9999999999776
 51
342.99999999998431
  0
ARC
  8
DETAIL
  6
CONTINUOUS
 62
     5
 10
157.3415931558832
 20
-69.348274236784221
 30
0.0
 40
0.3262116394978847
 50
343.00000000000489
 51
73.000000000018559
  0
ARC
  8
DETAIL
  6
CONTINUOUS
 62
     5
 10
157.22088709987679
 20
-69.743085956139623
 30
0.0
 40
0.3262116394979378
 50
238.5668777571891
 51
342.99999999999068
  0
ARC
  8
DETAIL
  6
CONTINUOUS
 62
     5
 10
157.22088709987679
 20
-69.743085956139623
 30
0.0
 40
0.6524232789959964
 50
238.5668777571891
 51
342.99999999999068
  0
ARC
  8
DETAIL
  6
CONTINUOUS
 62
     5
 10
157.3415931558832
 20
-69.348274236784221
 30
0.0
 40
0.6524232789957741
 50
342.99999999999068
 51
72.999999999991275
  0
LINE
  8
DETAIL
  6
CONTINUOUS
 62
     5
 10
153.4392875113704
 20
-67.814102850534397
 30
0.0
 11
157.05076675913159
 21
-70.021425862418681
 31
0.0
  0
LINE
  8
DETAIL
  6
CONTINUOUS
 62
     5
 10
156.88064641838639
 20
-70.299765768697739
 30
0.0
 11
153.26916717066089
 21
-68.092442756698063
 31
0.0
  0
LINE
  8
DETAIL
  6
CONTINUOUS
 62
     5
 10
157.43696820902321
 20
-69.03631649448198
 30
0.0
 11
145.92919371520281
 21
-65.51803675641338
 31
0.0
  0
LINE
  8
DETAIL
  6
CONTINUOUS
 62
     5
 10
94.565144911646712
 20
-56.866679187425319
 30
0.0
 11
92.600966534187023
 21
-56.266169593578809
 31
0.0
  0
LINE
  8
DETAIL
  6
CONTINUOUS
 62
     5
 10
141.94756599832539
 20
-70.276592369538491
 30
0.0
 11
94.353200349112171
 21
-57.559918614763887
 31
0.0
  0
LINE
  8
DETAIL
  6
CONTINUOUS
 62
     5
 10
141.94756598886099
 20
-70.276592367023483
 30
0.0
 11
144.96484595567131
 21
-68.672276150803953
 31
0.0
  0
LINE
  8
DETAIL
  6
CONTINUOUS
 62
     5
 10
94.353200349112171
 20
-57.559918614763887
 30
0.0
 11
94.565144911646712
 21
-56.866679187425319
 31
0.0
  0
LINE
  8
DETAIL
  6
CONTINUOUS
 62
     5
 10
153.26916717066089
 20
-68.092442756698063
 30
0.0
 11
153.4392875113704
 21
-67.814102850534397
 31
0.0
  0
LINE
  8
DETAIL
  6
CONTINUOUS
 62
     5
 10
144.96484595567131
 20
-68.672276150803953
 30
0.0
 11
146.02456876834279
 21
-65.20607901411114
 31
0.0
  0
LINE
  8
DETAIL
  6
CONTINUOUS
 62
     5
 10
157.43696820902321
 20
-69.03631649448198
 30
0.0
 11
157.53234326216369
 21
-68.724358752179739
 31
0.0
  0
LINE
  8
DETAIL
  6
CONTINUOUS
 62
     5
 10
157.532844842179
 20
-69.838461009280138
 30
0.0
 11
157.6535508981849
 21
-69.443649289924224
 31
0.0
  0
LINE
  8
DETAIL
  6
CONTINUOUS
 62
     5
 10
157.96550864048709
 20
-69.539024343065307
 30
0.0
 11
157.8448025844807
 21
-69.933836062420113
 31
0.0
  0
ARC
  8
DETAIL
  6
CONTINUOUS
 62
     5
 10
77.695590421322436
 20
-118.4738345304618
 30
0.0
 40
8.3194330649098589
 50
189.48222920439301
 51
350.51777079560708
  0
ARC
  8
DETAIL
  6
CONTINUOUS
 62
     5
 10
77.695590421322436
 20
118.3473371200292
 30
0.0
 40
8.3228172968995384
 50
9.620714433936298
 51
170.37928556606369
  0
LINE
  8
SIZE
  6
CONTINUOUS
 62
    30
 10
89.737213165977323
 20
158.84413110912271
 30
0.0
 11
89.737213165977323
 21
568.99099036433643
 31
0.0
  0
LINE
  8
SIZE
  6
CONTINUOUS
 62
    30
 10
0.0
 20
197.5
 30
0.0
 11
0.0
 21
568.99099036433643
 31
0.0
  0
LINE
  8
SIZE
  6
CONTINUOUS
 62
    30
 10
101.73721316597729
 20
548.99099036433643
 30
0.0
 11
113.73721316597729
 21
548.99099036433643
 31
0.0
  0
LINE
  8
SIZE
  6
CONTINUOUS
 62
    30
 10
-12.0
 20
548.99099036433643
 30
0.0
 11
-24.0
 21
548.99099036433643
 31
0.0
  0
LINE
  8
SIZE
  6
CONTINUOUS
 62
    30
 10
89.737213165977323
 20
548.99099036433643
 30
0.0
 11
0.0
 21
548.99099036433643
 31
0.0
  0
CIRCLE
  8
SIZE
  6
CONTINUOUS
 62
    30
 10
89.737213165977323
 20
548.99099036433643
 30
0.0
 40
6.0
  0
LINE
  8
SIZE
  6
CONTINUOUS
 62
    30
 10
89.737213165977323
 20
548.99099036433643
 30
0.0
 11
101.73721316597729
 21
548.99099036433643
 31
0.0
  0
CIRCLE
  8
SIZE
  6
CONTINUOUS
 62
    30
 10
0.0
 20
548.99099036433643
 30
0.0
 40
6.0
  0
LINE
  8
SIZE
  6
CONTINUOUS
 62
    30
 10
0.0
 20
548.99099036433643
 30
0.0
 11
-12.0
 21
548.99099036433643
 31
0.0
  0
TEXT
  8
SIZE
  6
CONTINUOUS
 62
    30
 10
-1.759964845582765
 20
573.99099036433643
 30
0.0
 40
64.0
  1
90
 41
0.9
 72
     1
 11
44.868606582988662
 21
573.99099036433643
 31
0.0
  0
LINE
  8
SIZE
  6
CONTINUOUS
 62
    30
 10
89.737213165977323
 20
158.84413110912271
 30
0.0
 11
89.737213165977323
 21
568.99099036433643
 31
0.0
  0
LINE
  8
SIZE
  6
CONTINUOUS
 62
    30
 10
157.8448025844815
 20
115.54496804454971
 30
0.0
 11
157.8448025844815
 21
568.99099036433643
 31
0.0
  0
LINE
  8
SIZE
  6
CONTINUOUS
 62
    30
 10
77.737213165977323
 20
548.99099036433643
 30
0.0
 11
65.737213165977323
 21
548.99099036433643
 31
0.0
  0
LINE
  8
SIZE
  6
CONTINUOUS
 62
    30
 10
169.8448025844815
 20
548.99099036433643
 30
0.0
 11
338.10194544162442
 21
548.99099036433643
 31
0.0
  0
LINE
  8
SIZE
  6
CONTINUOUS
 62
    30
 10
89.737213165977323
 20
548.99099036433643
 30
0.0
 11
157.8448025844815
 21
548.99099036433643
 31
0.0
  0
CIRCLE
  8
SIZE
  6
CONTINUOUS
 62
    30
 10
89.737213165977323
 20
548.99099036433643
 30
0.0
 40
6.0
  0
LINE
  8
SIZE
  6
CONTINUOUS
 62
    30
 10
89.737213165977323
 20
548.99099036433643
 30
0.0
 11
77.737213165977323
 21
548.99099036433643
 31
0.0
  0
CIRCLE
  8
SIZE
  6
CONTINUOUS
 62
    30
 10
157.8448025844815
 20
548.99099036433643
 30
0.0
 40
6.0
  0
LINE
  8
SIZE
  6
CONTINUOUS
 62
    30
 10
157.8448025844815
 20
548.99099036433643
 30
0.0
 11
169.8448025844815
 21
548.99099036433643
 31
0.0
  0
TEXT
  8
SIZE
  6
CONTINUOUS
 62
    30
 10
219.84480258448141
 20
573.99099036433643
 30
0.0
 40
64.0
  1
68
 41
0.9
 72
     1
 11
266.47337401305288
 21
573.99099036433643
 31
0.0
  0
LINE
  8
OUTLINE
  6
CONTINUOUS
 62
     3
 10
89.733119087270438
 20
-144.84508265020079
 30
0.0
 11
89.737213165977323
 21
145.0
 31
0.0
  0
LINE
  8
OUTLINE
  6
CONTINUOUS
 62
     3
 10
-0.0952152482842621
 20
-144.84508265020091
 30
0.0
 11
89.733119087270495
 21
-144.84508265020091
 31
0.0
  0
LINE
  8
OUTLINE
  6
CONTINUOUS
 62
     3
 10
89.737213165977323
 20
145.0
 30
0.0
 11
0.0
 21
145.0
 31
0.0
  0
LINE
  8
SIZE
  6
CONTINUOUS
 62
    30
 10
0.0
 20
217.5
 30
0.0
 11
0.0
 21
568.99099036433643
 31
0.0
  0
LINE
  8
SIZE
  6
CONTINUOUS
 62
    30
 10
-52.0
 20
154.0
 30
0.0
 11
-52.0
 21
568.99099036433643
 31
0.0
  0
LINE
  8
SIZE
  6
CONTINUOUS
 62
    30
 10
12.0
 20
548.99099036433643
 30
0.0
 11
24.0
 21
548.99099036433643
 31
0.0
  0
LINE
  8
SIZE
  6
CONTINUOUS
 62
    30
 10
-64.0
 20
548.99099036433643
 30
0.0
 11
-225.2571428571429
 21
548.99099036433643
 31
0.0
  0
LINE
  8
SIZE
  6
CONTINUOUS
 62
    30
 10
0.0
 20
548.99099036433643
 30
0.0
 11
-52.0
 21
548.99099036433643
 31
0.0
  0
CIRCLE
  8
SIZE
  6
CONTINUOUS
 62
    30
 10
0.0
 20
548.99099036433643
 30
0.0
 40
6.0
  0
LINE
  8
SIZE
  6
CONTINUOUS
 62
    30
 10
0.0
 20
548.99099036433643
 30
0.0
 11
12.0
 21
548.99099036433643
 31
0.0
  0
CIRCLE
  8
SIZE
  6
CONTINUOUS
 62
    30
 10
-52.0
 20
548.99099036433643
 30
0.0
 40
6.0
  0
LINE
  8
SIZE
  6
CONTINUOUS
 62
    30
 10
-52.0
 20
548.99099036433643
 30
0.0
 11
-64.0
 21
548.99099036433643
 31
0.0
  0
TEXT
  8
SIZE
  6
CONTINUOUS
 62
    30
 10
-200.25714285714281
 20
573.99099036433643
 30
0.0
 40
64.0
  1
52
 41
0.9
 72
     1
 11
-153.62857142857141
 21
573.99099036433643
 31
0.0
  0
LINE
  8
SIZE
  6
CONTINUOUS
 62
    30
 10
20.0
 20
173.0
 30
0.0
 11
320.02034818847028
 21
172.99999999999989
 31
0.0
  0
LINE
  8
SIZE
  6
CONTINUOUS
 62
    30
 10
184.26855306435209
 20
0.0
 30
0.0
 11
320.02034818847011
 21
-0.0000000000000568
 31
0.0
  0
LINE
  8
SIZE
  6
CONTINUOUS
 62
    30
 10
300.02034818847011
 20
11.99999999999997
 30
0.0
 11
300.02034818847028
 21
160.99999999999989
 31
0.0
  0
LINE
  8
SIZE
  6
CONTINUOUS
 62
    30
 10
300.02034818847028
 20
172.99999999999989
 30
0.0
 11
300.02034818847028
 21
372.14285714285711
 31
0.0
  0
CIRCLE
  8
SIZE
  6
CONTINUOUS
 62
    30
 10
300.02034818847011
 20
-0.0000000000000284
 30
0.0
 40
6.0
  0
LINE
  8
SIZE
  6
CONTINUOUS
 62
    30
 10
300.02034818847011
 20
-0.0000000000000284
 30
0.0
 11
300.02034818847011
 21
11.99999999999997
 31
0.0
  0
CIRCLE
  8
SIZE
  6
CONTINUOUS
 62
    30
 10
300.02034818847028
 20
172.99999999999989
 30
0.0
 40
6.0
  0
LINE
  8
SIZE
  6
CONTINUOUS
 62
    30
 10
300.02034818847028
 20
172.99999999999989
 30
0.0
 11
300.02034818847028
 21
160.99999999999989
 31
0.0
  0
TEXT
  8
SIZE
  6
CONTINUOUS
 62
    30
 10
275.02034818847011
 20
210.00000000000011
 30
0.0
 40
64.0
  1
173
 50
90.0
 41
0.9
 72
     1
 11
275.02034818847011
 21
278.57142857142873
 31
0.0
  0
LINE
  8
SIZE
  6
CONTINUOUS
 62
    30
 10
20.0
 20
173.0
 30
0.0
 11
734.30162652443494
 21
172.9999999999998
 31
0.0
  0
LINE
  8
SIZE
  6
CONTINUOUS
 62
    30
 10
7.3655979558624267
 20
-196.67385917149559
 30
0.0
 11
734.30162652443494
 21
-196.67385917149571
 31
0.0
  0
LINE
  8
SIZE
  6
CONTINUOUS
 62
    30
 10
714.30162652443516
 20
160.9999999999998
 30
0.0
 11
714.30162652443516
 21
-184.67385917149571
 31
0.0
  0
CIRCLE
  8
SIZE
  6
CONTINUOUS
 62
    30
 10
714.30162652443516
 20
172.9999999999998
 30
0.0
 40
6.0
  0
LINE
  8
SIZE
  6
CONTINUOUS
 62
    30
 10
714.30162652443516
 20
172.9999999999998
 30
0.0
 11
714.30162652443516
 21
160.9999999999998
 31
0.0
  0
CIRCLE
  8
SIZE
  6
CONTINUOUS
 62
    30
 10
714.30162652443516
 20
-196.67385917149571
 30
0.0
 40
6.0
  0
LINE
  8
SIZE
  6
CONTINUOUS
 62
    30
 10
714.30162652443516
 20
-196.67385917149571
 30
0.0
 11
714.30162652443516
 21
-184.67385917149571
 31
0.0
  0
TEXT
  8
SIZE
  6
CONTINUOUS
 62
    30
 10
689.30162652443516
 20
-85.894072442890746
 30
0.0
 40
64.0
  1
370
 50
90.0
 41
0.9
 72
     1
 11
689.30162652443516
 21
-11.8369295857479
 31
0.0
  0
TEXT
  8
ETC
  6
CONTINUOUS
 62
    61
 10
694.62067436725374
 20
582.76001661702026
 30
0.0
 40
64.0
  1
EX-25EF8_4
 41
0.9
  0
TEXT
  8
ETC
  6
CONTINUOUS
 62
    61
 10
690.43468036725335
 20
464.80470660218913
 30
0.0
 40
64.0
  1
換気扇
 41
0.9
  0
TEXT
  8
ETC
  6
CONTINUOUS
 62
    61
 10
741.13607861580931
 20
356.65593371596378
 30
0.0
 40
40.0
  1
EX-25EF8
 50
0.0
 41
0.9
 51
0.0
  7
STANDARD
 71
     0
 11
0.0
 21
0.0
 31
0.0
210
0.0
220
0.0
230
1.0
  0
TEXT
  8
ETC
  6
CONTINUOUS
 62
    61
 10
741.13607861580931
 20
290.65593371596378
 30
0.0
 40
40.0
  1
EX-25LF8
 50
0.0
 41
0.9
 51
0.0
  7
STANDARD
 71
     0
 11
0.0
 21
0.0
 31
0.0
210
0.0
220
0.0
230
1.0
  0
ENDSEC
  0
EOF
