  0
SECTION
  2
HEADER
  9
$ACADVER
  1
AC1009
  9
$DWGCODEPAGE
  3
dos932
  9
$INSBASE
 10
0.0
 20
0.0
 30
0.0
  9
$EXTMIN
 10
-314.51109147690289
 20
-334.21324500140508
 30
-0.0032900185003228
  9
$EXTMAX
 10
1133.4182856178579
 20
638.94654128112234
 30
57.815790529650563
  9
$LIMMIN
 10
-2970.0
 20
-2100.0
  9
$LIMMAX
 10
2970.0
 20
2100.0
  9
$ORTHOMODE
 70
     1
  9
$REGENMODE
 70
     1
  9
$FILLMODE
 70
     1
  9
$QTEXTMODE
 70
     0
  9
$MIRRTEXT
 70
     0
  9
$LTSCALE
 40
20.0
  9
$ATTMODE
 70
     1
  9
$TEXTSIZE
 40
64.0
  9
$TRACEWID
 40
0.05
  9
$TEXTSTYLE
  7
STANDARD
  9
$CLAYER
  8
NOTE
  9
$CELTYPE
  6
CONTINUOUS
  9
$CECOLOR
 62
     7
  9
$DIMSCALE
 40
1.0
  9
$DIMASZ
 40
12.0
  9
$DIMEXO
 40
20.0
  9
$DIMDLI
 40
200.0
  9
$DIMRND
 40
0.0
  9
$DIMDLE
 40
0.0
  9
$DIMEXE
 40
20.0
  9
$DIMTP
 40
0.0
  9
$DIMTM
 40
0.0
  9
$DIMTXT
 40
64.0
  9
$DIMCEN
 40
0.09
  9
$DIMTSZ
 40
0.0
  9
$DIMTOL
 70
     0
  9
$DIMLIM
 70
     0
  9
$DIMTIH
 70
     0
  9
$DIMTOH
 70
     0
  9
$DIMSE1
 70
     0
  9
$DIMSE2
 70
     0
  9
$DIMTAD
 70
     1
  9
$DIMZIN
 70
     8
  9
$DIMBLK
  1

  9
$DIMASO
 70
     1
  9
$DIMSHO
 70
     0
  9
$DIMPOST
  1

  9
$DIMAPOST
  1

  9
$DIMALT
 70
     0
  9
$DIMALTD
 70
     2
  9
$DIMALTF
 40
25.399999999999999
  9
$DIMLFAC
 40
1.0
  9
$DIMTOFL
 70
     1
  9
$DIMTVP
 40
0.0
  9
$DIMTIX
 70
     1
  9
$DIMSOXD
 70
     0
  9
$DIMSAH
 70
     0
  9
$DIMBLK1
  1

  9
$DIMBLK2
  1

  9
$DIMSTYLE
  2
STANDARD
  9
$DIMCLRD
 70
     7
  9
$DIMCLRE
 70
     7
  9
$DIMCLRT
 70
     7
  9
$DIMTFAC
 40
1.0
  9
$DIMGAP
 40
25.0
  9
$LUNITS
 70
     2
  9
$LUPREC
 70
     4
  9
$SKETCHINC
 40
0.1
  9
$FILLETRAD
 40
3.0
  9
$AUNITS
 70
     1
  9
$AUPREC
 70
     3
  9
$MENU
  1
ACAD
  9
$ELEVATION
 40
0.0
  9
$PELEVATION
 40
0.0
  9
$THICKNESS
 40
50.0
  9
$LIMCHECK
 70
     0
  9
$CHAMFERA
 40
0.0
  9
$CHAMFERB
 40
0.0
  9
$SKPOLY
 70
     0
  9
$TDCREATE
 40
2453019.62301037
  9
$TDUPDATE
 40
2458984.400674989
  9
$TDINDWG
 40
1.71394125
  9
$TDUSRTIMER
 40
1.71394125
  9
$USRTIMER
 70
     1
  9
$ANGBASE
 50
0.0
  9
$ANGDIR
 70
     0
  9
$PDMODE
 70
     3
  9
$PDSIZE
 40
-2.0
  9
$PLINEWID
 40
0.0
  9
$SPLFRAME
 70
     0
  9
$SPLINETYPE
 70
     6
  9
$SPLINESEGS
 70
     8
  9
$SURFTAB1
 70
     6
  9
$SURFTAB2
 70
     6
  9
$SURFTYPE
 70
     6
  9
$SURFU
 70
     6
  9
$SURFV
 70
     6
  9
$UCSNAME
  2

  9
$UCSORG
 10
0.0
 20
0.0
 30
0.0
  9
$UCSXDIR
 10
1.0
 20
0.0
 30
0.0
  9
$UCSYDIR
 10
0.0
 20
1.0
 30
0.0
  9
$PUCSNAME
  2

  9
$PUCSORG
 10
0.0
 20
0.0
 30
0.0
  9
$PUCSXDIR
 10
1.0
 20
0.0
 30
0.0
  9
$PUCSYDIR
 10
0.0
 20
1.0
 30
0.0
  9
$USERI1
 70
     0
  9
$USERI2
 70
     0
  9
$USERI3
 70
     0
  9
$USERI4
 70
     0
  9
$USERI5
 70
     0
  9
$USERR1
 40
20.0
  9
$USERR2
 40
0.0
  9
$USERR3
 40
0.0
  9
$USERR4
 40
0.0
  9
$USERR5
 40
0.0
  9
$WORLDVIEW
 70
     1
  9
$SHADEDGE
 70
     3
  9
$SHADEDIF
 70
    70
  9
$TILEMODE
 70
     1
  9
$MAXACTVP
 70
    48
  9
$PINSBASE
 10
0.0
 20
0.0
 30
0.0
  9
$PLIMCHECK
 70
     0
  9
$PEXTMIN
 10
-100000000000000000000.0
 20
-100000000000000000000.0
 30
-100000000000000000000.0
  9
$PEXTMAX
 10
100000000000000000000.0
 20
100000000000000000000.0
 30
100000000000000000000.0
  9
$PLIMMIN
 10
0.0
 20
0.0
  9
$PLIMMAX
 10
12.0
 20
9.0
  9
$UNITMODE
 70
     0
  9
$VISRETAIN
 70
     0
  9
$PLINEGEN
 70
     0
  9
$PSLTSCALE
 70
     0
  9
$TREEDEPTH
 70
  3020
  9
$ATTDIA
 70
     0
  9
$ATTREQ
 70
     1
  9
$BLIPMODE
 70
     1
  9
$COORDS
 70
     1
  9
$DRAGMODE
 70
     2
  9
$OSMODE
 70
     0
  9
$HANDLING
 70
     0
  9
$HANDSEED
  5
F38B
  0
ENDSEC
  0
SECTION
  2
TABLES
  0
TABLE
  2
LTYPE
 70
     2
  0
LTYPE
  2
CONTINUOUS
 70
     0
  3
実線
 72
    65
 73
     0
 40
0.0
  0
LTYPE
  2
DASHDOT
 70
     0
  3
____ _ ____ _ ____ _ ____ _ ____ _ ____ _ ____
 72
    65
 73
     4
 40
5.5
 49
4.0
 49
-0.6
 49
0.3
 49
-0.6
  0
ENDTAB
  0
TABLE
  2
LAYER
 70
    12
  0
LAYER
  2
0
 70
     0
 62
     7
  6
CONTINUOUS
  0
LAYER
  2
BASIS
 70
     0
 62
     6
  6
DASHDOT
  0
LAYER
  2
OUTLINE
 70
     0
 62
     3
  6
CONTINUOUS
  0
LAYER
  2
DETAIL
 70
     0
 62
     5
  6
CONTINUOUS
  0
LAYER
  2
SIZE
 70
     0
 62
    30
  6
CONTINUOUS
  0
LAYER
  2
ARRANGE
 70
     0
 62
     1
  6
CONTINUOUS
  0
LAYER
  2
ETC
 70
     0
 62
    61
  6
CONTINUOUS
  0
LAYER
  2
FIX
 70
     0
 62
    11
  6
CONTINUOUS
  0
LAYER
  2
NOTE
 70
     0
 62
     4
  6
CONTINUOUS
  0
LAYER
  2
DEFPOINTS
 70
    64
 62
     7
  6
CONTINUOUS
  0
LAYER
  2
SERVICESPACE
 70
    64
 62
     2
  6
DASHDOT
  0
LAYER
  2
SYMBOLLINE
 70
    64
 62
    15
  6
CONTINUOUS
  0
ENDTAB
  0
TABLE
  2
STYLE
 70
     1
  0
STYLE
  2
STANDARD
 70
     0
 40
64.0
 41
0.9
 50
0.0
 71
     0
 42
64.0
  3
SIMPLEX.shx
  4
BIGFONT.shx
  0
ENDTAB
  0
TABLE
  2
APPID
 70
    17
  0
APPID
  2
ACAD
 70
     0
  0
APPID
  2
AUTOCAD_POSTSCRIPT_FIGURE
 70
     0
  0
APPID
  2
ACAD_EXEMPT_FROM_CAD_STANDARDS
 70
     0
  0
APPID
  2
ACAD_PSEXT
 70
     0
  0
APPID
  2
ACAUTHENVIRON
 70
     0
  0
APPID
  2
GENIUS_GENOENT_13
 70
     0
  0
APPID
  2
GENIUS_GENCFG_13
 70
     0
  0
APPID
  2
GENIUS_GENCFG0_13
 70
     0
  0
APPID
  2
GENIUS_GENCFG1_13
 70
     0
  0
APPID
  2
GENIUS_GENCFG2_13
 70
     0
  0
APPID
  2
GENIUS_GENCFG3_13
 70
     0
  0
APPID
  2
GENIUS_GENCFG4_13
 70
     0
  0
APPID
  2
GENIUS_GEVCFG0_13
 70
     0
  0
APPID
  2
CONTENTBLOCKICON
 70
     0
  0
APPID
  2
CONTENTBLOCKDESCRIPTION
 70
     0
  0
APPID
  2
ACAD_NAV_VCDISPLAY
 70
     0
  0
APPID
  2
ACAD_MLEADERVER
 70
     0
  0
ENDTAB
  0
TABLE
  2
DIMSTYLE
 70
     1
  0
DIMSTYLE
  2
STANDARD
 70
     0
  3

  4

  5
_ORIGIN
  6

  7

 40
1.0
 41
12.0
 42
20.0
 43
200.0
 44
20.0
 45
0.0
 46
0.0
 47
0.0
 48
0.0
140
64.0
141
0.09
142
0.0
143
25.399999999999999
144
1.0
145
0.0
146
1.0
147
25.0
 71
     0
 72
     0
 73
     0
 74
     0
 75
     0
 76
     0
 77
     1
 78
     8
170
     0
171
     2
172
     1
173
     0
174
     1
175
     0
176
     7
177
     7
178
     7
  0
ENDTAB
  0
TABLE
  2
VIEW
 70
     1
  0
VIEW
  2
ALL
 70
     0
 40
4282.6198079999986
 10
0.0
 20
41.309904000000003
 41
5940.0
 11
0.0
 21
0.0
 31
1.0
 12
0.0
 22
0.0
 32
0.0
 42
50.0
 43
0.0
 44
0.0
 50
0.0
 71
     0
  0
ENDTAB
  0
TABLE
  2
UCS
 70
     0
  0
ENDTAB
  0
TABLE
  2
VPORT
 70
     1
  0
VPORT
  2
*ACTIVE
 70
     0
 10
0.0
 20
0.0
 11
1.0
 21
1.0
 12
409.45359707047731
 22
152.3666481398586
 13
0.0
 23
0.0
 14
1.0
 24
1.0
 15
0.0
 25
0.0
 16
0.0
 26
0.0
 36
1.0
 17
0.0
 27
0.0
 37
0.0
 40
980.12751744922798
 41
1.7980884109916371
 42
50.0
 43
0.0
 44
0.0
 50
0.0
 51
0.0
 71
     0
 72
  1000
 73
     1
 74
     3
 75
     0
 76
     0
 77
     0
 78
     0
  0
ENDTAB
  0
ENDSEC
  0
SECTION
  2
BLOCKS
  0
BLOCK
  8
0
  2
_ORIGIN
 70
     0
 10
0.0
 20
0.0
 30
0.0
  3
_ORIGIN
  1
_ORIGIN
  0
CIRCLE
  8
0
  6
CONTINUOUS
 62
     7
 10
0.0
 20
0.0
 30
0.0
 40
0.5
  0
LINE
  8
0
  6
CONTINUOUS
 62
     7
 10
0.0
 20
0.0
 30
0.0
 11
-1.0
 21
0.0
 31
0.0
  0
ENDBLK
  8
0
  0
ENDSEC
  0
SECTION
  2
ENTITIES
  0
TEXT
  8
ETC
  6
CONTINUOUS
 62
    61
 10
384.59419613326918
 20
574.91099435609681
 30
0.0
 40
64.0
  1
EX-25EFH8-M_4
 41
0.9
  0
TEXT
  8
ETC
  6
CONTINUOUS
 62
    61
 10
380.40820213326879
 20
456.95568434126562
 30
0.0
 40
64.0
  1
換気扇
 41
0.9
  0
TEXT
  8
ETC
  6
CONTINUOUS
 62
    61
 10
431.10960038182469
 20
348.80691145504028
 30
0.0
 40
40.0
  1
EX-25EFH8-M
 50
0.0
 41
0.9
 51
0.0
  7
STANDARD
 71
     0
 11
0.0
 21
0.0
 31
0.0
210
0.0
220
0.0
230
1.0
  0
TEXT
  8
ETC
  6
CONTINUOUS
 62
    61
 10
431.10960038182469
 20
282.80691145504028
 30
0.0
 40
40.0
  1
EX-25LFH8-M
 50
0.0
 41
0.9
 51
0.0
  7
STANDARD
 71
     0
 11
0.0
 21
0.0
 31
0.0
210
0.0
220
0.0
230
1.0
  0
ARC
  8
DETAIL
  6
CONTINUOUS
 62
     5
 10
-0.3555954186987265
 20
126.4490442040665
 30
0.0
 40
0.3555952917507045
 50
359.99999795578168
 51
84.289386318035142
  0
ARC
  8
DETAIL
  6
CONTINUOUS
 62
     5
 10
-0.3555952917515697
 20
135.17802182715471
 30
0.0
 40
0.3555952917512443
 50
275.71059313747122
 51
0.0
  0
LINE
  8
DETAIL
  6
CONTINUOUS
 62
     5
 10
-7.6890942196664582
 20
134.08730308906519
 30
0.0
 11
-0.3202122377629166
 21
134.82419128709529
 31
0.0
  0
LINE
  8
DETAIL
  6
CONTINUOUS
 62
     5
 10
-0.3202122377629166
 20
126.8028747313242
 30
0.0
 11
-7.6890864022597043
 21
127.5397621479342
 31
0.0
  0
LINE
  8
DETAIL
  6
CONTINUOUS
 62
     5
 10
-8.8898822937816249
 20
128.86662667266731
 30
0.0
 11
-8.8898822937816249
 21
132.76043934593051
 31
0.0
  0
ARC
  8
DETAIL
  6
CONTINUOUS
 62
     5
 10
-7.556399949714887
 20
132.76043934593051
 30
0.0
 40
1.333482344067273
 50
95.710930703580459
 51
180.00010967909691
  0
ARC
  8
DETAIL
  6
CONTINUOUS
 62
     5
 10
-7.556399949714887
 20
128.86662667266731
 30
0.0
 40
1.333482344067205
 50
180.00033127120309
 51
264.28950520720588
  0
LINE
  8
DETAIL
  6
CONTINUOUS
 62
     5
 10
-0.4444941146889505
 20
-194.72893741845249
 30
0.0
 11
-0.4444941146889505
 21
-143.7139265762471
 31
0.0
  0
LINE
  8
DETAIL
  6
CONTINUOUS
 62
     5
 10
-44.447727749208752
 20
-172.5013570924234
 30
0.0
 11
-44.447727749208752
 21
169.03902601673741
 31
0.0
  0
LINE
  8
DETAIL
  6
CONTINUOUS
 62
     5
 10
-39.113798372939527
 20
-169.49654653293649
 30
0.0
 11
-39.113798372939527
 21
173.0394730489393
 31
0.0
  0
ARC
  8
DETAIL
  6
CONTINUOUS
 62
     5
 10
-0.3555954186987265
 20
-134.83519893740461
 30
0.0
 40
0.3555952917512643
 50
275.71061368196479
 51
0.0000020442052906
  0
ARC
  8
DETAIL
  6
CONTINUOUS
 62
     5
 10
-0.3555952917515697
 20
-143.5641765604928
 30
0.0
 40
0.3555952917516162
 50
0.0
 51
84.289406862528878
  0
LINE
  8
DETAIL
  6
CONTINUOUS
 62
     5
 10
-0.4444941146889505
 20
-143.64462888952809
 30
0.0
 11
-0.4350164881393539
 21
-143.54999749444511
 31
0.0
  0
LINE
  8
DETAIL
  6
CONTINUOUS
 62
     5
 10
0.0000000000001137
 20
-143.5641765604928
 30
0.0
 11
0.0000000000001137
 21
-134.83519892478131
 31
0.0
  0
LINE
  8
DETAIL
  6
CONTINUOUS
 62
     5
 10
-0.4000447032207148
 20
-143.2030971567165
 30
0.0
 11
-0.4000447032207148
 21
-135.1962783285571
 31
0.0
  0
ARC
  8
DETAIL
  6
CONTINUOUS
 62
     5
 10
-0.4444941146889505
 20
-194.2841028455878
 30
0.0
 40
0.4444941146890643
 50
270.0
 51
0.0
  0
LINE
  8
DETAIL
  6
CONTINUOUS
 62
     5
 10
0.0000000000001137
 20
-143.5641765604928
 30
0.0
 11
0.0000000000001137
 21
-194.2841028455878
 31
0.0
  0
ARC
  8
DETAIL
  6
CONTINUOUS
 62
     5
 10
-0.4444941146889505
 20
172.50608011131271
 30
0.0
 40
0.4444941146890643
 50
0.0
 51
90.0
  0
LINE
  8
DETAIL
  6
CONTINUOUS
 62
     5
 10
0.0000000000001137
 20
172.50608011131271
 30
0.0
 11
0.0000000000001137
 21
-134.83519892478131
 31
0.0
  0
LINE
  8
DETAIL
  6
CONTINUOUS
 62
     5
 10
-0.4444941146889505
 20
173.0394730489393
 30
0.0
 11
-0.4444941146889505
 21
-134.7547465957459
 31
0.0
  0
LINE
  8
DETAIL
  6
CONTINUOUS
 62
     5
 10
-0.3897382347178109
 20
-143.29960959257511
 30
0.0
 11
-0.3901929729034919
 21
-143.30657723630469
 31
0.0
  0
LINE
  8
DETAIL
  6
CONTINUOUS
 62
     5
 10
-0.3901929729034919
 20
-143.30657723630469
 30
0.0
 11
-0.3906537169048079
 21
-143.3135163236461
 31
0.0
  0
LINE
  8
DETAIL
  6
CONTINUOUS
 62
     5
 10
-0.3906537169048079
 20
-143.3135163236461
 30
0.0
 11
-0.3906537169048079
 21
-143.3135163236461
 31
0.0
  0
LINE
  8
DETAIL
  6
CONTINUOUS
 62
     5
 10
-0.3906537169048079
 20
-143.3135163236461
 30
0.0
 11
-0.3911250471305721
 21
-143.32040396043749
 31
0.0
  0
LINE
  8
DETAIL
  6
CONTINUOUS
 62
     5
 10
-0.3911250471305721
 20
-143.32040396043749
 30
0.0
 11
-0.391605842359013
 21
-143.32723990142949
 31
0.0
  0
LINE
  8
DETAIL
  6
CONTINUOUS
 62
     5
 10
-0.391605842359013
 20
-143.32723990142949
 30
0.0
 11
-0.391605842359013
 21
-143.32723990142949
 31
0.0
  0
LINE
  8
DETAIL
  6
CONTINUOUS
 62
     5
 10
-0.391605842359013
 20
-143.32723990142949
 30
0.0
 11
-0.3920946905334404
 21
-143.33403730656849
 31
0.0
  0
LINE
  8
DETAIL
  6
CONTINUOUS
 62
     5
 10
-0.3920946905334404
 20
-143.33403730656849
 30
0.0
 11
-0.3925947178786373
 21
-143.34084030767099
 31
0.0
  0
LINE
  8
DETAIL
  6
CONTINUOUS
 62
     5
 10
-0.3925947178786373
 20
-143.34084030767099
 30
0.0
 11
-0.3925947178786373
 21
-143.34084030767099
 31
0.0
  0
LINE
  8
DETAIL
  6
CONTINUOUS
 62
     5
 10
-0.3925947178786373
 20
-143.34084030767099
 30
0.0
 11
-0.3931070723168659
 21
-143.3476641454217
 31
0.0
  0
LINE
  8
DETAIL
  6
CONTINUOUS
 62
     5
 10
-0.3931070723168659
 20
-143.3476641454217
 30
0.0
 11
-0.3936204502598457
 21
-143.3543775241146
 31
0.0
  0
LINE
  8
DETAIL
  6
CONTINUOUS
 62
     5
 10
-0.3936204502598457
 20
-143.3543775241146
 30
0.0
 11
-0.3936204502598457
 21
-143.3543775241146
 31
0.0
  0
LINE
  8
DETAIL
  6
CONTINUOUS
 62
     5
 10
-0.3936204502598457
 20
-143.3543775241146
 30
0.0
 11
-0.39413175217976
 21
-143.36095130736891
 31
0.0
  0
LINE
  8
DETAIL
  6
CONTINUOUS
 62
     5
 10
-0.39413175217976
 20
-143.36095130736891
 30
0.0
 11
-0.3946831462967566
 21
-143.36791153250579
 31
0.0
  0
LINE
  8
DETAIL
  6
CONTINUOUS
 62
     5
 10
-0.3946831462967566
 20
-143.36791153250579
 30
0.0
 11
-0.3946831462967566
 21
-143.36791153250579
 31
0.0
  0
LINE
  8
DETAIL
  6
CONTINUOUS
 62
     5
 10
-0.3946831462967566
 20
-143.36791153250579
 30
0.0
 11
-0.3953105719932637
 21
-143.37570303111261
 31
0.0
  0
LINE
  8
DETAIL
  6
CONTINUOUS
 62
     5
 10
-0.3953105719932637
 20
-143.37570303111261
 30
0.0
 11
-0.3959797855363831
 21
-143.38389063813159
 31
0.0
  0
LINE
  8
DETAIL
  6
CONTINUOUS
 62
     5
 10
-0.3959797855363831
 20
-143.38389063813159
 30
0.0
 11
-0.3959797855363831
 21
-143.38389063813159
 31
0.0
  0
LINE
  8
DETAIL
  6
CONTINUOUS
 62
     5
 10
-0.3959797855363831
 20
-143.38389063813159
 30
0.0
 11
-0.3966496835646467
 21
-143.39195595312501
 31
0.0
  0
LINE
  8
DETAIL
  6
CONTINUOUS
 62
     5
 10
-0.3966496835646467
 20
-143.39195595312501
 30
0.0
 11
-0.3973219072992151
 21
-143.3999276307741
 31
0.0
  0
LINE
  8
DETAIL
  6
CONTINUOUS
 62
     5
 10
-0.3973219072992151
 20
-143.3999276307741
 30
0.0
 11
-0.3973219072992151
 21
-143.3999276307741
 31
0.0
  0
LINE
  8
DETAIL
  6
CONTINUOUS
 62
     5
 10
-0.3973219072992151
 20
-143.3999276307741
 30
0.0
 11
-0.3980064152167415
 21
-143.4079398491981
 31
0.0
  0
LINE
  8
DETAIL
  6
CONTINUOUS
 62
     5
 10
-0.3980064152167415
 20
-143.4079398491981
 30
0.0
 11
-0.3987036902268528
 21
-143.4160018251514
 31
0.0
  0
LINE
  8
DETAIL
  6
CONTINUOUS
 62
     5
 10
-0.3987036902268528
 20
-143.4160018251514
 30
0.0
 11
-0.3987036902268528
 21
-143.4160018251514
 31
0.0
  0
LINE
  8
DETAIL
  6
CONTINUOUS
 62
     5
 10
-0.3987036902268528
 20
-143.4160018251514
 30
0.0
 11
-0.3994106357670262
 21
-143.42407973263329
 31
0.0
  0
LINE
  8
DETAIL
  6
CONTINUOUS
 62
     5
 10
-0.3994106357670262
 20
-143.42407973263329
 30
0.0
 11
-0.4001193129622607
 21
-143.43209253598161
 31
0.0
  0
LINE
  8
DETAIL
  6
CONTINUOUS
 62
     5
 10
-0.4001193129622607
 20
-143.43209253598161
 30
0.0
 11
-0.4001193129622607
 21
-143.43209253598161
 31
0.0
  0
LINE
  8
DETAIL
  6
CONTINUOUS
 62
     5
 10
-0.4001193129622607
 20
-143.43209253598161
 30
0.0
 11
-0.4008277835647505
 21
-143.44002584712049
 31
0.0
  0
LINE
  8
DETAIL
  6
CONTINUOUS
 62
     5
 10
-0.4008277835647505
 20
-143.44002584712049
 30
0.0
 11
-0.4015629541469252
 21
-143.4481790779796
 31
0.0
  0
LINE
  8
DETAIL
  6
CONTINUOUS
 62
     5
 10
-0.4015629541469252
 20
-143.4481790779796
 30
0.0
 11
-0.4015629541469252
 21
-143.4481790779796
 31
0.0
  0
LINE
  8
DETAIL
  6
CONTINUOUS
 62
     5
 10
-0.4015629541469252
 20
-143.4481790779796
 30
0.0
 11
-0.4023475159565351
 21
-143.45680334206921
 31
0.0
  0
LINE
  8
DETAIL
  6
CONTINUOUS
 62
     5
 10
-0.4023475159565351
 20
-143.45680334206921
 30
0.0
 11
-0.4031584541243092
 21
-143.46564275921719
 31
0.0
  0
LINE
  8
DETAIL
  6
CONTINUOUS
 62
     5
 10
-0.4031584541243092
 20
-143.46564275921719
 30
0.0
 11
-0.4031584541243092
 21
-143.46564275921719
 31
0.0
  0
LINE
  8
DETAIL
  6
CONTINUOUS
 62
     5
 10
-0.4031584541243092
 20
-143.46564275921719
 30
0.0
 11
-0.4039686116308303
 21
-143.47439577665091
 31
0.0
  0
LINE
  8
DETAIL
  6
CONTINUOUS
 62
     5
 10
-0.4039686116308303
 20
-143.47439577665091
 30
0.0
 11
-0.4047799689678868
 21
-143.48308514486331
 31
0.0
  0
LINE
  8
DETAIL
  6
CONTINUOUS
 62
     5
 10
-0.4047799689678868
 20
-143.48308514486331
 30
0.0
 11
-0.4047799689678868
 21
-143.48308514486331
 31
0.0
  0
LINE
  8
DETAIL
  6
CONTINUOUS
 62
     5
 10
-0.4047799689678868
 20
-143.48308514486331
 30
0.0
 11
-0.4055997836810548
 21
-143.49179294887611
 31
0.0
  0
LINE
  8
DETAIL
  6
CONTINUOUS
 62
     5
 10
-0.4055997836810548
 20
-143.49179294887611
 30
0.0
 11
-0.4064272840165586
 21
-143.50051430856089
 31
0.0
  0
LINE
  8
DETAIL
  6
CONTINUOUS
 62
     5
 10
-0.4064272840165586
 20
-143.50051430856089
 30
0.0
 11
-0.4064272840165586
 21
-143.50051430856089
 31
0.0
  0
LINE
  8
DETAIL
  6
CONTINUOUS
 62
     5
 10
-0.4064272840165586
 20
-143.50051430856089
 30
0.0
 11
-0.4072604358165108
 21
-143.5092284918351
 31
0.0
  0
LINE
  8
DETAIL
  6
CONTINUOUS
 62
     5
 10
-0.4072604358165108
 20
-143.5092284918351
 30
0.0
 11
-0.4081001846111576
 21
-143.51793832395609
 31
0.0
  0
LINE
  8
DETAIL
  6
CONTINUOUS
 62
     5
 10
-0.4081001846111576
 20
-143.51793832395609
 30
0.0
 11
-0.4081001846111576
 21
-143.51793832395609
 31
0.0
  0
LINE
  8
DETAIL
  6
CONTINUOUS
 62
     5
 10
-0.4081001846111576
 20
-143.51793832395609
 30
0.0
 11
-0.4089472484898806
 21
-143.5266507034639
 31
0.0
  0
LINE
  8
DETAIL
  6
CONTINUOUS
 62
     5
 10
-0.4089472484898806
 20
-143.5266507034639
 30
0.0
 11
-0.4097984560921759
 21
-143.53536526469179
 31
0.0
  0
LINE
  8
DETAIL
  6
CONTINUOUS
 62
     5
 10
-0.3927008765354003
 20
-143.2030971567165
 30
0.0
 11
-0.391609463239547
 21
-143.20343850552169
 31
0.0
  0
LINE
  8
DETAIL
  6
CONTINUOUS
 62
     5
 10
-0.391609463239547
 20
-143.20343850552169
 30
0.0
 11
-0.3906405242880737
 21
-143.20395713699051
 31
0.0
  0
LINE
  8
DETAIL
  6
CONTINUOUS
 62
     5
 10
-0.3906405242880737
 20
-143.20395713699051
 30
0.0
 11
-0.3906405242880737
 21
-143.20395713699051
 31
0.0
  0
LINE
  8
DETAIL
  6
CONTINUOUS
 62
     5
 10
-0.3906405242880737
 20
-143.20395713699051
 30
0.0
 11
-0.3898860882570716
 21
-143.20478108552521
 31
0.0
  0
LINE
  8
DETAIL
  6
CONTINUOUS
 62
     5
 10
-0.3898860882570716
 20
-143.20478108552521
 30
0.0
 11
-0.3893164006603911
 21
-143.205841392476
 31
0.0
  0
LINE
  8
DETAIL
  6
CONTINUOUS
 62
     5
 10
-0.3893164006603911
 20
-143.205841392476
 30
0.0
 11
-0.3893164006603911
 21
-143.205841392476
 31
0.0
  0
LINE
  8
DETAIL
  6
CONTINUOUS
 62
     5
 10
-0.3893164006603911
 20
-143.205841392476
 30
0.0
 11
-0.3888785707360967
 21
-143.20705168140779
 31
0.0
  0
LINE
  8
DETAIL
  6
CONTINUOUS
 62
     5
 10
-0.3888785707360967
 20
-143.20705168140779
 30
0.0
 11
-0.3885489457104541
 21
-143.20845289778299
 31
0.0
  0
LINE
  8
DETAIL
  6
CONTINUOUS
 62
     5
 10
-0.3885489457104541
 20
-143.20845289778299
 30
0.0
 11
-0.3885489457104541
 21
-143.20845289778299
 31
0.0
  0
LINE
  8
DETAIL
  6
CONTINUOUS
 62
     5
 10
-0.3885489457104541
 20
-143.20845289778299
 30
0.0
 11
-0.388312390084252
 21
-143.21003974390209
 31
0.0
  0
LINE
  8
DETAIL
  6
CONTINUOUS
 62
     5
 10
-0.388312390084252
 20
-143.21003974390209
 30
0.0
 11
-0.3881585994971601
 21
-143.21149462752189
 31
0.0
  0
LINE
  8
DETAIL
  6
CONTINUOUS
 62
     5
 10
-0.3881585994971601
 20
-143.21149462752189
 30
0.0
 11
-0.3881585994971601
 21
-143.21149462752189
 31
0.0
  0
LINE
  8
DETAIL
  6
CONTINUOUS
 62
     5
 10
-0.3881585994971601
 20
-143.21149462752189
 30
0.0
 11
-0.3880663367367561
 21
-143.21270234683149
 31
0.0
  0
LINE
  8
DETAIL
  6
CONTINUOUS
 62
     5
 10
-0.3880663367367561
 20
-143.21270234683149
 30
0.0
 11
-0.3879658020780425
 21
-143.21466955630419
 31
0.0
  0
LINE
  8
DETAIL
  6
CONTINUOUS
 62
     5
 10
-0.3879658020780425
 20
-143.21466955630419
 30
0.0
 11
-0.3879658020780425
 21
-143.21466955630419
 31
0.0
  0
LINE
  8
DETAIL
  6
CONTINUOUS
 62
     5
 10
-0.3879658020780425
 20
-143.21466955630419
 30
0.0
 11
-0.3878013307311221
 21
-143.2182291123695
 31
0.0
  0
LINE
  8
DETAIL
  6
CONTINUOUS
 62
     5
 10
-0.3878013307311221
 20
-143.2182291123695
 30
0.0
 11
-0.3876223601737365
 21
-143.22239682300869
 31
0.0
  0
LINE
  8
DETAIL
  6
CONTINUOUS
 62
     5
 10
-0.3876223601737365
 20
-143.22239682300869
 30
0.0
 11
-0.3876223601737365
 21
-143.22239682300869
 31
0.0
  0
LINE
  8
DETAIL
  6
CONTINUOUS
 62
     5
 10
-0.3876223601737365
 20
-143.22239682300869
 30
0.0
 11
-0.3874882758905187
 21
-143.2260424226815
 31
0.0
  0
LINE
  8
DETAIL
  6
CONTINUOUS
 62
     5
 10
-0.3874882758905187
 20
-143.2260424226815
 30
0.0
 11
-0.3873931531037442
 21
-143.22926840021771
 31
0.0
  0
LINE
  8
DETAIL
  6
CONTINUOUS
 62
     5
 10
-0.3873931531037442
 20
-143.22926840021771
 30
0.0
 11
-0.3873931531037442
 21
-143.22926840021771
 31
0.0
  0
LINE
  8
DETAIL
  6
CONTINUOUS
 62
     5
 10
-0.3873931531037442
 20
-143.22926840021771
 30
0.0
 11
-0.3873194614673139
 21
-143.23241698044279
 31
0.0
  0
LINE
  8
DETAIL
  6
CONTINUOUS
 62
     5
 10
-0.3873194614673139
 20
-143.23241698044279
 30
0.0
 11
-0.3872685586086391
 21
-143.23555657780159
 31
0.0
  0
LINE
  8
DETAIL
  6
CONTINUOUS
 62
     5
 10
-0.3872685586086391
 20
-143.23555657780159
 30
0.0
 11
-0.3872685586086391
 21
-143.23555657780159
 31
0.0
  0
LINE
  8
DETAIL
  6
CONTINUOUS
 62
     5
 10
-0.3872685586086391
 20
-143.23555657780159
 30
0.0
 11
-0.3872439637398202
 21
-143.23865277593089
 31
0.0
  0
LINE
  8
DETAIL
  6
CONTINUOUS
 62
     5
 10
-0.3872439637398202
 20
-143.23865277593089
 30
0.0
 11
-0.3872389544322914
 21
-143.2415336456306
 31
0.0
  0
LINE
  8
DETAIL
  6
CONTINUOUS
 62
     5
 10
-0.3872389544322914
 20
-143.2415336456306
 30
0.0
 11
-0.3872389544322914
 21
-143.2415336456306
 31
0.0
  0
LINE
  8
DETAIL
  6
CONTINUOUS
 62
     5
 10
-0.3872389544322914
 20
-143.2415336456306
 30
0.0
 11
-0.38724976749495
 21
-143.2441988449236
 31
0.0
  0
LINE
  8
DETAIL
  6
CONTINUOUS
 62
     5
 10
-0.38724976749495
 20
-143.2441988449236
 30
0.0
 11
-0.3872947183184579
 21
-143.24747189357549
 31
0.0
  0
LINE
  8
DETAIL
  6
CONTINUOUS
 62
     5
 10
-0.3872947183184579
 20
-143.24747189357549
 30
0.0
 11
-0.3872947183184579
 21
-143.24747189357549
 31
0.0
  0
LINE
  8
DETAIL
  6
CONTINUOUS
 62
     5
 10
-0.3872947183184579
 20
-143.24747189357549
 30
0.0
 11
-0.3873918953566999
 21
-143.2520502639168
 31
0.0
  0
LINE
  8
DETAIL
  6
CONTINUOUS
 62
     5
 10
-0.3873918953566999
 20
-143.2520502639168
 30
0.0
 11
-0.3875364007112694
 21
-143.25730337680761
 31
0.0
  0
LINE
  8
DETAIL
  6
CONTINUOUS
 62
     5
 10
-0.3875364007112694
 20
-143.25730337680761
 30
0.0
 11
-0.3875364007112694
 21
-143.25730337680761
 31
0.0
  0
LINE
  8
DETAIL
  6
CONTINUOUS
 62
     5
 10
-0.3875364007112694
 20
-143.25730337680761
 30
0.0
 11
-0.3877189486819361
 21
-143.26246812148611
 31
0.0
  0
LINE
  8
DETAIL
  6
CONTINUOUS
 62
     5
 10
-0.3877189486819361
 20
-143.26246812148611
 30
0.0
 11
-0.3879356887110816
 21
-143.2675793121721
 31
0.0
  0
LINE
  8
DETAIL
  6
CONTINUOUS
 62
     5
 10
-0.3879356887110816
 20
-143.2675793121721
 30
0.0
 11
-0.3879356887110816
 21
-143.2675793121721
 31
0.0
  0
LINE
  8
DETAIL
  6
CONTINUOUS
 62
     5
 10
-0.3879356887110816
 20
-143.2675793121721
 30
0.0
 11
-0.3881837176893441
 21
-143.27281812712999
 31
0.0
  0
LINE
  8
DETAIL
  6
CONTINUOUS
 62
     5
 10
-0.3881837176893441
 20
-143.27281812712999
 30
0.0
 11
-0.3884584871553898
 21
-143.2781532758199
 31
0.0
  0
LINE
  8
DETAIL
  6
CONTINUOUS
 62
     5
 10
-0.3884584871553898
 20
-143.2781532758199
 30
0.0
 11
-0.3884584871553898
 21
-143.2781532758199
 31
0.0
  0
LINE
  8
DETAIL
  6
CONTINUOUS
 62
     5
 10
-0.3884584871553898
 20
-143.2781532758199
 30
0.0
 11
-0.3887553238772625
 21
-143.28351333805861
 31
0.0
  0
LINE
  8
DETAIL
  6
CONTINUOUS
 62
     5
 10
-0.3887553238772625
 20
-143.28351333805861
 30
0.0
 11
-0.3890707008796426
 21
-143.2888788439036
 31
0.0
  0
LINE
  8
DETAIL
  6
CONTINUOUS
 62
     5
 10
-0.3890707008796426
 20
-143.2888788439036
 30
0.0
 11
-0.3890707008796426
 21
-143.2888788439036
 31
0.0
  0
LINE
  8
DETAIL
  6
CONTINUOUS
 62
     5
 10
-0.3890707008796426
 20
-143.2888788439036
 30
0.0
 11
-0.3894006428313332
 21
-143.29424447793329
 31
0.0
  0
LINE
  8
DETAIL
  6
CONTINUOUS
 62
     5
 10
-0.3894006428313332
 20
-143.29424447793329
 30
0.0
 11
-0.3897382347178109
 21
-143.29960959257511
 31
0.0
  0
LINE
  8
DETAIL
  6
CONTINUOUS
 62
     5
 10
-0.4097984621374735
 20
-134.86401021915981
 30
0.0
 11
-0.4091350745321733
 21
-134.86272178039599
 31
0.0
  0
LINE
  8
DETAIL
  6
CONTINUOUS
 62
     5
 10
-0.4091350745321733
 20
-134.86272178039599
 30
0.0
 11
-0.4084851518128971
 21
-134.86141394386999
 31
0.0
  0
LINE
  8
DETAIL
  6
CONTINUOUS
 62
     5
 10
-0.4084851518128971
 20
-134.86141394386999
 30
0.0
 11
-0.4084851518128971
 21
-134.86141394386999
 31
0.0
  0
LINE
  8
DETAIL
  6
CONTINUOUS
 62
     5
 10
-0.4084851518128971
 20
-134.86141394386999
 30
0.0
 11
-0.4078642655529165
 21
-134.8600712438047
 31
0.0
  0
LINE
  8
DETAIL
  6
CONTINUOUS
 62
     5
 10
-0.4078642655529165
 20
-134.8600712438047
 30
0.0
 11
-0.4072964140767681
 21
-134.85869394235939
 31
0.0
  0
LINE
  8
DETAIL
  6
CONTINUOUS
 62
     5
 10
-0.4072964140767681
 20
-134.85869394235939
 30
0.0
 11
-0.4072964140767681
 21
-134.85869394235939
 31
0.0
  0
LINE
  8
DETAIL
  6
CONTINUOUS
 62
     5
 10
-0.4072964140767681
 20
-134.85869394235939
 30
0.0
 11
-0.406804959896931
 21
-134.85729186889921
 31
0.0
  0
LINE
  8
DETAIL
  6
CONTINUOUS
 62
     5
 10
-0.406804959896931
 20
-134.85729186889921
 30
0.0
 11
-0.4064022955185465
 21
-134.85589739368609
 31
0.0
  0
LINE
  8
DETAIL
  6
CONTINUOUS
 62
     5
 10
-0.4064022955185465
 20
-134.85589739368609
 30
0.0
 11
-0.4064022955185465
 21
-134.85589739368609
 31
0.0
  0
LINE
  8
DETAIL
  6
CONTINUOUS
 62
     5
 10
-0.4064022955185465
 20
-134.85589739368609
 30
0.0
 11
-0.4061069342640167
 21
-134.8545220493252
 31
0.0
  0
LINE
  8
DETAIL
  6
CONTINUOUS
 62
     5
 10
-0.4061069342640167
 20
-134.8545220493252
 30
0.0
 11
-0.4059728427239406
 21
-134.85307147691219
 31
0.0
  0
LINE
  8
DETAIL
  6
CONTINUOUS
 62
     5
 10
-0.4059728427239406
 20
-134.85307147691219
 30
0.0
 11
-0.4059728427239406
 21
-134.85307147691219
 31
0.0
  0
LINE
  8
DETAIL
  6
CONTINUOUS
 62
     5
 10
-0.4059728427239406
 20
-134.85307147691219
 30
0.0
 11
-0.4060301400387516
 21
-134.8515251009521
 31
0.0
  0
LINE
  8
DETAIL
  6
CONTINUOUS
 62
     5
 10
-0.4060301400387516
 20
-134.8515251009521
 30
0.0
 11
-0.4061781022815012
 21
-134.85026337109679
 31
0.0
  0
LINE
  8
DETAIL
  6
CONTINUOUS
 62
     5
 10
-0.4061781022815012
 20
-134.85026337109679
 30
0.0
 11
-0.4061781022815012
 21
-134.85026337109679
 31
0.0
  0
LINE
  8
DETAIL
  6
CONTINUOUS
 62
     5
 10
-0.4061781022815012
 20
-134.85026337109679
 30
0.0
 11
-0.4063131725553148
 21
-134.84960629420809
 31
0.0
  0
LINE
  8
DETAIL
  6
CONTINUOUS
 62
     5
 10
-0.4063131725553148
 20
-134.84960629420809
 30
0.0
 11
-0.4064513051484937
 21
-134.84923108083919
 31
0.0
  0
LINE
  8
DETAIL
  6
CONTINUOUS
 62
     5
 10
-0.4064513051484937
 20
-134.84923108083919
 30
0.0
 11
-0.4064513051484937
 21
-134.84923108083919
 31
0.0
  0
LINE
  8
DETAIL
  6
CONTINUOUS
 62
     5
 10
-0.4064513051484937
 20
-134.84923108083919
 30
0.0
 11
-0.4066289527472691
 21
-134.8487564881207
 31
0.0
  0
LINE
  8
DETAIL
  6
CONTINUOUS
 62
     5
 10
-0.4066289527472691
 20
-134.8487564881207
 30
0.0
 11
-0.4068450504416887
 21
-134.84821025580871
 31
0.0
  0
LINE
  8
DETAIL
  6
CONTINUOUS
 62
     5
 10
-0.4068450504416887
 20
-134.84821025580871
 30
0.0
 11
-0.4068450504416887
 21
-134.84821025580871
 31
0.0
  0
LINE
  8
DETAIL
  6
CONTINUOUS
 62
     5
 10
-0.4068450504416887
 20
-134.84821025580871
 30
0.0
 11
-0.4070913186378675
 21
-134.84769493469551
 31
0.0
  0
LINE
  8
DETAIL
  6
CONTINUOUS
 62
     5
 10
-0.4070913186378675
 20
-134.84769493469551
 30
0.0
 11
-0.4073681365966877
 21
-134.8472033371086
 31
0.0
  0
LINE
  8
DETAIL
  6
CONTINUOUS
 62
     5
 10
-0.4073681365966877
 20
-134.8472033371086
 30
0.0
 11
-0.4073681365966877
 21
-134.8472033371086
 31
0.0
  0
LINE
  8
DETAIL
  6
CONTINUOUS
 62
     5
 10
-0.4073681365966877
 20
-134.8472033371086
 30
0.0
 11
-0.4076787688371724
 21
-134.84670833356861
 31
0.0
  0
LINE
  8
DETAIL
  6
CONTINUOUS
 62
     5
 10
-0.4076787688371724
 20
-134.84670833356861
 30
0.0
 11
-0.4080293620531847
 21
-134.84621276584221
 31
0.0
  0
LINE
  8
DETAIL
  6
CONTINUOUS
 62
     5
 10
-0.4080293620531847
 20
-134.84621276584221
 30
0.0
 11
-0.4080293620531847
 21
-134.84621276584221
 31
0.0
  0
LINE
  8
DETAIL
  6
CONTINUOUS
 62
     5
 10
-0.4080293620531847
 20
-134.84621276584221
 30
0.0
 11
-0.4084217365953009
 21
-134.84572443187969
 31
0.0
  0
LINE
  8
DETAIL
  6
CONTINUOUS
 62
     5
 10
-0.4084217365953009
 20
-134.84572443187969
 30
0.0
 11
-0.4088375252451897
 21
-134.84524098311431
 31
0.0
  0
LINE
  8
DETAIL
  6
CONTINUOUS
 62
     5
 10
-0.4067647514002601
 20
-134.84333421199651
 30
0.0
 11
-0.4070513382160925
 21
-134.8419643932007
 31
0.0
  0
LINE
  8
DETAIL
  6
CONTINUOUS
 62
     5
 10
-0.4070513382160925
 20
-134.8419643932007
 30
0.0
 11
-0.4073392519928802
 21
-134.84059511039499
 31
0.0
  0
LINE
  8
DETAIL
  6
CONTINUOUS
 62
     5
 10
-0.4073392519928802
 20
-134.84059511039499
 30
0.0
 11
-0.4073392519928802
 21
-134.84059511039499
 31
0.0
  0
LINE
  8
DETAIL
  6
CONTINUOUS
 62
     5
 10
-0.4073392519928802
 20
-134.84059511039499
 30
0.0
 11
-0.4076295922734516
 21
-134.83922661781071
 31
0.0
  0
LINE
  8
DETAIL
  6
CONTINUOUS
 62
     5
 10
-0.4076295922734516
 20
-134.83922661781071
 30
0.0
 11
-0.4079225489214195
 21
-134.83785804263519
 31
0.0
  0
LINE
  8
DETAIL
  6
CONTINUOUS
 62
     5
 10
-0.4079225489214195
 20
-134.83785804263519
 30
0.0
 11
-0.4079225489214195
 21
-134.83785804263519
 31
0.0
  0
LINE
  8
DETAIL
  6
CONTINUOUS
 62
     5
 10
-0.4079225489214195
 20
-134.83785804263519
 30
0.0
 11
-0.4082179664471823
 21
-134.83648908752909
 31
0.0
  0
LINE
  8
DETAIL
  6
CONTINUOUS
 62
     5
 10
-0.4082179664471823
 20
-134.83648908752909
 30
0.0
 11
-0.4085152176151041
 21
-134.83512288407971
 31
0.0
  0
LINE
  8
DETAIL
  6
CONTINUOUS
 62
     5
 10
-0.4085152176151041
 20
-134.83512288407971
 30
0.0
 11
-0.4085152176151041
 21
-134.83512288407971
 31
0.0
  0
LINE
  8
DETAIL
  6
CONTINUOUS
 62
     5
 10
-0.4085152176151041
 20
-134.83512288407971
 30
0.0
 11
-0.4088142564177133
 21
-134.8337602739384
 31
0.0
  0
LINE
  8
DETAIL
  6
CONTINUOUS
 62
     5
 10
-0.4088142564177133
 20
-134.8337602739384
 30
0.0
 11
-0.4091178335033874
 21
-134.83238951009159
 31
0.0
  0
LINE
  8
DETAIL
  6
CONTINUOUS
 62
     5
 10
-0.4091178335033874
 20
-134.83238951009159
 30
0.0
 11
-0.4091178335033874
 21
-134.83238951009159
 31
0.0
  0
LINE
  8
DETAIL
  6
CONTINUOUS
 62
     5
 10
-0.4091178335033874
 20
-134.83238951009159
 30
0.0
 11
-0.4094267199645856
 21
-134.8310074297938
 31
0.0
  0
LINE
  8
DETAIL
  6
CONTINUOUS
 62
     5
 10
-0.4094267199645856
 20
-134.8310074297938
 30
0.0
 11
-0.4097309720154954
 21
-134.8296577960341
 31
0.0
  0
LINE
  8
DETAIL
  6
CONTINUOUS
 62
     5
 10
-0.4097309720154954
 20
-134.8296577960341
 30
0.0
 11
-0.4097309720154954
 21
-134.8296577960341
 31
0.0
  0
LINE
  8
DETAIL
  6
CONTINUOUS
 62
     5
 10
-0.4097309720154954
 20
-134.8296577960341
 30
0.0
 11
-0.4100221413250438
 21
-134.82837764753049
 31
0.0
  0
LINE
  8
DETAIL
  6
CONTINUOUS
 62
     5
 10
-0.4100221413250438
 20
-134.82837764753049
 30
0.0
 11
-0.4103084762541584
 21
-134.82713020017169
 31
0.0
  0
LINE
  8
DETAIL
  6
CONTINUOUS
 62
     5
 10
-0.4103084762541584
 20
-134.82713020017169
 30
0.0
 11
-0.4103084762541584
 21
-134.82713020017169
 31
0.0
  0
LINE
  8
DETAIL
  6
CONTINUOUS
 62
     5
 10
-0.4103084762541584
 20
-134.82713020017169
 30
0.0
 11
-0.4105998181041741
 21
-134.82587175520081
 31
0.0
  0
LINE
  8
DETAIL
  6
CONTINUOUS
 62
     5
 10
-0.4105998181041741
 20
-134.82587175520081
 30
0.0
 11
-0.4108956832253625
 21
-134.82460477809579
 31
0.0
  0
LINE
  8
DETAIL
  6
CONTINUOUS
 62
     5
 10
-0.4108956832253625
 20
-134.82460477809579
 30
0.0
 11
-0.4108956832253625
 21
-134.82460477809579
 31
0.0
  0
LINE
  8
DETAIL
  6
CONTINUOUS
 62
     5
 10
-0.4108956832253625
 20
-134.82460477809579
 30
0.0
 11
-0.4111935141005461
 21
-134.82334091713801
 31
0.0
  0
LINE
  8
DETAIL
  6
CONTINUOUS
 62
     5
 10
-0.4111935141005461
 20
-134.82334091713801
 30
0.0
 11
-0.4114927826619805
 21
-134.82208238757491
 31
0.0
  0
LINE
  8
DETAIL
  6
CONTINUOUS
 62
     5
 10
-0.4114927826619805
 20
-134.82208238757491
 30
0.0
 11
-0.4114927826619805
 21
-134.82208238757491
 31
0.0
  0
LINE
  8
DETAIL
  6
CONTINUOUS
 62
     5
 10
-0.4114927826619805
 20
-134.82208238757491
 30
0.0
 11
-0.4117940199892018
 21
-134.8208269383704
 31
0.0
  0
LINE
  8
DETAIL
  6
CONTINUOUS
 62
     5
 10
-0.4117940199892018
 20
-134.8208269383704
 30
0.0
 11
-0.4120999642955212
 21
-134.8195638863763
 31
0.0
  0
LINE
  8
DETAIL
  6
CONTINUOUS
 62
     5
 10
-0.4120999642955212
 20
-134.8195638863763
 30
0.0
 11
-0.4120999642955212
 21
-134.8195638863763
 31
0.0
  0
LINE
  8
DETAIL
  6
CONTINUOUS
 62
     5
 10
-0.4120999642955212
 20
-134.8195638863763
 30
0.0
 11
-0.4124111910823558
 21
-134.81829123078569
 31
0.0
  0
LINE
  8
DETAIL
  6
CONTINUOUS
 62
     5
 10
-0.4124111910823558
 20
-134.81829123078569
 30
0.0
 11
-0.4127174178577206
 21
-134.81705013226789
 31
0.0
  0
LINE
  8
DETAIL
  6
CONTINUOUS
 62
     5
 10
-0.4127174178577206
 20
-134.81705013226789
 30
0.0
 11
-0.4127174178577206
 21
-134.81705013226789
 31
0.0
  0
LINE
  8
DETAIL
  6
CONTINUOUS
 62
     5
 10
-0.4127174178577206
 20
-134.81705013226789
 30
0.0
 11
-0.4130100770287299
 21
-134.81587483161769
 31
0.0
  0
LINE
  8
DETAIL
  6
CONTINUOUS
 62
     5
 10
-0.4130100770287299
 20
-134.81587483161769
 30
0.0
 11
-0.4132983185703551
 21
-134.81472872865879
 31
0.0
  0
LINE
  8
DETAIL
  6
CONTINUOUS
 62
     5
 10
-0.4132983185703551
 20
-134.81472872865879
 30
0.0
 11
-0.4132983185703551
 21
-134.81472872865879
 31
0.0
  0
LINE
  8
DETAIL
  6
CONTINUOUS
 62
     5
 10
-0.4132983185703551
 20
-134.81472872865879
 30
0.0
 11
-0.4135924810407232
 21
-134.81357041696671
 31
0.0
  0
LINE
  8
DETAIL
  6
CONTINUOUS
 62
     5
 10
-0.4135924810407232
 20
-134.81357041696671
 30
0.0
 11
-0.4138899397712521
 21
-134.81241010611299
 31
0.0
  0
LINE
  8
DETAIL
  6
CONTINUOUS
 62
     5
 10
-0.4138899397712521
 20
-134.81241010611299
 30
0.0
 11
-0.4138899397712521
 21
-134.81241010611299
 31
0.0
  0
LINE
  8
DETAIL
  6
CONTINUOUS
 62
     5
 10
-0.4138899397712521
 20
-134.81241010611299
 30
0.0
 11
-0.4141876744308775
 21
-134.81126044790699
 31
0.0
  0
LINE
  8
DETAIL
  6
CONTINUOUS
 62
     5
 10
-0.4141876744308775
 20
-134.81126044790699
 30
0.0
 11
-0.4144940452652008
 21
-134.8100922471308
 31
0.0
  0
LINE
  8
DETAIL
  6
CONTINUOUS
 62
     5
 10
-0.4144940452652008
 20
-134.8100922471308
 30
0.0
 11
-0.4144940452652008
 21
-134.8100922471308
 31
0.0
  0
LINE
  8
DETAIL
  6
CONTINUOUS
 62
     5
 10
-0.4144940452652008
 20
-134.8100922471308
 30
0.0
 11
-0.4148121178940301
 21
-134.80889478983821
 31
0.0
  0
LINE
  8
DETAIL
  6
CONTINUOUS
 62
     5
 10
-0.4148121178940301
 20
-134.80889478983821
 30
0.0
 11
-0.4151123988552854
 21
-134.80777313421089
 31
0.0
  0
LINE
  8
DETAIL
  6
CONTINUOUS
 62
     5
 10
-0.4151123988552854
 20
-134.80777313421089
 30
0.0
 11
-0.4151123988552854
 21
-134.80777313421089
 31
0.0
  0
LINE
  8
DETAIL
  6
CONTINUOUS
 62
     5
 10
-0.4151123988552854
 20
-134.80777313421089
 30
0.0
 11
-0.415386968852772
 21
-134.80675597109209
 31
0.0
  0
LINE
  8
DETAIL
  6
CONTINUOUS
 62
     5
 10
-0.415386968852772
 20
-134.80675597109209
 30
0.0
 11
-0.415746764343794
 21
-134.80545074985321
 31
0.0
  0
LINE
  8
DETAIL
  6
CONTINUOUS
 62
     5
 10
-0.415746764343794
 20
-134.80545074985321
 30
0.0
 11
-0.415746764343794
 21
-134.80545074985321
 31
0.0
  0
LINE
  8
DETAIL
  6
CONTINUOUS
 62
     5
 10
-0.415746764343794
 20
-134.80545074985321
 30
0.0
 11
-0.4162864786109139
 21
-134.8035258069408
 31
0.0
  0
LINE
  8
DETAIL
  6
CONTINUOUS
 62
     5
 10
-0.4162864786109139
 20
-134.8035258069408
 30
0.0
 11
-0.4169169764811613
 21
-134.80131426857821
 31
0.0
  0
LINE
  8
DETAIL
  6
CONTINUOUS
 62
     5
 10
-0.4169169764811613
 20
-134.80131426857821
 30
0.0
 11
-0.4169169764811613
 21
-134.80131426857821
 31
0.0
  0
LINE
  8
DETAIL
  6
CONTINUOUS
 62
     5
 10
-0.4169169764811613
 20
-134.80131426857821
 30
0.0
 11
-0.4175317640509775
 21
-134.79921011941221
 31
0.0
  0
LINE
  8
DETAIL
  6
CONTINUOUS
 62
     5
 10
-0.4175317640509775
 20
-134.79921011941221
 30
0.0
 11
-0.4181387409377066
 21
-134.7971859880181
 31
0.0
  0
LINE
  8
DETAIL
  6
CONTINUOUS
 62
     5
 10
-0.4181387409377066
 20
-134.7971859880181
 30
0.0
 11
-0.4181387409377066
 21
-134.7971859880181
 31
0.0
  0
LINE
  8
DETAIL
  6
CONTINUOUS
 62
     5
 10
-0.4181387409377066
 20
-134.7971859880181
 30
0.0
 11
-0.4187659287933911
 21
-134.79513964941
 31
0.0
  0
LINE
  8
DETAIL
  6
CONTINUOUS
 62
     5
 10
-0.4187659287933911
 20
-134.79513964941
 30
0.0
 11
-0.4194074438778443
 21
-134.79309082042801
 31
0.0
  0
LINE
  8
DETAIL
  6
CONTINUOUS
 62
     5
 10
-0.4194074438778443
 20
-134.79309082042801
 30
0.0
 11
-0.4194074438778443
 21
-134.79309082042801
 31
0.0
  0
LINE
  8
DETAIL
  6
CONTINUOUS
 62
     5
 10
-0.4194074438778443
 20
-134.79309082042801
 30
0.0
 11
-0.4200542331125234
 21
-134.79107310056091
 31
0.0
  0
LINE
  8
DETAIL
  6
CONTINUOUS
 62
     5
 10
-0.4200542331125234
 20
-134.79107310056091
 30
0.0
 11
-0.42071847146849
 21
-134.78905367806149
 31
0.0
  0
LINE
  8
DETAIL
  6
CONTINUOUS
 62
     5
 10
-0.42071847146849
 20
-134.78905367806149
 30
0.0
 11
-0.42071847146849
 21
-134.78905367806149
 31
0.0
  0
LINE
  8
DETAIL
  6
CONTINUOUS
 62
     5
 10
-0.42071847146849
 20
-134.78905367806149
 30
0.0
 11
-0.4214048892290521
 21
-134.7870190641502
 31
0.0
  0
LINE
  8
DETAIL
  6
CONTINUOUS
 62
     5
 10
-0.4214048892290521
 20
-134.7870190641502
 30
0.0
 11
-0.4220672098766727
 21
-134.7850994731721
 31
0.0
  0
LINE
  8
DETAIL
  6
CONTINUOUS
 62
     5
 10
-0.4220672098766727
 20
-134.7850994731721
 30
0.0
 11
-0.4220672098766727
 21
-134.7850994731721
 31
0.0
  0
LINE
  8
DETAIL
  6
CONTINUOUS
 62
     5
 10
-0.4220672098766727
 20
-134.7850994731721
 30
0.0
 11
-0.4226666941235635
 21
-134.78340456740531
 31
0.0
  0
LINE
  8
DETAIL
  6
CONTINUOUS
 62
     5
 10
-0.4226666941235635
 20
-134.78340456740531
 30
0.0
 11
-0.4232457584082567
 21
-134.78181809775421
 31
0.0
  0
LINE
  8
DETAIL
  6
CONTINUOUS
 62
     5
 10
-0.4232457584082567
 20
-134.78181809775421
 30
0.0
 11
-0.4232457584082567
 21
-134.78181809775421
 31
0.0
  0
LINE
  8
DETAIL
  6
CONTINUOUS
 62
     5
 10
-0.4232457584082567
 20
-134.78181809775421
 30
0.0
 11
-0.4238548810059228
 21
-134.78020293119059
 31
0.0
  0
LINE
  8
DETAIL
  6
CONTINUOUS
 62
     5
 10
-0.4238548810059228
 20
-134.78020293119059
 30
0.0
 11
-0.4244956318080995
 21
-134.77856431033391
 31
0.0
  0
LINE
  8
DETAIL
  6
CONTINUOUS
 62
     5
 10
-0.4244956318080995
 20
-134.77856431033391
 30
0.0
 11
-0.4244956318080995
 21
-134.77856431033391
 31
0.0
  0
LINE
  8
DETAIL
  6
CONTINUOUS
 62
     5
 10
-0.4244956318080995
 20
-134.77856431033391
 30
0.0
 11
-0.4251617227239421
 21
-134.776931578042
 31
0.0
  0
LINE
  8
DETAIL
  6
CONTINUOUS
 62
     5
 10
-0.4251617227239421
 20
-134.776931578042
 30
0.0
 11
-0.4258643421090937
 21
-134.7752881024808
 31
0.0
  0
LINE
  8
DETAIL
  6
CONTINUOUS
 62
     5
 10
-0.4258643421090937
 20
-134.7752881024808
 30
0.0
 11
-0.4258643421090937
 21
-134.7752881024808
 31
0.0
  0
LINE
  8
DETAIL
  6
CONTINUOUS
 62
     5
 10
-0.4258643421090937
 20
-134.7752881024808
 30
0.0
 11
-0.4266137980796429
 21
-134.77361613892211
 31
0.0
  0
LINE
  8
DETAIL
  6
CONTINUOUS
 62
     5
 10
-0.4266137980796429
 20
-134.77361613892211
 30
0.0
 11
-0.4273994013444735
 21
-134.77193946576429
 31
0.0
  0
LINE
  8
DETAIL
  6
CONTINUOUS
 62
     5
 10
-0.4273994013444735
 20
-134.77193946576429
 30
0.0
 11
-0.4273994013444735
 21
-134.77193946576429
 31
0.0
  0
LINE
  8
DETAIL
  6
CONTINUOUS
 62
     5
 10
-0.4273994013444735
 20
-134.77193946576429
 30
0.0
 11
-0.4282218415544321
 21
-134.77026221273309
 31
0.0
  0
LINE
  8
DETAIL
  6
CONTINUOUS
 62
     5
 10
-0.4282218415544321
 20
-134.77026221273309
 30
0.0
 11
-0.4291483215474727
 21
-134.76846839175369
 31
0.0
  0
LINE
  8
DETAIL
  6
CONTINUOUS
 62
     5
 10
-0.4291483215474727
 20
-134.76846839175369
 30
0.0
 11
-0.4291483215474727
 21
-134.76846839175369
 31
0.0
  0
LINE
  8
DETAIL
  6
CONTINUOUS
 62
     5
 10
-0.4291483215474727
 20
-134.76846839175369
 30
0.0
 11
-0.4302382104366416
 21
-134.7664672418168
 31
0.0
  0
LINE
  8
DETAIL
  6
CONTINUOUS
 62
     5
 10
-0.4302382104366416
 20
-134.7664672418168
 30
0.0
 11
-0.4314530292699601
 21
-134.76438902798651
 31
0.0
  0
LINE
  8
DETAIL
  6
CONTINUOUS
 62
     5
 10
-0.4314530292699601
 20
-134.76438902798651
 30
0.0
 11
-0.4314530292699601
 21
-134.76438902798651
 31
0.0
  0
LINE
  8
DETAIL
  6
CONTINUOUS
 62
     5
 10
-0.4314530292699601
 20
-134.76438902798651
 30
0.0
 11
-0.4327439195178613
 21
-134.76239278282131
 31
0.0
  0
LINE
  8
DETAIL
  6
CONTINUOUS
 62
     5
 10
-0.4327439195178613
 20
-134.76239278282131
 30
0.0
 11
-0.4341183524092003
 21
-134.7605315827918
 31
0.0
  0
LINE
  8
DETAIL
  6
CONTINUOUS
 62
     5
 10
-0.4341183524092003
 20
-134.7605315827918
 30
0.0
 11
-0.4341183524092003
 21
-134.7605315827918
 31
0.0
  0
LINE
  8
DETAIL
  6
CONTINUOUS
 62
     5
 10
-0.4341183524092003
 20
-134.7605315827918
 30
0.0
 11
-0.4355931116380134
 21
-134.7588346368384
 31
0.0
  0
LINE
  8
DETAIL
  6
CONTINUOUS
 62
     5
 10
-0.4355931116380134
 20
-134.7588346368384
 30
0.0
 11
-0.4371659010022313
 21
-134.75734163988
 31
0.0
  0
LINE
  8
DETAIL
  6
CONTINUOUS
 62
     5
 10
-0.4371659010022313
 20
-134.75734163988
 30
0.0
 11
-0.4371659010022313
 21
-134.75734163988
 31
0.0
  0
LINE
  8
DETAIL
  6
CONTINUOUS
 62
     5
 10
-0.4371659010022313
 20
-134.75734163988
 30
0.0
 11
-0.4388346517814625
 21
-134.75611091137259
 31
0.0
  0
LINE
  8
DETAIL
  6
CONTINUOUS
 62
     5
 10
-0.4388346517814625
 20
-134.75611091137259
 30
0.0
 11
-0.4406172850826806
 21
-134.75526478296109
 31
0.0
  0
LINE
  8
DETAIL
  6
CONTINUOUS
 62
     5
 10
-0.4406172850826806
 20
-134.75526478296109
 30
0.0
 11
-0.4406172850826806
 21
-134.75526478296109
 31
0.0
  0
LINE
  8
DETAIL
  6
CONTINUOUS
 62
     5
 10
-0.4406172850826806
 20
-134.75526478296109
 30
0.0
 11
-0.4425214996153954
 21
-134.75487495565631
 31
0.0
  0
LINE
  8
DETAIL
  6
CONTINUOUS
 62
     5
 10
-0.4425214996153954
 20
-134.75487495565631
 30
0.0
 11
-0.4444941146889505
 21
-134.7547465957459
 31
0.0
  0
LINE
  8
DETAIL
  6
CONTINUOUS
 62
     5
 10
-8.6582601568138671
 20
-141.8976450501477
 30
0.0
 11
-8.6593352950382041
 21
-141.89675069147509
 31
0.0
  0
LINE
  8
DETAIL
  6
CONTINUOUS
 62
     5
 10
-8.6593352950382041
 20
-141.89675069147509
 30
0.0
 11
-8.6604976692851778
 21
-141.89625681442249
 31
0.0
  0
LINE
  8
DETAIL
  6
CONTINUOUS
 62
     5
 10
-8.6604976692851778
 20
-141.89625681442249
 30
0.0
 11
-8.6604976692851778
 21
-141.89625681442249
 31
0.0
  0
LINE
  8
DETAIL
  6
CONTINUOUS
 62
     5
 10
-8.6604976692851778
 20
-141.89625681442249
 30
0.0
 11
-8.6618109542411048
 21
-141.89645838359269
 31
0.0
  0
LINE
  8
DETAIL
  6
CONTINUOUS
 62
     5
 10
-8.6618109542411048
 20
-141.89645838359269
 30
0.0
 11
-8.6632445792499766
 21
-141.8972282955192
 31
0.0
  0
LINE
  8
DETAIL
  6
CONTINUOUS
 62
     5
 10
-8.6632445792499766
 20
-141.8972282955192
 30
0.0
 11
-8.6632445792499766
 21
-141.8972282955192
 31
0.0
  0
LINE
  8
DETAIL
  6
CONTINUOUS
 62
     5
 10
-8.6632445792499766
 20
-141.8972282955192
 30
0.0
 11
-8.6647535254013519
 21
-141.89836469066401
 31
0.0
  0
LINE
  8
DETAIL
  6
CONTINUOUS
 62
     5
 10
-8.6647535254013519
 20
-141.89836469066401
 30
0.0
 11
-8.6663292261064271
 21
-141.899788753281
 31
0.0
  0
LINE
  8
DETAIL
  6
CONTINUOUS
 62
     5
 10
-8.6663292261064271
 20
-141.899788753281
 30
0.0
 11
-8.6663292261064271
 21
-141.899788753281
 31
0.0
  0
LINE
  8
DETAIL
  6
CONTINUOUS
 62
     5
 10
-8.6663292261064271
 20
-141.899788753281
 30
0.0
 11
-8.6679593368726273
 21
-141.90143490179619
 31
0.0
  0
LINE
  8
DETAIL
  6
CONTINUOUS
 62
     5
 10
-8.6679593368726273
 20
-141.90143490179619
 30
0.0
 11
-8.6695799492529204
 21
-141.9031674475514
 31
0.0
  0
LINE
  8
DETAIL
  6
CONTINUOUS
 62
     5
 10
-8.6695799492529204
 20
-141.9031674475514
 30
0.0
 11
-8.6695799492529204
 21
-141.9031674475514
 31
0.0
  0
LINE
  8
DETAIL
  6
CONTINUOUS
 62
     5
 10
-8.6695799492529204
 20
-141.9031674475514
 30
0.0
 11
-8.671156714684912
 21
-141.9048725212551
 31
0.0
  0
LINE
  8
DETAIL
  6
CONTINUOUS
 62
     5
 10
-8.671156714684912
 20
-141.9048725212551
 30
0.0
 11
-8.6728250880863698
 21
-141.90659363817349
 31
0.0
  0
LINE
  8
DETAIL
  6
CONTINUOUS
 62
     5
 10
-8.6728250880863698
 20
-141.90659363817349
 30
0.0
 11
-8.6728250880863698
 21
-141.90659363817349
 31
0.0
  0
LINE
  8
DETAIL
  6
CONTINUOUS
 62
     5
 10
-8.6728250880863698
 20
-141.90659363817349
 30
0.0
 11
-8.6746992814139503
 21
-141.9083659912221
 31
0.0
  0
LINE
  8
DETAIL
  6
CONTINUOUS
 62
     5
 10
-8.6746992814139503
 20
-141.9083659912221
 30
0.0
 11
-8.6766387312984534
 21
-141.9100340993509
 31
0.0
  0
LINE
  8
DETAIL
  6
CONTINUOUS
 62
     5
 10
-8.6766387312984534
 20
-141.9100340993509
 30
0.0
 11
-8.6766387312984534
 21
-141.9100340993509
 31
0.0
  0
LINE
  8
DETAIL
  6
CONTINUOUS
 62
     5
 10
-8.6766387312984534
 20
-141.9100340993509
 30
0.0
 11
-8.6784830374552939
 21
-141.91144432738929
 31
0.0
  0
LINE
  8
DETAIL
  6
CONTINUOUS
 62
     5
 10
-8.6784830374552939
 20
-141.91144432738929
 30
0.0
 11
-8.6802472272605655
 21
-141.91264109765231
 31
0.0
  0
LINE
  8
DETAIL
  6
CONTINUOUS
 62
     5
 10
-8.6802472272605655
 20
-141.91264109765231
 30
0.0
 11
-8.6802472272605655
 21
-141.91264109765231
 31
0.0
  0
LINE
  8
DETAIL
  6
CONTINUOUS
 62
     5
 10
-8.6802472272605655
 20
-141.91264109765231
 30
0.0
 11
-8.6819833842830576
 21
-141.91370794764819
 31
0.0
  0
LINE
  8
DETAIL
  6
CONTINUOUS
 62
     5
 10
-8.6819833842830576
 20
-141.91370794764819
 30
0.0
 11
-8.6837163891930231
 21
-141.91468681817881
 31
0.0
  0
LINE
  8
DETAIL
  6
CONTINUOUS
 62
     5
 10
-8.6837163891930231
 20
-141.91468681817881
 30
0.0
 11
-8.6837163891930231
 21
-141.91468681817881
 31
0.0
  0
LINE
  8
DETAIL
  6
CONTINUOUS
 62
     5
 10
-8.6837163891930231
 20
-141.91468681817881
 30
0.0
 11
-8.6854476679202435
 21
-141.91560133320351
 31
0.0
  0
LINE
  8
DETAIL
  6
CONTINUOUS
 62
     5
 10
-8.6854476679202435
 20
-141.91560133320351
 30
0.0
 11
-8.6871120303163707
 21
-141.91644344603219
 31
0.0
  0
LINE
  8
DETAIL
  6
CONTINUOUS
 62
     5
 10
-8.6871120303163707
 20
-141.91644344603219
 30
0.0
 11
-8.6871120303163707
 21
-141.91644344603219
 31
0.0
  0
LINE
  8
DETAIL
  6
CONTINUOUS
 62
     5
 10
-8.6871120303163707
 20
-141.91644344603219
 30
0.0
 11
-8.688701049015549
 21
-141.91723926213939
 31
0.0
  0
LINE
  8
DETAIL
  6
CONTINUOUS
 62
     5
 10
-8.688701049015549
 20
-141.91723926213939
 30
0.0
 11
-8.690499963851039
 21
-141.91818316631361
 31
0.0
  0
LINE
  8
DETAIL
  6
CONTINUOUS
 62
     5
 10
-8.690499963851039
 20
-141.91818316631361
 30
0.0
 11
-8.690499963851039
 21
-141.91818316631361
 31
0.0
  0
LINE
  8
DETAIL
  6
CONTINUOUS
 62
     5
 10
-8.690499963851039
 20
-141.91818316631361
 30
0.0
 11
-8.6927501012809216
 21
-141.91944194629511
 31
0.0
  0
LINE
  8
DETAIL
  6
CONTINUOUS
 62
     5
 10
-8.6927501012809216
 20
-141.91944194629511
 30
0.0
 11
-8.6952234670548023
 21
-141.9209037223209
 31
0.0
  0
LINE
  8
DETAIL
  6
CONTINUOUS
 62
     5
 10
-8.6952234670548023
 20
-141.9209037223209
 30
0.0
 11
-8.6952234670548023
 21
-141.9209037223209
 31
0.0
  0
LINE
  8
DETAIL
  6
CONTINUOUS
 62
     5
 10
-8.6952234670548023
 20
-141.9209037223209
 30
0.0
 11
-8.6976460040448274
 21
-141.92242151320261
 31
0.0
  0
LINE
  8
DETAIL
  6
CONTINUOUS
 62
     5
 10
-8.6976460040448274
 20
-141.92242151320261
 30
0.0
 11
-8.700028724320191
 21
-141.92398659955549
 31
0.0
  0
LINE
  8
DETAIL
  6
CONTINUOUS
 62
     5
 10
-8.700028724320191
 20
-141.92398659955549
 30
0.0
 11
-8.700028724320191
 21
-141.92398659955549
 31
0.0
  0
LINE
  8
DETAIL
  6
CONTINUOUS
 62
     5
 10
-8.700028724320191
 20
-141.92398659955549
 30
0.0
 11
-8.7024394402105827
 21
-141.92561876151601
 31
0.0
  0
LINE
  8
DETAIL
  6
CONTINUOUS
 62
     5
 10
-8.7024394402105827
 20
-141.92561876151601
 30
0.0
 11
-8.7048880958882364
 21
-141.92731351549861
 31
0.0
  0
LINE
  8
DETAIL
  6
CONTINUOUS
 62
     5
 10
-8.7048880958882364
 20
-141.92731351549861
 30
0.0
 11
-8.7048880958882364
 21
-141.92731351549861
 31
0.0
  0
LINE
  8
DETAIL
  6
CONTINUOUS
 62
     5
 10
-8.7048880958882364
 20
-141.92731351549861
 30
0.0
 11
-8.7073567693460063
 21
-141.92905001025699
 31
0.0
  0
LINE
  8
DETAIL
  6
CONTINUOUS
 62
     5
 10
-8.7073567693460063
 20
-141.92905001025699
 30
0.0
 11
-8.7097739420003109
 21
-141.93076618763101
 31
0.0
  0
LINE
  8
DETAIL
  6
CONTINUOUS
 62
     5
 10
-8.7097739420003109
 20
-141.93076618763101
 30
0.0
 11
-8.7097739420003109
 21
-141.93076618763101
 31
0.0
  0
LINE
  8
DETAIL
  6
CONTINUOUS
 62
     5
 10
-8.7097739420003109
 20
-141.93076618763101
 30
0.0
 11
-8.7121227597394864
 21
-141.93243696057471
 31
0.0
  0
LINE
  8
DETAIL
  6
CONTINUOUS
 62
     5
 10
-8.7121227597394864
 20
-141.93243696057471
 30
0.0
 11
-8.7146586228981278
 21
-141.93422633343431
 31
0.0
  0
LINE
  8
DETAIL
  6
CONTINUOUS
 62
     5
 10
-8.7146586228981278
 20
-141.93422633343431
 30
0.0
 11
-8.7146586228981278
 21
-141.93422633343431
 31
0.0
  0
LINE
  8
DETAIL
  6
CONTINUOUS
 62
     5
 10
-8.7146586228981278
 20
-141.93422633343431
 30
0.0
 11
-8.7175963602526281
 21
-141.9362719937981
 31
0.0
  0
LINE
  8
DETAIL
  6
CONTINUOUS
 62
     5
 10
-8.7175963602526281
 20
-141.9362719937981
 30
0.0
 11
-8.7207162598921286
 21
-141.9384172708551
 31
0.0
  0
LINE
  8
DETAIL
  6
CONTINUOUS
 62
     5
 10
-8.7207162598921286
 20
-141.9384172708551
 30
0.0
 11
-8.7207162598921286
 21
-141.9384172708551
 31
0.0
  0
LINE
  8
DETAIL
  6
CONTINUOUS
 62
     5
 10
-8.7207162598921286
 20
-141.9384172708551
 30
0.0
 11
-8.7237588012933429
 21
-141.94048115878601
 31
0.0
  0
LINE
  8
DETAIL
  6
CONTINUOUS
 62
     5
 10
-8.7237588012933429
 20
-141.94048115878601
 30
0.0
 11
-8.7267397701634764
 21
-141.9424796701546
 31
0.0
  0
LINE
  8
DETAIL
  6
CONTINUOUS
 62
     5
 10
-8.7267397701634764
 20
-141.9424796701546
 30
0.0
 11
-8.7267397701634764
 21
-141.9424796701546
 31
0.0
  0
LINE
  8
DETAIL
  6
CONTINUOUS
 62
     5
 10
-8.7267397701634764
 20
-141.9424796701546
 30
0.0
 11
-8.7297293248773258
 21
-141.9444675257146
 31
0.0
  0
LINE
  8
DETAIL
  6
CONTINUOUS
 62
     5
 10
-8.7297293248773258
 20
-141.9444675257146
 30
0.0
 11
-8.7327398082281888
 21
-141.94645726059889
 31
0.0
  0
LINE
  8
DETAIL
  6
CONTINUOUS
 62
     5
 10
-8.7327398082281888
 20
-141.94645726059889
 30
0.0
 11
-8.7327398082281888
 21
-141.94645726059889
 31
0.0
  0
LINE
  8
DETAIL
  6
CONTINUOUS
 62
     5
 10
-8.7327398082281888
 20
-141.94645726059889
 30
0.0
 11
-8.7357580981354204
 21
-141.9484437945612
 31
0.0
  0
LINE
  8
DETAIL
  6
CONTINUOUS
 62
     5
 10
-8.7357580981354204
 20
-141.9484437945612
 30
0.0
 11
-8.738727028602284
 21
-141.95039377145531
 31
0.0
  0
LINE
  8
DETAIL
  6
CONTINUOUS
 62
     5
 10
-8.738727028602284
 20
-141.95039377145531
 30
0.0
 11
-8.738727028602284
 21
-141.95039377145531
 31
0.0
  0
LINE
  8
DETAIL
  6
CONTINUOUS
 62
     5
 10
-8.738727028602284
 20
-141.95039377145531
 30
0.0
 11
-8.7416369204642024
 21
-141.95230558846421
 31
0.0
  0
LINE
  8
DETAIL
  6
CONTINUOUS
 62
     5
 10
-8.7416369204642024
 20
-141.95230558846421
 30
0.0
 11
-8.7447120858045082
 21
-141.954332931989
 31
0.0
  0
LINE
  8
DETAIL
  6
CONTINUOUS
 62
     5
 10
-8.7447120858045082
 20
-141.954332931989
 30
0.0
 11
-8.7447120858045082
 21
-141.954332931989
 31
0.0
  0
LINE
  8
DETAIL
  6
CONTINUOUS
 62
     5
 10
-8.7447120858045082
 20
-141.954332931989
 30
0.0
 11
-8.7481412430454384
 21
-141.95660513524629
 31
0.0
  0
LINE
  8
DETAIL
  6
CONTINUOUS
 62
     5
 10
-8.7481412430454384
 20
-141.95660513524629
 30
0.0
 11
-8.7517367447312608
 21
-141.95899882950789
 31
0.0
  0
LINE
  8
DETAIL
  6
CONTINUOUS
 62
     5
 10
-8.7517367447312608
 20
-141.95899882950789
 30
0.0
 11
-8.7517367447312608
 21
-141.95899882950789
 31
0.0
  0
LINE
  8
DETAIL
  6
CONTINUOUS
 62
     5
 10
-8.7517367447312608
 20
-141.95899882950789
 30
0.0
 11
-8.7552756142347334
 21
-141.96136601122589
 31
0.0
  0
LINE
  8
DETAIL
  6
CONTINUOUS
 62
     5
 10
-8.7552756142347334
 20
-141.96136601122589
 30
0.0
 11
-8.7587699241557857
 21
-141.96371283952249
 31
0.0
  0
LINE
  8
DETAIL
  6
CONTINUOUS
 62
     5
 10
-8.7587699241557857
 20
-141.96371283952249
 30
0.0
 11
-8.7587699241557857
 21
-141.96371283952249
 31
0.0
  0
LINE
  8
DETAIL
  6
CONTINUOUS
 62
     5
 10
-8.7587699241557857
 20
-141.96371283952249
 30
0.0
 11
-8.7622780430956482
 21
-141.96607590148909
 31
0.0
  0
LINE
  8
DETAIL
  6
CONTINUOUS
 62
     5
 10
-8.7622780430956482
 20
-141.96607590148909
 30
0.0
 11
-8.7658084744657572
 21
-141.96845933343371
 31
0.0
  0
LINE
  8
DETAIL
  6
CONTINUOUS
 62
     5
 10
-8.7658084744657572
 20
-141.96845933343371
 30
0.0
 11
-8.7658084744657572
 21
-141.96845933343371
 31
0.0
  0
LINE
  8
DETAIL
  6
CONTINUOUS
 62
     5
 10
-8.7658084744657572
 20
-141.96845933343371
 30
0.0
 11
-8.7693483582647787
 21
-141.970853069085
 31
0.0
  0
LINE
  8
DETAIL
  6
CONTINUOUS
 62
     5
 10
-8.7693483582647787
 20
-141.970853069085
 30
0.0
 11
-8.7728492460439611
 21
-141.97322268264321
 31
0.0
  0
LINE
  8
DETAIL
  6
CONTINUOUS
 62
     5
 10
-8.7728492460439611
 20
-141.97322268264321
 30
0.0
 11
-8.7728492460439611
 21
-141.97322268264321
 31
0.0
  0
LINE
  8
DETAIL
  6
CONTINUOUS
 62
     5
 10
-8.7728492460439611
 20
-141.97322268264321
 30
0.0
 11
-8.7763018469900089
 21
-141.97556013065059
 31
0.0
  0
LINE
  8
DETAIL
  6
CONTINUOUS
 62
     5
 10
-8.7763018469900089
 20
-141.97556013065059
 30
0.0
 11
-8.7798890892781856
 21
-141.97798725855179
 31
0.0
  0
LINE
  8
DETAIL
  6
CONTINUOUS
 62
     5
 10
-8.7798890892781856
 20
-141.97798725855179
 30
0.0
 11
-8.7798890892781856
 21
-141.97798725855179
 31
0.0
  0
LINE
  8
DETAIL
  6
CONTINUOUS
 62
     5
 10
-8.7798890892781856
 20
-141.97798725855179
 30
0.0
 11
-8.7837648007530333
 21
-141.98060661318911
 31
0.0
  0
LINE
  8
DETAIL
  6
CONTINUOUS
 62
     5
 10
-8.7837648007530333
 20
-141.98060661318911
 30
0.0
 11
-8.7877741889296885
 21
-141.98331365808599
 31
0.0
  0
LINE
  8
DETAIL
  6
CONTINUOUS
 62
     5
 10
-8.7877741889296885
 20
-141.98331365808599
 30
0.0
 11
-8.7877741889296885
 21
-141.98331365808599
 31
0.0
  0
LINE
  8
DETAIL
  6
CONTINUOUS
 62
     5
 10
-8.7877741889296885
 20
-141.98331365808599
 30
0.0
 11
-8.7917338025382605
 21
-141.9859849336822
 31
0.0
  0
LINE
  8
DETAIL
  6
CONTINUOUS
 62
     5
 10
-8.7917338025382605
 20
-141.9859849336822
 30
0.0
 11
-8.7956541754897444
 21
-141.98862837140899
 31
0.0
  0
LINE
  8
DETAIL
  6
CONTINUOUS
 62
     5
 10
-8.7956541754897444
 20
-141.98862837140899
 30
0.0
 11
-8.7956541754897444
 21
-141.98862837140899
 31
0.0
  0
LINE
  8
DETAIL
  6
CONTINUOUS
 62
     5
 10
-8.7956541754897444
 20
-141.98862837140899
 30
0.0
 11
-8.799583805136308
 21
-141.99127761916591
 31
0.0
  0
LINE
  8
DETAIL
  6
CONTINUOUS
 62
     5
 10
-8.799583805136308
 20
-141.99127761916591
 30
0.0
 11
-8.8035290574019882
 21
-141.9939377997421
 31
0.0
  0
LINE
  8
DETAIL
  6
CONTINUOUS
 62
     5
 10
-8.8035290574019882
 20
-141.9939377997421
 30
0.0
 11
-8.8035290574019882
 21
-141.9939377997421
 31
0.0
  0
LINE
  8
DETAIL
  6
CONTINUOUS
 62
     5
 10
-8.8035290574019882
 20
-141.9939377997421
 30
0.0
 11
-8.8074794004862724
 21
-141.9966025820122
 31
0.0
  0
LINE
  8
DETAIL
  6
CONTINUOUS
 62
     5
 10
-8.8074794004862724
 20
-141.9966025820122
 30
0.0
 11
-8.8113988431096004
 21
-141.99924834430519
 31
0.0
  0
LINE
  8
DETAIL
  6
CONTINUOUS
 62
     5
 10
-8.8113988431096004
 20
-141.99924834430519
 30
0.0
 11
-8.8113988431096004
 21
-141.99924834430519
 31
0.0
  0
LINE
  8
DETAIL
  6
CONTINUOUS
 62
     5
 10
-8.8113988431096004
 20
-141.99924834430519
 30
0.0
 11
-8.8152810214571673
 21
-142.00187156413679
 31
0.0
  0
LINE
  8
DETAIL
  6
CONTINUOUS
 62
     5
 10
-8.8152810214571673
 20
-142.00187156413679
 30
0.0
 11
-8.8192635410553066
 21
-142.00456640631819
 31
0.0
  0
LINE
  8
DETAIL
  6
CONTINUOUS
 62
     5
 10
-8.8192635410553066
 20
-142.00456640631819
 30
0.0
 11
-8.8192635410553066
 21
-142.00456640631819
 31
0.0
  0
LINE
  8
DETAIL
  6
CONTINUOUS
 62
     5
 10
-8.8192635410553066
 20
-142.00456640631819
 30
0.0
 11
-8.8234621370858122
 21
-142.0074118876114
 31
0.0
  0
LINE
  8
DETAIL
  6
CONTINUOUS
 62
     5
 10
-8.8234621370858122
 20
-142.0074118876114
 30
0.0
 11
-8.8277610940323257
 21
-142.0103287452971
 31
0.0
  0
LINE
  8
DETAIL
  6
CONTINUOUS
 62
     5
 10
-8.8277610940323257
 20
-142.0103287452971
 30
0.0
 11
-8.8277610940323257
 21
-142.0103287452971
 31
0.0
  0
LINE
  8
DETAIL
  6
CONTINUOUS
 62
     5
 10
-8.8277610940323257
 20
-142.0103287452971
 30
0.0
 11
-8.8320233054284927
 21
-142.01322279905071
 31
0.0
  0
LINE
  8
DETAIL
  6
CONTINUOUS
 62
     5
 10
-8.8320233054284927
 20
-142.01322279905071
 30
0.0
 11
-8.8362575517184041
 21
-142.01609847762569
 31
0.0
  0
LINE
  8
DETAIL
  6
CONTINUOUS
 62
     5
 10
-8.8362575517184041
 20
-142.01609847762569
 30
0.0
 11
-8.8362575517184041
 21
-142.01609847762569
 31
0.0
  0
LINE
  8
DETAIL
  6
CONTINUOUS
 62
     5
 10
-8.8362575517184041
 20
-142.01609847762569
 30
0.0
 11
-8.8405009097831453
 21
-142.0189793240115
 31
0.0
  0
LINE
  8
DETAIL
  6
CONTINUOUS
 62
     5
 10
-8.8405009097831453
 20
-142.0189793240115
 30
0.0
 11
-8.8447577553240535
 21
-142.02186672907149
 31
0.0
  0
LINE
  8
DETAIL
  6
CONTINUOUS
 62
     5
 10
-8.8447577553240535
 20
-142.02186672907149
 30
0.0
 11
-8.8447577553240535
 21
-142.02186672907149
 31
0.0
  0
LINE
  8
DETAIL
  6
CONTINUOUS
 62
     5
 10
-8.8447577553240535
 20
-142.02186672907149
 30
0.0
 11
-8.8490205181990405
 21
-142.0247540454948
 31
0.0
  0
LINE
  8
DETAIL
  6
CONTINUOUS
 62
     5
 10
-8.8490205181990405
 20
-142.0247540454948
 30
0.0
 11
-8.8532665460591033
 21
-142.0276246254025
 31
0.0
  0
LINE
  8
DETAIL
  6
CONTINUOUS
 62
     5
 10
-8.8532665460591033
 20
-142.0276246254025
 30
0.0
 11
-8.8532665460591033
 21
-142.0276246254025
 31
0.0
  0
LINE
  8
DETAIL
  6
CONTINUOUS
 62
     5
 10
-8.8532665460591033
 20
-142.0276246254025
 30
0.0
 11
-8.8574926735026338
 21
-142.03047485937441
 31
0.0
  0
LINE
  8
DETAIL
  6
CONTINUOUS
 62
     5
 10
-8.8574926735026338
 20
-142.03047485937441
 30
0.0
 11
-8.8617887651353158
 21
-142.03336329238749
 31
0.0
  0
LINE
  8
DETAIL
  6
CONTINUOUS
 62
     5
 10
-8.8617887651353158
 20
-142.03336329238749
 30
0.0
 11
-8.8617887651353158
 21
-142.03336329238749
 31
0.0
  0
LINE
  8
DETAIL
  6
CONTINUOUS
 62
     5
 10
-8.8617887651353158
 20
-142.03336329238749
 30
0.0
 11
-8.866229963985802
 21
-142.03633967949651
 31
0.0
  0
LINE
  8
DETAIL
  6
CONTINUOUS
 62
     5
 10
-8.866229963985802
 20
-142.03633967949651
 30
0.0
 11
-8.8707394967757409
 21
-142.03935646166201
 31
0.0
  0
LINE
  8
DETAIL
  6
CONTINUOUS
 62
     5
 10
-8.8707394967757409
 20
-142.03935646166201
 30
0.0
 11
-8.8707394967757409
 21
-142.03935646166201
 31
0.0
  0
LINE
  8
DETAIL
  6
CONTINUOUS
 62
     5
 10
-8.8707394967757409
 20
-142.03935646166201
 30
0.0
 11
-8.8752257902381189
 21
-142.04235734210721
 31
0.0
  0
LINE
  8
DETAIL
  6
CONTINUOUS
 62
     5
 10
-8.8752257902381189
 20
-142.04235734210721
 30
0.0
 11
-8.8796899874682822
 21
-142.04534838719059
 31
0.0
  0
LINE
  8
DETAIL
  6
CONTINUOUS
 62
     5
 10
-8.8796899874682822
 20
-142.04534838719059
 30
0.0
 11
-8.8796899874682822
 21
-142.04534838719059
 31
0.0
  0
LINE
  8
DETAIL
  6
CONTINUOUS
 62
     5
 10
-8.8796899874682822
 20
-142.04534838719059
 30
0.0
 11
-8.8841527269664766
 21
-142.04834889402261
 31
0.0
  0
LINE
  8
DETAIL
  6
CONTINUOUS
 62
     5
 10
-8.8841527269664766
 20
-142.04834889402261
 30
0.0
 11
-8.8886199124972336
 21
-142.05136871957171
 31
0.0
  0
LINE
  8
DETAIL
  6
CONTINUOUS
 62
     5
 10
-8.8886199124972336
 20
-142.05136871957171
 30
0.0
 11
-8.8886199124972336
 21
-142.05136871957171
 31
0.0
  0
LINE
  8
DETAIL
  6
CONTINUOUS
 62
     5
 10
-8.8886199124972336
 20
-142.05136871957171
 30
0.0
 11
-8.8930853197863371
 21
-142.05440921012681
 31
0.0
  0
LINE
  8
DETAIL
  6
CONTINUOUS
 62
     5
 10
-8.8930853197863371
 20
-142.05440921012681
 30
0.0
 11
-8.8975089471463207
 21
-142.0574471094001
 31
0.0
  0
LINE
  8
DETAIL
  6
CONTINUOUS
 62
     5
 10
-8.8975089471463207
 20
-142.0574471094001
 30
0.0
 11
-8.8975089471463207
 21
-142.0574471094001
 31
0.0
  0
LINE
  8
DETAIL
  6
CONTINUOUS
 62
     5
 10
-8.8975089471463207
 20
-142.0574471094001
 30
0.0
 11
-8.9018798096333285
 21
-142.0604799730722
 31
0.0
  0
LINE
  8
DETAIL
  6
CONTINUOUS
 62
     5
 10
-8.9018798096333285
 20
-142.0604799730722
 30
0.0
 11
-8.9063367666993827
 21
-142.06361320727359
 31
0.0
  0
LINE
  8
DETAIL
  6
CONTINUOUS
 62
     5
 10
-8.9063367666993827
 20
-142.06361320727359
 30
0.0
 11
-8.9063367666993827
 21
-142.06361320727359
 31
0.0
  0
LINE
  8
DETAIL
  6
CONTINUOUS
 62
     5
 10
-8.9063367666993827
 20
-142.06361320727359
 30
0.0
 11
-8.9109974976589683
 21
-142.06693472927779
 31
0.0
  0
LINE
  8
DETAIL
  6
CONTINUOUS
 62
     5
 10
-8.9109974976589683
 20
-142.06693472927779
 30
0.0
 11
-8.9157451168937314
 21
-142.0703546504628
 31
0.0
  0
LINE
  8
DETAIL
  6
CONTINUOUS
 62
     5
 10
-8.9157451168937314
 20
-142.0703546504628
 30
0.0
 11
-8.9157451168937314
 21
-142.0703546504628
 31
0.0
  0
LINE
  8
DETAIL
  6
CONTINUOUS
 62
     5
 10
-8.9157451168937314
 20
-142.0703546504628
 30
0.0
 11
-8.9204424918555105
 21
-142.07376515095299
 31
0.0
  0
LINE
  8
DETAIL
  6
CONTINUOUS
 62
     5
 10
-8.9204424918555105
 20
-142.07376515095299
 30
0.0
 11
-8.9251060672065705
 21
-142.07716449174359
 31
0.0
  0
LINE
  8
DETAIL
  6
CONTINUOUS
 62
     5
 10
-8.9251060672065705
 20
-142.07716449174359
 30
0.0
 11
-8.9251060672065705
 21
-142.07716449174359
 31
0.0
  0
LINE
  8
DETAIL
  6
CONTINUOUS
 62
     5
 10
-8.9251060672065705
 20
-142.07716449174359
 30
0.0
 11
-8.9297800857762013
 21
-142.08057079743051
 31
0.0
  0
LINE
  8
DETAIL
  6
CONTINUOUS
 62
     5
 10
-8.9297800857762013
 20
-142.08057079743051
 30
0.0
 11
-8.9344664058477292
 21
-142.0839755661427
 31
0.0
  0
LINE
  8
DETAIL
  6
CONTINUOUS
 62
     5
 10
-8.9344664058477292
 20
-142.0839755661427
 30
0.0
 11
-8.9344664058477292
 21
-142.0839755661427
 31
0.0
  0
LINE
  8
DETAIL
  6
CONTINUOUS
 62
     5
 10
-8.9344664058477292
 20
-142.0839755661427
 30
0.0
 11
-8.9391602798094709
 21
-142.08736374564211
 31
0.0
  0
LINE
  8
DETAIL
  6
CONTINUOUS
 62
     5
 10
-8.9391602798094709
 20
-142.08736374564211
 30
0.0
 11
-8.9438729210293104
 21
-142.090720708688
 31
0.0
  0
LINE
  8
DETAIL
  6
CONTINUOUS
 62
     5
 10
-8.9438729210293104
 20
-142.090720708688
 30
0.0
 11
-8.9438729210293104
 21
-142.090720708688
 31
0.0
  0
LINE
  8
DETAIL
  6
CONTINUOUS
 62
     5
 10
-8.9438729210293104
 20
-142.090720708688
 30
0.0
 11
-8.9486141682792777
 21
-142.09403816590839
 31
0.0
  0
LINE
  8
DETAIL
  6
CONTINUOUS
 62
     5
 10
-8.9486141682792777
 20
-142.09403816590839
 30
0.0
 11
-8.9533724009639855
 21
-142.09733275440701
 31
0.0
  0
LINE
  8
DETAIL
  6
CONTINUOUS
 62
     5
 10
-0.4350164881393539
 20
-134.84937799082849
 30
0.0
 11
-0.4339522541845326
 21
-134.85105597956951
 31
0.0
  0
LINE
  8
DETAIL
  6
CONTINUOUS
 62
     5
 10
-0.4339522541845326
 20
-134.85105597956951
 30
0.0
 11
-0.4327896317026898
 21
-134.85267477759859
 31
0.0
  0
LINE
  8
DETAIL
  6
CONTINUOUS
 62
     5
 10
-0.4327896317026898
 20
-134.85267477759859
 30
0.0
 11
-0.4327896317026898
 21
-134.85267477759859
 31
0.0
  0
LINE
  8
DETAIL
  6
CONTINUOUS
 62
     5
 10
-0.4327896317026898
 20
-134.85267477759859
 30
0.0
 11
-0.4314531574755165
 21
-134.8541859909574
 31
0.0
  0
LINE
  8
DETAIL
  6
CONTINUOUS
 62
     5
 10
-0.4314531574755165
 20
-134.8541859909574
 30
0.0
 11
-0.4299590695146662
 21
-134.85558441271411
 31
0.0
  0
LINE
  8
DETAIL
  6
CONTINUOUS
 62
     5
 10
-0.4299590695146662
 20
-134.85558441271411
 30
0.0
 11
-0.4299590695146662
 21
-134.85558441271411
 31
0.0
  0
LINE
  8
DETAIL
  6
CONTINUOUS
 62
     5
 10
-0.4299590695146662
 20
-134.85558441271411
 30
0.0
 11
-0.4283481927186585
 21
-134.8568713791756
 31
0.0
  0
LINE
  8
DETAIL
  6
CONTINUOUS
 62
     5
 10
-0.4283481927186585
 20
-134.8568713791756
 30
0.0
 11
-0.4266679982937376
 21
-134.8580312125855
 31
0.0
  0
LINE
  8
DETAIL
  6
CONTINUOUS
 62
     5
 10
-0.4266679982937376
 20
-134.8580312125855
 30
0.0
 11
-0.4266679982937376
 21
-134.8580312125855
 31
0.0
  0
LINE
  8
DETAIL
  6
CONTINUOUS
 62
     5
 10
-0.4266679982937376
 20
-134.8580312125855
 30
0.0
 11
-0.4249380474068403
 21
-134.85905019897879
 31
0.0
  0
LINE
  8
DETAIL
  6
CONTINUOUS
 62
     5
 10
-0.4249380474068403
 20
-134.85905019897879
 30
0.0
 11
-0.4230596147533561
 21
-134.8599394936227
 31
0.0
  0
LINE
  8
DETAIL
  6
CONTINUOUS
 62
     5
 10
-0.4230596147533561
 20
-134.8599394936227
 30
0.0
 11
-0.4230596147533561
 21
-134.8599394936227
 31
0.0
  0
LINE
  8
DETAIL
  6
CONTINUOUS
 62
     5
 10
-0.4230596147533561
 20
-134.8599394936227
 30
0.0
 11
-0.4210210283055176
 21
-134.86069585337549
 31
0.0
  0
LINE
  8
DETAIL
  6
CONTINUOUS
 62
     5
 10
-0.4210210283055176
 20
-134.86069585337549
 30
0.0
 11
-0.419277115611294
 21
-134.86123357223551
 31
0.0
  0
LINE
  8
DETAIL
  6
CONTINUOUS
 62
     5
 10
-0.419277115611294
 20
-134.86123357223551
 30
0.0
 11
-0.419277115611294
 21
-134.86123357223551
 31
0.0
  0
LINE
  8
DETAIL
  6
CONTINUOUS
 62
     5
 10
-0.419277115611294
 20
-134.86123357223551
 30
0.0
 11
-0.4182126973710183
 21
-134.86149414888129
 31
0.0
  0
LINE
  8
DETAIL
  6
CONTINUOUS
 62
     5
 10
-0.4182126973710183
 20
-134.86149414888129
 30
0.0
 11
-0.4174660672995287
 21
-134.8616103635818
 31
0.0
  0
LINE
  8
DETAIL
  6
CONTINUOUS
 62
     5
 10
-0.4174660672995287
 20
-134.8616103635818
 30
0.0
 11
-0.4174660672995287
 21
-134.8616103635818
 31
0.0
  0
LINE
  8
DETAIL
  6
CONTINUOUS
 62
     5
 10
-0.4174660672995287
 20
-134.8616103635818
 30
0.0
 11
-0.4166051970616991
 21
-134.86172434796941
 31
0.0
  0
LINE
  8
DETAIL
  6
CONTINUOUS
 62
     5
 10
-0.4166051970616991
 20
-134.86172434796941
 30
0.0
 11
-0.4156632970891678
 21
-134.8618243575329
 31
0.0
  0
LINE
  8
DETAIL
  6
CONTINUOUS
 62
     5
 10
-0.4156632970891678
 20
-134.8618243575329
 30
0.0
 11
-0.4156632970891678
 21
-134.8618243575329
 31
0.0
  0
LINE
  8
DETAIL
  6
CONTINUOUS
 62
     5
 10
-0.4156632970891678
 20
-134.8618243575329
 30
0.0
 11
-0.4147585788089145
 21
-134.8618709181155
 31
0.0
  0
LINE
  8
DETAIL
  6
CONTINUOUS
 62
     5
 10
-0.4147585788089145
 20
-134.8618709181155
 30
0.0
 11
-0.4138840188561517
 21
-134.86186751310879
 31
0.0
  0
LINE
  8
DETAIL
  6
CONTINUOUS
 62
     5
 10
-0.4138840188561517
 20
-134.86186751310879
 30
0.0
 11
-0.4138840188561517
 21
-134.86186751310879
 31
0.0
  0
LINE
  8
DETAIL
  6
CONTINUOUS
 62
     5
 10
-0.4138840188561517
 20
-134.86186751310879
 30
0.0
 11
-0.4130102102678848
 21
-134.8618238767767
 31
0.0
  0
LINE
  8
DETAIL
  6
CONTINUOUS
 62
     5
 10
-0.4130102102678848
 20
-134.8618238767767
 30
0.0
 11
-0.4121434464797176
 21
-134.8617317893281
 31
0.0
  0
LINE
  8
DETAIL
  6
CONTINUOUS
 62
     5
 10
-0.4121434464797176
 20
-134.8617317893281
 30
0.0
 11
-0.4121434464797176
 21
-134.8617317893281
 31
0.0
  0
LINE
  8
DETAIL
  6
CONTINUOUS
 62
     5
 10
-0.4121434464797176
 20
-134.8617317893281
 30
0.0
 11
-0.4112945543240585
 21
-134.86158575712619
 31
0.0
  0
LINE
  8
DETAIL
  6
CONTINUOUS
 62
     5
 10
-0.4112945543240585
 20
-134.86158575712619
 30
0.0
 11
-0.410456793836147
 21
-134.86140914521229
 31
0.0
  0
LINE
  8
DETAIL
  6
CONTINUOUS
 62
     5
 10
-8.6582598696714967
 20
-136.50173063088101
 30
0.0
 11
-8.6591715442305031
 21
-136.50248915880499
 31
0.0
  0
LINE
  8
DETAIL
  6
CONTINUOUS
 62
     5
 10
-8.6591715442305031
 20
-136.50248915880499
 30
0.0
 11
-8.6601577337273739
 21
-136.50290928158941
 31
0.0
  0
LINE
  8
DETAIL
  6
CONTINUOUS
 62
     5
 10
-8.6601577337273739
 20
-136.50290928158941
 30
0.0
 11
-8.6601577337273739
 21
-136.50290928158941
 31
0.0
  0
LINE
  8
DETAIL
  6
CONTINUOUS
 62
     5
 10
-8.6601577337273739
 20
-136.50290928158941
 30
0.0
 11
-8.6612728505243695
 21
-136.50274174202829
 31
0.0
  0
LINE
  8
DETAIL
  6
CONTINUOUS
 62
     5
 10
-8.6612728505243695
 20
-136.50274174202829
 30
0.0
 11
-8.6624908966930434
 21
-136.50209387464699
 31
0.0
  0
LINE
  8
DETAIL
  6
CONTINUOUS
 62
     5
 10
-8.6624908966930434
 20
-136.50209387464699
 30
0.0
 11
-8.6624908966930434
 21
-136.50209387464699
 31
0.0
  0
LINE
  8
DETAIL
  6
CONTINUOUS
 62
     5
 10
-8.6624908966930434
 20
-136.50209387464699
 30
0.0
 11
-8.6637733668965211
 21
-136.5011363283115
 31
0.0
  0
LINE
  8
DETAIL
  6
CONTINUOUS
 62
     5
 10
-8.6637733668965211
 20
-136.5011363283115
 30
0.0
 11
-8.6651121364598112
 21
-136.4999364175178
 31
0.0
  0
LINE
  8
DETAIL
  6
CONTINUOUS
 62
     5
 10
-8.6651121364598112
 20
-136.4999364175178
 30
0.0
 11
-8.6651121364598112
 21
-136.4999364175178
 31
0.0
  0
LINE
  8
DETAIL
  6
CONTINUOUS
 62
     5
 10
-8.6651121364598112
 20
-136.4999364175178
 30
0.0
 11
-8.6664963977864318
 21
-136.49854980960751
 31
0.0
  0
LINE
  8
DETAIL
  6
CONTINUOUS
 62
     5
 10
-8.6664963977864318
 20
-136.49854980960751
 30
0.0
 11
-8.6678742309194377
 21
-136.49708891766659
 31
0.0
  0
LINE
  8
DETAIL
  6
CONTINUOUS
 62
     5
 10
-8.6678742309194377
 20
-136.49708891766659
 30
0.0
 11
-8.6678742309194377
 21
-136.49708891766659
 31
0.0
  0
LINE
  8
DETAIL
  6
CONTINUOUS
 62
     5
 10
-8.6678742309194377
 20
-136.49708891766659
 30
0.0
 11
-8.6692169550055951
 21
-136.49564942906451
 31
0.0
  0
LINE
  8
DETAIL
  6
CONTINUOUS
 62
     5
 10
-8.6692169550055951
 20
-136.49564942906451
 30
0.0
 11
-8.6706299579620918
 21
-136.49420338255689
 31
0.0
  0
LINE
  8
DETAIL
  6
CONTINUOUS
 62
     5
 10
-8.6706299579620918
 20
-136.49420338255689
 30
0.0
 11
-8.6706299579620918
 21
-136.49420338255689
 31
0.0
  0
LINE
  8
DETAIL
  6
CONTINUOUS
 62
     5
 10
-8.6706299579620918
 20
-136.49420338255689
 30
0.0
 11
-8.6722021916809808
 21
-136.49272797015649
 31
0.0
  0
LINE
  8
DETAIL
  6
CONTINUOUS
 62
     5
 10
-8.6722021916809808
 20
-136.49272797015649
 30
0.0
 11
-8.6738227951744875
 21
-136.49134464552529
 31
0.0
  0
LINE
  8
DETAIL
  6
CONTINUOUS
 62
     5
 10
-8.6738227951744875
 20
-136.49134464552529
 30
0.0
 11
-8.6738227951744875
 21
-136.49134464552529
 31
0.0
  0
LINE
  8
DETAIL
  6
CONTINUOUS
 62
     5
 10
-8.6738227951744875
 20
-136.49134464552529
 30
0.0
 11
-8.6753655463785435
 21
-136.49017219046391
 31
0.0
  0
LINE
  8
DETAIL
  6
CONTINUOUS
 62
     5
 10
-8.6753655463785435
 20
-136.49017219046391
 30
0.0
 11
-8.6768425918013463
 21
-136.48917443768639
 31
0.0
  0
LINE
  8
DETAIL
  6
CONTINUOUS
 62
     5
 10
-8.6768425918013463
 20
-136.48917443768639
 30
0.0
 11
-8.6768425918013463
 21
-136.48917443768639
 31
0.0
  0
LINE
  8
DETAIL
  6
CONTINUOUS
 62
     5
 10
-8.6768425918013463
 20
-136.48917443768639
 30
0.0
 11
-8.6782954624079593
 21
-136.48828451227379
 31
0.0
  0
LINE
  8
DETAIL
  6
CONTINUOUS
 62
     5
 10
-8.6782954624079593
 20
-136.48828451227379
 30
0.0
 11
-8.6797448584117092
 21
-136.48746765786339
 31
0.0
  0
LINE
  8
DETAIL
  6
CONTINUOUS
 62
     5
 10
-8.6797448584117092
 20
-136.48746765786339
 30
0.0
 11
-8.6797448584117092
 21
-136.48746765786339
 31
0.0
  0
LINE
  8
DETAIL
  6
CONTINUOUS
 62
     5
 10
-8.6797448584117092
 20
-136.48746765786339
 30
0.0
 11
-8.6811925109473123
 21
-136.48670376644711
 31
0.0
  0
LINE
  8
DETAIL
  6
CONTINUOUS
 62
     5
 10
-8.6811925109473123
 20
-136.48670376644711
 30
0.0
 11
-8.6825851055691601
 21
-136.48599920487871
 31
0.0
  0
LINE
  8
DETAIL
  6
CONTINUOUS
 62
     5
 10
-8.6825851055691601
 20
-136.48599920487871
 30
0.0
 11
-8.6825851055691601
 21
-136.48599920487871
 31
0.0
  0
LINE
  8
DETAIL
  6
CONTINUOUS
 62
     5
 10
-8.6825851055691601
 20
-136.48599920487871
 30
0.0
 11
-8.683915819701383
 21
-136.48533245422689
 31
0.0
  0
LINE
  8
DETAIL
  6
CONTINUOUS
 62
     5
 10
-8.683915819701383
 20
-136.48533245422689
 30
0.0
 11
-8.6854188438387609
 21
-136.4845439775554
 31
0.0
  0
LINE
  8
DETAIL
  6
CONTINUOUS
 62
     5
 10
-8.6854188438387609
 20
-136.4845439775554
 30
0.0
 11
-8.6854188438387609
 21
-136.4845439775554
 31
0.0
  0
LINE
  8
DETAIL
  6
CONTINUOUS
 62
     5
 10
-8.6854188438387609
 20
-136.4845439775554
 30
0.0
 11
-8.6872923316846027
 21
-136.48349691588561
 31
0.0
  0
LINE
  8
DETAIL
  6
CONTINUOUS
 62
     5
 10
-8.6872923316846027
 20
-136.48349691588561
 30
0.0
 11
-8.6893492767171665
 21
-136.48228314008881
 31
0.0
  0
LINE
  8
DETAIL
  6
CONTINUOUS
 62
     5
 10
-8.6893492767171665
 20
-136.48228314008881
 30
0.0
 11
-8.6893492767171665
 21
-136.48228314008881
 31
0.0
  0
LINE
  8
DETAIL
  6
CONTINUOUS
 62
     5
 10
-8.6893492767171665
 20
-136.48228314008881
 30
0.0
 11
-8.6913648265549455
 21
-136.4810233292383
 31
0.0
  0
LINE
  8
DETAIL
  6
CONTINUOUS
 62
     5
 10
-8.6913648265549455
 20
-136.4810233292383
 30
0.0
 11
-8.6933479055874159
 21
-136.4797246653811
 31
0.0
  0
LINE
  8
DETAIL
  6
CONTINUOUS
 62
     5
 10
-8.6933479055874159
 20
-136.4797246653811
 30
0.0
 11
-8.6933479055874159
 21
-136.4797246653811
 31
0.0
  0
LINE
  8
DETAIL
  6
CONTINUOUS
 62
     5
 10
-8.6933479055874159
 20
-136.4797246653811
 30
0.0
 11
-8.6953540712185031
 21
-136.4783709102112
 31
0.0
  0
LINE
  8
DETAIL
  6
CONTINUOUS
 62
     5
 10
-8.6953540712185031
 20
-136.4783709102112
 30
0.0
 11
-8.6973916361289412
 21
-136.4769656410613
 31
0.0
  0
LINE
  8
DETAIL
  6
CONTINUOUS
 62
     5
 10
-8.6973916361289412
 20
-136.4769656410613
 30
0.0
 11
-8.6973916361289412
 21
-136.4769656410613
 31
0.0
  0
LINE
  8
DETAIL
  6
CONTINUOUS
 62
     5
 10
-8.6973916361289412
 20
-136.4769656410613
 30
0.0
 11
-8.6994459023491117
 21
-136.47552594779199
 31
0.0
  0
LINE
  8
DETAIL
  6
CONTINUOUS
 62
     5
 10
-8.6994459023491117
 20
-136.47552594779199
 30
0.0
 11
-8.7014573740236756
 21
-136.47410315475781
 31
0.0
  0
LINE
  8
DETAIL
  6
CONTINUOUS
 62
     5
 10
-8.7014573740236756
 20
-136.47410315475781
 30
0.0
 11
-8.7014573740236756
 21
-136.47410315475781
 31
0.0
  0
LINE
  8
DETAIL
  6
CONTINUOUS
 62
     5
 10
-8.7014573740236756
 20
-136.47410315475781
 30
0.0
 11
-8.7034119648928936
 21
-136.47271795653481
 31
0.0
  0
LINE
  8
DETAIL
  6
CONTINUOUS
 62
     5
 10
-8.7034119648928936
 20
-136.47271795653481
 30
0.0
 11
-8.7055220249532113
 21
-136.47123429410021
 31
0.0
  0
LINE
  8
DETAIL
  6
CONTINUOUS
 62
     5
 10
-8.7055220249532113
 20
-136.47123429410021
 30
0.0
 11
-8.7055220249532113
 21
-136.47123429410021
 31
0.0
  0
LINE
  8
DETAIL
  6
CONTINUOUS
 62
     5
 10
-8.7055220249532113
 20
-136.47123429410021
 30
0.0
 11
-8.7079661875970942
 21
-136.46953792629981
 31
0.0
  0
LINE
  8
DETAIL
  6
CONTINUOUS
 62
     5
 10
-8.7079661875970942
 20
-136.46953792629981
 30
0.0
 11
-8.7105617835239855
 21
-136.46775863704619
 31
0.0
  0
LINE
  8
DETAIL
  6
CONTINUOUS
 62
     5
 10
-8.7105617835239855
 20
-136.46775863704619
 30
0.0
 11
-8.7105617835239855
 21
-136.46775863704619
 31
0.0
  0
LINE
  8
DETAIL
  6
CONTINUOUS
 62
     5
 10
-8.7105617835239855
 20
-136.46775863704619
 30
0.0
 11
-8.7130930190248819
 21
-136.46604643409549
 31
0.0
  0
LINE
  8
DETAIL
  6
CONTINUOUS
 62
     5
 10
-8.7130930190248819
 20
-136.46604643409549
 30
0.0
 11
-8.7155729054413769
 21
-136.46438819549991
 31
0.0
  0
LINE
  8
DETAIL
  6
CONTINUOUS
 62
     5
 10
-8.7155729054413769
 20
-136.46438819549991
 30
0.0
 11
-8.7155729054413769
 21
-136.46438819549991
 31
0.0
  0
LINE
  8
DETAIL
  6
CONTINUOUS
 62
     5
 10
-8.7155729054413769
 20
-136.46438819549991
 30
0.0
 11
-8.7180597623340645
 21
-136.4627386672241
 31
0.0
  0
LINE
  8
DETAIL
  6
CONTINUOUS
 62
     5
 10
-8.7180597623340645
 20
-136.4627386672241
 30
0.0
 11
-8.7205643370897405
 21
-136.46108719658059
 31
0.0
  0
LINE
  8
DETAIL
  6
CONTINUOUS
 62
     5
 10
-8.7205643370897405
 20
-136.46108719658059
 30
0.0
 11
-8.7205643370897405
 21
-136.46108719658059
 31
0.0
  0
LINE
  8
DETAIL
  6
CONTINUOUS
 62
     5
 10
-8.7205643370897405
 20
-136.46108719658059
 30
0.0
 11
-8.7230758549637812
 21
-136.4594379622954
 31
0.0
  0
LINE
  8
DETAIL
  6
CONTINUOUS
 62
     5
 10
-8.7230758549637812
 20
-136.4594379622954
 30
0.0
 11
-8.7255450248535453
 21
-136.4578198674094
 31
0.0
  0
LINE
  8
DETAIL
  6
CONTINUOUS
 62
     5
 10
-8.7255450248535453
 20
-136.4578198674094
 30
0.0
 11
-8.7255450248535453
 21
-136.4578198674094
 31
0.0
  0
LINE
  8
DETAIL
  6
CONTINUOUS
 62
     5
 10
-8.7255450248535453
 20
-136.4578198674094
 30
0.0
 11
-8.7279633359696618
 21
-136.45623462139059
 31
0.0
  0
LINE
  8
DETAIL
  6
CONTINUOUS
 62
     5
 10
-8.7279633359696618
 20
-136.45623462139059
 30
0.0
 11
-8.7305239151178284
 21
-136.45455043510719
 31
0.0
  0
LINE
  8
DETAIL
  6
CONTINUOUS
 62
     5
 10
-8.7305239151178284
 20
-136.45455043510719
 30
0.0
 11
-8.7305239151178284
 21
-136.45455043510719
 31
0.0
  0
LINE
  8
DETAIL
  6
CONTINUOUS
 62
     5
 10
-8.7305239151178284
 20
-136.45455043510719
 30
0.0
 11
-8.7333892825126895
 21
-136.45265636260049
 31
0.0
  0
LINE
  8
DETAIL
  6
CONTINUOUS
 62
     5
 10
-8.7333892825126895
 20
-136.45265636260049
 30
0.0
 11
-8.7363978943931215
 21
-136.45065832921361
 31
0.0
  0
LINE
  8
DETAIL
  6
CONTINUOUS
 62
     5
 10
-8.7363978943931215
 20
-136.45065832921361
 30
0.0
 11
-8.7363978943931215
 21
-136.45065832921361
 31
0.0
  0
LINE
  8
DETAIL
  6
CONTINUOUS
 62
     5
 10
-8.7363978943931215
 20
-136.45065832921361
 30
0.0
 11
-8.739357739805655
 21
-136.44868340030641
 31
0.0
  0
LINE
  8
DETAIL
  6
CONTINUOUS
 62
     5
 10
-8.739357739805655
 20
-136.44868340030641
 30
0.0
 11
-8.7422790030132091
 21
-136.44672633000761
 31
0.0
  0
LINE
  8
DETAIL
  6
CONTINUOUS
 62
     5
 10
-8.7422790030132091
 20
-136.44672633000761
 30
0.0
 11
-8.7422790030132091
 21
-136.44672633000761
 31
0.0
  0
LINE
  8
DETAIL
  6
CONTINUOUS
 62
     5
 10
-8.7422790030132091
 20
-136.44672633000761
 30
0.0
 11
-8.7452118831379266
 21
-136.4447556280802
 31
0.0
  0
LINE
  8
DETAIL
  6
CONTINUOUS
 62
     5
 10
-8.7452118831379266
 20
-136.4447556280802
 30
0.0
 11
-8.7481644435246153
 21
-136.4427671380663
 31
0.0
  0
LINE
  8
DETAIL
  6
CONTINUOUS
 62
     5
 10
-8.7481644435246153
 20
-136.4427671380663
 30
0.0
 11
-8.7481644435246153
 21
-136.4427671380663
 31
0.0
  0
LINE
  8
DETAIL
  6
CONTINUOUS
 62
     5
 10
-8.7481644435246153
 20
-136.4427671380663
 30
0.0
 11
-8.7511258005465606
 21
-136.44076928098181
 31
0.0
  0
LINE
  8
DETAIL
  6
CONTINUOUS
 62
     5
 10
-8.7511258005465606
 20
-136.44076928098181
 30
0.0
 11
-8.7540514184718177
 21
-136.43879345397141
 31
0.0
  0
LINE
  8
DETAIL
  6
CONTINUOUS
 62
     5
 10
-8.7540514184718177
 20
-136.43879345397141
 30
0.0
 11
-8.7540514184718177
 21
-136.43879345397141
 31
0.0
  0
LINE
  8
DETAIL
  6
CONTINUOUS
 62
     5
 10
-8.7540514184718177
 20
-136.43879345397141
 30
0.0
 11
-8.75693253459076
 21
-136.43684698864081
 31
0.0
  0
LINE
  8
DETAIL
  6
CONTINUOUS
 62
     5
 10
-8.75693253459076
 20
-136.43684698864081
 30
0.0
 11
-8.7599371304002034
 21
-136.43481797830009
 31
0.0
  0
LINE
  8
DETAIL
  6
CONTINUOUS
 62
     5
 10
-8.7599371304002034
 20
-136.43481797830009
 30
0.0
 11
-8.7599371304002034
 21
-136.43481797830009
 31
0.0
  0
LINE
  8
DETAIL
  6
CONTINUOUS
 62
     5
 10
-8.7599371304002034
 20
-136.43481797830009
 30
0.0
 11
-8.7632065375210004
 21
-136.43261222424741
 31
0.0
  0
LINE
  8
DETAIL
  6
CONTINUOUS
 62
     5
 10
-8.7632065375210004
 20
-136.43261222424741
 30
0.0
 11
-8.7665987438720094
 21
-136.43032559801671
 31
0.0
  0
LINE
  8
DETAIL
  6
CONTINUOUS
 62
     5
 10
-8.7665987438720094
 20
-136.43032559801671
 30
0.0
 11
-8.7665987438720094
 21
-136.43032559801671
 31
0.0
  0
LINE
  8
DETAIL
  6
CONTINUOUS
 62
     5
 10
-8.7665987438720094
 20
-136.43032559801671
 30
0.0
 11
-8.7699453663437907
 21
-136.42807143240319
 31
0.0
  0
LINE
  8
DETAIL
  6
CONTINUOUS
 62
     5
 10
-8.7699453663437907
 20
-136.42807143240319
 30
0.0
 11
-8.7732558814097956
 21
-136.425842834999
 31
0.0
  0
LINE
  8
DETAIL
  6
CONTINUOUS
 62
     5
 10
-8.7732558814097956
 20
-136.425842834999
 30
0.0
 11
-8.7732558814097956
 21
-136.425842834999
 31
0.0
  0
LINE
  8
DETAIL
  6
CONTINUOUS
 62
     5
 10
-8.7732558814097956
 20
-136.425842834999
 30
0.0
 11
-8.7765748455071844
 21
-136.423609202579
 31
0.0
  0
LINE
  8
DETAIL
  6
CONTINUOUS
 62
     5
 10
-8.7765748455071844
 20
-136.423609202579
 30
0.0
 11
-8.7799092753275545
 21
-136.4213653138504
 31
0.0
  0
LINE
  8
DETAIL
  6
CONTINUOUS
 62
     5
 10
-8.7799092753275545
 20
-136.4213653138504
 30
0.0
 11
-8.7799092753275545
 21
-136.4213653138504
 31
0.0
  0
LINE
  8
DETAIL
  6
CONTINUOUS
 62
     5
 10
-8.7799092753275545
 20
-136.4213653138504
 30
0.0
 11
-8.783249877475896
 21
-136.4191169673704
 31
0.0
  0
LINE
  8
DETAIL
  6
CONTINUOUS
 62
     5
 10
-8.783249877475896
 20
-136.4191169673704
 30
0.0
 11
-8.7865596579404155
 21
-136.41688865917419
 31
0.0
  0
LINE
  8
DETAIL
  6
CONTINUOUS
 62
     5
 10
-8.7865596579404155
 20
-136.41688865917419
 30
0.0
 11
-8.7865596579404155
 21
-136.41688865917419
 31
0.0
  0
LINE
  8
DETAIL
  6
CONTINUOUS
 62
     5
 10
-8.7865596579404155
 20
-136.41688865917419
 30
0.0
 11
-8.7898317831065924
 21
-136.41468451670519
 31
0.0
  0
LINE
  8
DETAIL
  6
CONTINUOUS
 62
     5
 10
-8.7898317831065924
 20
-136.41468451670519
 30
0.0
 11
-8.7932077615663502
 21
-136.41240849557519
 31
0.0
  0
LINE
  8
DETAIL
  6
CONTINUOUS
 62
     5
 10
-8.7932077615663502
 20
-136.41240849557519
 30
0.0
 11
-8.7932077615663502
 21
-136.41240849557519
 31
0.0
  0
LINE
  8
DETAIL
  6
CONTINUOUS
 62
     5
 10
-8.7932077615663502
 20
-136.41240849557519
 30
0.0
 11
-8.7968066429142482
 21
-136.4099798396492
 31
0.0
  0
LINE
  8
DETAIL
  6
CONTINUOUS
 62
     5
 10
-8.7968066429142482
 20
-136.4099798396492
 30
0.0
 11
-8.800509298546217
 21
-136.40747911763901
 31
0.0
  0
LINE
  8
DETAIL
  6
CONTINUOUS
 62
     5
 10
-8.800509298546217
 20
-136.40747911763901
 30
0.0
 11
-8.800509298546217
 21
-136.40747911763901
 31
0.0
  0
LINE
  8
DETAIL
  6
CONTINUOUS
 62
     5
 10
-8.800509298546217
 20
-136.40747911763901
 30
0.0
 11
-8.8041744191114049
 21
-136.4050020590353
 31
0.0
  0
LINE
  8
DETAIL
  6
CONTINUOUS
 62
     5
 10
-8.8041744191114049
 20
-136.4050020590353
 30
0.0
 11
-8.807810150456703
 21
-136.40254371159381
 31
0.0
  0
LINE
  8
DETAIL
  6
CONTINUOUS
 62
     5
 10
-8.807810150456703
 20
-136.40254371159381
 30
0.0
 11
-8.807810150456703
 21
-136.40254371159381
 31
0.0
  0
LINE
  8
DETAIL
  6
CONTINUOUS
 62
     5
 10
-8.807810150456703
 20
-136.40254371159381
 30
0.0
 11
-8.8114540040676275
 21
-136.40007934072361
 31
0.0
  0
LINE
  8
DETAIL
  6
CONTINUOUS
 62
     5
 10
-8.8114540040676275
 20
-136.40007934072361
 30
0.0
 11
-8.8151114987616666
 21
-136.3976057641776
 31
0.0
  0
LINE
  8
DETAIL
  6
CONTINUOUS
 62
     5
 10
-8.8151114987616666
 20
-136.3976057641776
 30
0.0
 11
-8.8151114987616666
 21
-136.3976057641776
 31
0.0
  0
LINE
  8
DETAIL
  6
CONTINUOUS
 62
     5
 10
-8.8151114987616666
 20
-136.3976057641776
 30
0.0
 11
-8.8187747840532893
 21
-136.3951288058843
 31
0.0
  0
LINE
  8
DETAIL
  6
CONTINUOUS
 62
     5
 10
-8.8187747840532893
 20
-136.3951288058843
 30
0.0
 11
-8.8224145249230332
 21
-136.3926687621279
 31
0.0
  0
LINE
  8
DETAIL
  6
CONTINUOUS
 62
     5
 10
-8.8224145249230332
 20
-136.3926687621279
 30
0.0
 11
-8.8224145249230332
 21
-136.3926687621279
 31
0.0
  0
LINE
  8
DETAIL
  6
CONTINUOUS
 62
     5
 10
-8.8224145249230332
 20
-136.3926687621279
 30
0.0
 11
-8.8260254979179535
 21
-136.39022968683869
 31
0.0
  0
LINE
  8
DETAIL
  6
CONTINUOUS
 62
     5
 10
-8.8260254979179535
 20
-136.39022968683869
 30
0.0
 11
-8.8297204104057982
 21
-136.38773619218361
 31
0.0
  0
LINE
  8
DETAIL
  6
CONTINUOUS
 62
     5
 10
-8.8297204104057982
 20
-136.38773619218361
 30
0.0
 11
-8.8297204104057982
 21
-136.38773619218361
 31
0.0
  0
LINE
  8
DETAIL
  6
CONTINUOUS
 62
     5
 10
-8.8297204104057982
 20
-136.38773619218361
 30
0.0
 11
-8.8335939282943627
 21
-136.3851247226257
 31
0.0
  0
LINE
  8
DETAIL
  6
CONTINUOUS
 62
     5
 10
-8.8335939282943627
 20
-136.3851247226257
 30
0.0
 11
-8.8375506208441266
 21
-136.3824584935692
 31
0.0
  0
LINE
  8
DETAIL
  6
CONTINUOUS
 62
     5
 10
-8.8375506208441266
 20
-136.3824584935692
 30
0.0
 11
-8.8375506208441266
 21
-136.3824584935692
 31
0.0
  0
LINE
  8
DETAIL
  6
CONTINUOUS
 62
     5
 10
-8.8375506208441266
 20
-136.3824584935692
 30
0.0
 11
-8.841477286326608
 21
-136.37981232483571
 31
0.0
  0
LINE
  8
DETAIL
  6
CONTINUOUS
 62
     5
 10
-8.841477286326608
 20
-136.37981232483571
 30
0.0
 11
-8.8453797357124131
 21
-136.37718068297951
 31
0.0
  0
LINE
  8
DETAIL
  6
CONTINUOUS
 62
     5
 10
-8.8453797357124131
 20
-136.37718068297951
 30
0.0
 11
-8.8453797357124131
 21
-136.37718068297951
 31
0.0
  0
LINE
  8
DETAIL
  6
CONTINUOUS
 62
     5
 10
-8.8453797357124131
 20
-136.37718068297951
 30
0.0
 11
-8.8492870055218873
 21
-136.37454232961639
 31
0.0
  0
LINE
  8
DETAIL
  6
CONTINUOUS
 62
     5
 10
-8.8492870055218873
 20
-136.37454232961639
 30
0.0
 11
-8.853202021780362
 21
-136.37189355988491
 31
0.0
  0
LINE
  8
DETAIL
  6
CONTINUOUS
 62
     5
 10
-8.853202021780362
 20
-136.37189355988491
 30
0.0
 11
-8.853202021780362
 21
-136.37189355988491
 31
0.0
  0
LINE
  8
DETAIL
  6
CONTINUOUS
 62
     5
 10
-8.853202021780362
 20
-136.37189355988491
 30
0.0
 11
-8.8571175402083782
 21
-136.369237607099
 31
0.0
  0
LINE
  8
DETAIL
  6
CONTINUOUS
 62
     5
 10
-8.8571175402083782
 20
-136.369237607099
 30
0.0
 11
-8.8610117458160857
 21
-136.3665879237542
 31
0.0
  0
LINE
  8
DETAIL
  6
CONTINUOUS
 62
     5
 10
-8.8610117458160857
 20
-136.3665879237542
 30
0.0
 11
-8.8610117458160857
 21
-136.3665879237542
 31
0.0
  0
LINE
  8
DETAIL
  6
CONTINUOUS
 62
     5
 10
-8.8610117458160857
 20
-136.3665879237542
 30
0.0
 11
-8.8648802792713468
 21
-136.36394591457929
 31
0.0
  0
LINE
  8
DETAIL
  6
CONTINUOUS
 62
     5
 10
-8.8648802792713468
 20
-136.36394591457929
 30
0.0
 11
-8.868803174589857
 21
-136.36125457405609
 31
0.0
  0
LINE
  8
DETAIL
  6
CONTINUOUS
 62
     5
 10
-8.868803174589857
 20
-136.36125457405609
 30
0.0
 11
-8.868803174589857
 21
-136.36125457405609
 31
0.0
  0
LINE
  8
DETAIL
  6
CONTINUOUS
 62
     5
 10
-8.868803174589857
 20
-136.36125457405609
 30
0.0
 11
-8.8728480232375659
 21
-136.35846670808269
 31
0.0
  0
LINE
  8
DETAIL
  6
CONTINUOUS
 62
     5
 10
-8.8728480232375659
 20
-136.35846670808269
 30
0.0
 11
-8.8769482531323547
 21
-136.3556327784772
 31
0.0
  0
LINE
  8
DETAIL
  6
CONTINUOUS
 62
     5
 10
-8.8769482531323547
 20
-136.3556327784772
 30
0.0
 11
-8.8769482531323547
 21
-136.3556327784772
 31
0.0
  0
LINE
  8
DETAIL
  6
CONTINUOUS
 62
     5
 10
-8.8769482531323547
 20
-136.3556327784772
 30
0.0
 11
-8.8810257439213274
 21
-136.3528126419983
 31
0.0
  0
LINE
  8
DETAIL
  6
CONTINUOUS
 62
     5
 10
-8.8810257439213274
 20
-136.3528126419983
 30
0.0
 11
-8.885090345733488
 21
-136.35000607924579
 31
0.0
  0
LINE
  8
DETAIL
  6
CONTINUOUS
 62
     5
 10
-8.885090345733488
 20
-136.35000607924579
 30
0.0
 11
-8.885090345733488
 21
-136.35000607924579
 31
0.0
  0
LINE
  8
DETAIL
  6
CONTINUOUS
 62
     5
 10
-8.885090345733488
 20
-136.35000607924579
 30
0.0
 11
-8.8891669772101523
 21
-136.34720252676519
 31
0.0
  0
LINE
  8
DETAIL
  6
CONTINUOUS
 62
     5
 10
-8.8891669772101523
 20
-136.34720252676519
 30
0.0
 11
-8.8932528605801053
 21
-136.3444101210448
 31
0.0
  0
LINE
  8
DETAIL
  6
CONTINUOUS
 62
     5
 10
-8.8932528605801053
 20
-136.3444101210448
 30
0.0
 11
-8.8932528605801053
 21
-136.3444101210448
 31
0.0
  0
LINE
  8
DETAIL
  6
CONTINUOUS
 62
     5
 10
-8.8932528605801053
 20
-136.3444101210448
 30
0.0
 11
-8.8973439977630733
 21
-136.3416379926548
 31
0.0
  0
LINE
  8
DETAIL
  6
CONTINUOUS
 62
     5
 10
-8.8973439977630733
 20
-136.3416379926548
 30
0.0
 11
-8.9014592058606468
 21
-136.3388805485574
 31
0.0
  0
LINE
  8
DETAIL
  6
CONTINUOUS
 62
     5
 10
-8.9014592058606468
 20
-136.3388805485574
 30
0.0
 11
-8.9014592058606468
 21
-136.3388805485574
 31
0.0
  0
LINE
  8
DETAIL
  6
CONTINUOUS
 62
     5
 10
-8.9014592058606468
 20
-136.3388805485574
 30
0.0
 11
-8.9056071146915201
 21
-136.33613856343479
 31
0.0
  0
LINE
  8
DETAIL
  6
CONTINUOUS
 62
     5
 10
-8.9056071146915201
 20
-136.33613856343479
 30
0.0
 11
-8.9097327897592322
 21
-136.33345300646579
 31
0.0
  0
LINE
  8
DETAIL
  6
CONTINUOUS
 62
     5
 10
-8.9097327897592322
 20
-136.33345300646579
 30
0.0
 11
-8.9097327897592322
 21
-136.33345300646579
 31
0.0
  0
LINE
  8
DETAIL
  6
CONTINUOUS
 62
     5
 10
-8.9097327897592322
 20
-136.33345300646579
 30
0.0
 11
-8.9137883659770978
 21
-136.33085705104119
 31
0.0
  0
LINE
  8
DETAIL
  6
CONTINUOUS
 62
     5
 10
-8.9137883659770978
 20
-136.33085705104119
 30
0.0
 11
-8.9178178202193976
 21
-136.32831249291209
 31
0.0
  0
LINE
  8
DETAIL
  6
CONTINUOUS
 62
     5
 10
-8.9178178202193976
 20
-136.32831249291209
 30
0.0
 11
-8.9178178202193976
 21
-136.32831249291209
 31
0.0
  0
LINE
  8
DETAIL
  6
CONTINUOUS
 62
     5
 10
-8.9178178202193976
 20
-136.32831249291209
 30
0.0
 11
-8.921872693600335
 21
-136.32577322977431
 31
0.0
  0
LINE
  8
DETAIL
  6
CONTINUOUS
 62
     5
 10
-8.921872693600335
 20
-136.32577322977431
 30
0.0
 11
-8.9259429422526182
 21
-136.32323294475509
 31
0.0
  0
LINE
  8
DETAIL
  6
CONTINUOUS
 62
     5
 10
-8.9259429422526182
 20
-136.32323294475509
 30
0.0
 11
-8.9259429422526182
 21
-136.32323294475509
 31
0.0
  0
LINE
  8
DETAIL
  6
CONTINUOUS
 62
     5
 10
-8.9259429422526182
 20
-136.32323294475509
 30
0.0
 11
-8.9300075611886314
 21
-136.32069307486239
 31
0.0
  0
LINE
  8
DETAIL
  6
CONTINUOUS
 62
     5
 10
-8.9300075611886314
 20
-136.32069307486239
 30
0.0
 11
-8.9340632859365314
 21
-136.3181462872017
 31
0.0
  0
LINE
  8
DETAIL
  6
CONTINUOUS
 62
     5
 10
-8.9340632859365314
 20
-136.3181462872017
 30
0.0
 11
-8.9340632859365314
 21
-136.3181462872017
 31
0.0
  0
LINE
  8
DETAIL
  6
CONTINUOUS
 62
     5
 10
-8.9340632859365314
 20
-136.3181462872017
 30
0.0
 11
-8.9381089428841278
 21
-136.31558187994821
 31
0.0
  0
LINE
  8
DETAIL
  6
CONTINUOUS
 62
     5
 10
-8.9381089428841278
 20
-136.31558187994821
 30
0.0
 11
-8.9421339813452505
 21
-136.3129844454584
 31
0.0
  0
LINE
  8
DETAIL
  6
CONTINUOUS
 62
     5
 10
-8.9421339813452505
 20
-136.3129844454584
 30
0.0
 11
-8.9421339813452505
 21
-136.3129844454584
 31
0.0
  0
LINE
  8
DETAIL
  6
CONTINUOUS
 62
     5
 10
-8.9421339813452505
 20
-136.3129844454584
 30
0.0
 11
-8.9461304483112372
 21
-136.31034429792911
 31
0.0
  0
LINE
  8
DETAIL
  6
CONTINUOUS
 62
     5
 10
-8.9461304483112372
 20
-136.31034429792911
 30
0.0
 11
-8.9501101585564129
 21
-136.30767934473309
 31
0.0
  0
LINE
  8
DETAIL
  6
CONTINUOUS
 62
     5
 10
-0.3892746118879131
 20
-135.193437875505
 30
0.0
 11
-0.3894932496858701
 21
-135.19389219747109
 31
0.0
  0
LINE
  8
DETAIL
  6
CONTINUOUS
 62
     5
 10
-0.3894932496858701
 20
-135.19389219747109
 30
0.0
 11
-0.3897278367048784
 21
-135.19432523259729
 31
0.0
  0
LINE
  8
DETAIL
  6
CONTINUOUS
 62
     5
 10
-0.3897278367048784
 20
-135.19432523259729
 30
0.0
 11
-0.3897278367048784
 21
-135.19432523259729
 31
0.0
  0
LINE
  8
DETAIL
  6
CONTINUOUS
 62
     5
 10
-0.3897278367048784
 20
-135.19432523259729
 30
0.0
 11
-0.3899913466854059
 21
-135.1947195543448
 31
0.0
  0
LINE
  8
DETAIL
  6
CONTINUOUS
 62
     5
 10
-0.3899913466854059
 20
-135.1947195543448
 30
0.0
 11
-0.3902848514577499
 21
-135.19507317737501
 31
0.0
  0
LINE
  8
DETAIL
  6
CONTINUOUS
 62
     5
 10
-0.3902848514577499
 20
-135.19507317737501
 30
0.0
 11
-0.3902848514577499
 21
-135.19507317737501
 31
0.0
  0
LINE
  8
DETAIL
  6
CONTINUOUS
 62
     5
 10
-0.3902848514577499
 20
-135.19507317737501
 30
0.0
 11
-0.390606903559501
 21
-135.1953874343717
 31
0.0
  0
LINE
  8
DETAIL
  6
CONTINUOUS
 62
     5
 10
-0.390606903559501
 20
-135.1953874343717
 30
0.0
 11
-0.3909578802680471
 21
-135.19566148891141
 31
0.0
  0
LINE
  8
DETAIL
  6
CONTINUOUS
 62
     5
 10
-0.3909578802680471
 20
-135.19566148891141
 30
0.0
 11
-0.3909578802680471
 21
-135.19566148891141
 31
0.0
  0
LINE
  8
DETAIL
  6
CONTINUOUS
 62
     5
 10
-0.3909578802680471
 20
-135.19566148891141
 30
0.0
 11
-0.391339765782277
 21
-135.1958922711033
 31
0.0
  0
LINE
  8
DETAIL
  6
CONTINUOUS
 62
     5
 10
-0.391339765782277
 20
-135.1958922711033
 30
0.0
 11
-0.3917591472531967
 21
-135.19606994628111
 31
0.0
  0
LINE
  8
DETAIL
  6
CONTINUOUS
 62
     5
 10
-0.3917591472531967
 20
-135.19606994628111
 30
0.0
 11
-0.3917591472531967
 21
-135.19606994628111
 31
0.0
  0
LINE
  8
DETAIL
  6
CONTINUOUS
 62
     5
 10
-0.3917591472531967
 20
-135.19606994628111
 30
0.0
 11
-0.3922187034337412
 21
-135.19619029563731
 31
0.0
  0
LINE
  8
DETAIL
  6
CONTINUOUS
 62
     5
 10
-0.3922187034337412
 20
-135.19619029563731
 30
0.0
 11
-0.3927008765354003
 21
-135.1962783285571
 31
0.0
  0
LINE
  8
DETAIL
  6
CONTINUOUS
 62
     5
 10
-0.4097984621374735
 20
-134.86401021915981
 30
0.0
 11
-0.4089472545313129
 21
-134.87272478039361
 31
0.0
  0
LINE
  8
DETAIL
  6
CONTINUOUS
 62
     5
 10
-0.4089472545313129
 20
-134.87272478039361
 30
0.0
 11
-0.4081001906455413
 21
-134.88143715990509
 31
0.0
  0
LINE
  8
DETAIL
  6
CONTINUOUS
 62
     5
 10
-0.4081001906455413
 20
-134.88143715990509
 30
0.0
 11
-0.4081001906455413
 21
-134.88143715990509
 31
0.0
  0
LINE
  8
DETAIL
  6
CONTINUOUS
 62
     5
 10
-0.4081001906455413
 20
-134.88143715990509
 30
0.0
 11
-0.4072604418362289
 21
-134.89014699202829
 31
0.0
  0
LINE
  8
DETAIL
  6
CONTINUOUS
 62
     5
 10
-0.4072604418362289
 20
-134.89014699202829
 30
0.0
 11
-0.4064272900131982
 21
-134.89886117532839
 31
0.0
  0
LINE
  8
DETAIL
  6
CONTINUOUS
 62
     5
 10
-0.4064272900131982
 20
-134.89886117532839
 30
0.0
 11
-0.4064272900131982
 21
-134.89886117532839
 31
0.0
  0
LINE
  8
DETAIL
  6
CONTINUOUS
 62
     5
 10
-0.4064272900131982
 20
-134.89886117532839
 30
0.0
 11
-0.4055997896464305
 21
-134.90758253506871
 31
0.0
  0
LINE
  8
DETAIL
  6
CONTINUOUS
 62
     5
 10
-0.4055997896464305
 20
-134.90758253506871
 30
0.0
 11
-0.4047799748991565
 21
-134.91629033907159
 31
0.0
  0
LINE
  8
DETAIL
  6
CONTINUOUS
 62
     5
 10
-0.4047799748991565
 20
-134.91629033907159
 30
0.0
 11
-0.4047799748991565
 21
-134.91629033907159
 31
0.0
  0
LINE
  8
DETAIL
  6
CONTINUOUS
 62
     5
 10
-0.4047799748991565
 20
-134.91629033907159
 30
0.0
 11
-0.4039686175281076
 21
-134.92497970718159
 31
0.0
  0
LINE
  8
DETAIL
  6
CONTINUOUS
 62
     5
 10
-0.4039686175281076
 20
-134.92497970718159
 30
0.0
 11
-0.4031584599595135
 21
-134.9337327247772
 31
0.0
  0
LINE
  8
DETAIL
  6
CONTINUOUS
 62
     5
 10
-0.4031584599595135
 20
-134.9337327247772
 30
0.0
 11
-0.4031584599595135
 21
-134.9337327247772
 31
0.0
  0
LINE
  8
DETAIL
  6
CONTINUOUS
 62
     5
 10
-0.4031584599595135
 20
-134.9337327247772
 30
0.0
 11
-0.4023475216948782
 21
-134.94257214244641
 31
0.0
  0
LINE
  8
DETAIL
  6
CONTINUOUS
 62
     5
 10
-0.4023475216948782
 20
-134.94257214244641
 30
0.0
 11
-0.4015629598517307
 21
-134.95119640608851
 31
0.0
  0
LINE
  8
DETAIL
  6
CONTINUOUS
 62
     5
 10
-0.4015629598517307
 20
-134.95119640608851
 30
0.0
 11
-0.4015629598517307
 21
-134.95119640608851
 31
0.0
  0
LINE
  8
DETAIL
  6
CONTINUOUS
 62
     5
 10
-0.4015629598517307
 20
-134.95119640608851
 30
0.0
 11
-0.4008277893253762
 21
-134.95934963517581
 31
0.0
  0
LINE
  8
DETAIL
  6
CONTINUOUS
 62
     5
 10
-0.4008277893253762
 20
-134.95934963517581
 30
0.0
 11
-0.4001193185137026
 21
-134.96728294817379
 31
0.0
  0
LINE
  8
DETAIL
  6
CONTINUOUS
 62
     5
 10
-0.4001193185137026
 20
-134.96728294817379
 30
0.0
 11
-0.4001193185137026
 21
-134.96728294817379
 31
0.0
  0
LINE
  8
DETAIL
  6
CONTINUOUS
 62
     5
 10
-0.4001193185137026
 20
-134.96728294817379
 30
0.0
 11
-0.3994106407484423
 21
-134.9752957583369
 31
0.0
  0
LINE
  8
DETAIL
  6
CONTINUOUS
 62
     5
 10
-0.3994106407484423
 20
-134.9752957583369
 30
0.0
 11
-0.398703695598897
 21
-134.9833736590958
 31
0.0
  0
LINE
  8
DETAIL
  6
CONTINUOUS
 62
     5
 10
-0.398703695598897
 20
-134.9833736590958
 30
0.0
 11
-0.398703695598897
 21
-134.9833736590958
 31
0.0
  0
LINE
  8
DETAIL
  6
CONTINUOUS
 62
     5
 10
-0.398703695598897
 20
-134.9833736590958
 30
0.0
 11
-0.3980064222960209
 21
-134.991435609832
 31
0.0
  0
LINE
  8
DETAIL
  6
CONTINUOUS
 62
     5
 10
-0.3980064222960209
 20
-134.991435609832
 30
0.0
 11
-0.3973219124693514
 21
-134.9994478535655
 31
0.0
  0
LINE
  8
DETAIL
  6
CONTINUOUS
 62
     5
 10
-0.3973219124693514
 20
-134.9994478535655
 30
0.0
 11
-0.3973219124693514
 21
-134.9994478535655
 31
0.0
  0
LINE
  8
DETAIL
  6
CONTINUOUS
 62
     5
 10
-0.3973219124693514
 20
-134.9994478535655
 30
0.0
 11
-0.3966496818908354
 21
-135.0074196255446
 31
0.0
  0
LINE
  8
DETAIL
  6
CONTINUOUS
 62
     5
 10
-0.3966496818908354
 20
-135.0074196255446
 30
0.0
 11
-0.3959797904897187
 21
-135.0154848462962
 31
0.0
  0
LINE
  8
DETAIL
  6
CONTINUOUS
 62
     5
 10
-0.3959797904897187
 20
-135.0154848462962
 30
0.0
 11
-0.3959797904897187
 21
-135.0154848462962
 31
0.0
  0
LINE
  8
DETAIL
  6
CONTINUOUS
 62
     5
 10
-0.3959797904897187
 20
-135.0154848462962
 30
0.0
 11
-0.3953106019778261
 21
-135.02367210147759
 31
0.0
  0
LINE
  8
DETAIL
  6
CONTINUOUS
 62
     5
 10
-0.3953106019778261
 20
-135.02367210147759
 30
0.0
 11
-0.3946831510230595
 21
-135.03146395199931
 31
0.0
  0
LINE
  8
DETAIL
  6
CONTINUOUS
 62
     5
 10
-0.3946831510230595
 20
-135.03146395199931
 30
0.0
 11
-0.3946831510230595
 21
-135.03146395199931
 31
0.0
  0
LINE
  8
DETAIL
  6
CONTINUOUS
 62
     5
 10
-0.3946831510230595
 20
-135.03146395199931
 30
0.0
 11
-0.3941316629545781
 21
-135.03842549039931
 31
0.0
  0
LINE
  8
DETAIL
  6
CONTINUOUS
 62
     5
 10
-0.3941316629545781
 20
-135.03842549039931
 30
0.0
 11
-0.3936204547848092
 21
-135.04499796046369
 31
0.0
  0
LINE
  8
DETAIL
  6
CONTINUOUS
 62
     5
 10
-0.3936204547848092
 20
-135.04499796046369
 30
0.0
 11
-0.3936204547848092
 21
-135.04499796046369
 31
0.0
  0
LINE
  8
DETAIL
  6
CONTINUOUS
 62
     5
 10
-0.3936204547848092
 20
-135.04499796046369
 30
0.0
 11
-0.3931074269895589
 21
-135.05170643816791
 31
0.0
  0
LINE
  8
DETAIL
  6
CONTINUOUS
 62
     5
 10
-0.3931074269895589
 20
-135.05170643816791
 30
0.0
 11
-0.392594722197714
 21
-135.05853517697781
 31
0.0
  0
LINE
  8
DETAIL
  6
CONTINUOUS
 62
     5
 10
-0.392594722197714
 20
-135.05853517697781
 30
0.0
 11
-0.392594722197714
 21
-135.05853517697781
 31
0.0
  0
LINE
  8
DETAIL
  6
CONTINUOUS
 62
     5
 10
-0.392594722197714
 20
-135.05853517697781
 30
0.0
 11
-0.3920933875971286
 21
-135.06535646898561
 31
0.0
  0
LINE
  8
DETAIL
  6
CONTINUOUS
 62
     5
 10
-0.3920933875971286
 20
-135.06535646898561
 30
0.0
 11
-0.3916058464592425
 21
-135.07213558329431
 31
0.0
  0
LINE
  8
DETAIL
  6
CONTINUOUS
 62
     5
 10
-0.3916058464592425
 20
-135.07213558329431
 30
0.0
 11
-0.3916058464592425
 21
-135.07213558329431
 31
0.0
  0
LINE
  8
DETAIL
  6
CONTINUOUS
 62
     5
 10
-0.3916058464592425
 20
-135.07213558329431
 30
0.0
 11
-0.3911299294543369
 21
-135.07890326187729
 31
0.0
  0
LINE
  8
DETAIL
  6
CONTINUOUS
 62
     5
 10
-0.3911299294543369
 20
-135.07890326187729
 30
0.0
 11
-0.3906537207705014
 21
-135.08585916116729
 31
0.0
  0
LINE
  8
DETAIL
  6
CONTINUOUS
 62
     5
 10
-0.3906537207705014
 20
-135.08585916116729
 30
0.0
 11
-0.3906537207705014
 21
-135.08585916116729
 31
0.0
  0
LINE
  8
DETAIL
  6
CONTINUOUS
 62
     5
 10
-0.3906537207705014
 20
-135.08585916116729
 30
0.0
 11
-0.3901747704373975
 21
-135.09305300749929
 31
0.0
  0
LINE
  8
DETAIL
  6
CONTINUOUS
 62
     5
 10
-0.3901747704373975
 20
-135.09305300749929
 30
0.0
 11
-0.3897382383325976
 21
-135.0997658923493
 31
0.0
  0
LINE
  8
DETAIL
  6
CONTINUOUS
 62
     5
 10
-0.3897382383325976
 20
-135.0997658923493
 30
0.0
 11
-0.3897382383325976
 21
-135.0997658923493
 31
0.0
  0
LINE
  8
DETAIL
  6
CONTINUOUS
 62
     5
 10
-0.3897382383325976
 20
-135.0997658923493
 30
0.0
 11
-0.3893824400479389
 21
-135.10538576503589
 31
0.0
  0
LINE
  8
DETAIL
  6
CONTINUOUS
 62
     5
 10
-0.3893824400479389
 20
-135.10538576503589
 30
0.0
 11
-0.3890707042075974
 21
-135.1104966411126
 31
0.0
  0
LINE
  8
DETAIL
  6
CONTINUOUS
 62
     5
 10
-0.3890707042075974
 20
-135.1104966411126
 30
0.0
 11
-0.3890707042075974
 21
-135.1104966411126
 31
0.0
  0
LINE
  8
DETAIL
  6
CONTINUOUS
 62
     5
 10
-0.3890707042075974
 20
-135.1104966411126
 30
0.0
 11
-0.3887602055436901
 21
-135.11579388736479
 31
0.0
  0
LINE
  8
DETAIL
  6
CONTINUOUS
 62
     5
 10
-0.3887602055436901
 20
-135.11579388736479
 30
0.0
 11
-0.388458490196399
 21
-135.1212222092731
 31
0.0
  0
LINE
  8
DETAIL
  6
CONTINUOUS
 62
     5
 10
-0.388458490196399
 20
-135.1212222092731
 30
0.0
 11
-0.388458490196399
 21
-135.1212222092731
 31
0.0
  0
LINE
  8
DETAIL
  6
CONTINUOUS
 62
     5
 10
-0.388458490196399
 20
-135.1212222092731
 30
0.0
 11
-0.3881824129147162
 21
-135.12657563852829
 31
0.0
  0
LINE
  8
DETAIL
  6
CONTINUOUS
 62
     5
 10
-0.3881824129147162
 20
-135.12657563852829
 30
0.0
 11
-0.3879356914702612
 21
-135.1317961729724
 31
0.0
  0
LINE
  8
DETAIL
  6
CONTINUOUS
 62
     5
 10
-0.3879356914702612
 20
-135.1317961729724
 30
0.0
 11
-0.3879356914702612
 21
-135.1317961729724
 31
0.0
  0
LINE
  8
DETAIL
  6
CONTINUOUS
 62
     5
 10
-0.3879356914702612
 20
-135.1317961729724
 30
0.0
 11
-0.3877193035132223
 21
-135.1369025011613
 31
0.0
  0
LINE
  8
DETAIL
  6
CONTINUOUS
 62
     5
 10
-0.3877193035132223
 20
-135.1369025011613
 30
0.0
 11
-0.3875364032012385
 21
-135.14207210835181
 31
0.0
  0
LINE
  8
DETAIL
  6
CONTINUOUS
 62
     5
 10
-0.3875364032012385
 20
-135.14207210835181
 30
0.0
 11
-0.3875364032012385
 21
-135.14207210835181
 31
0.0
  0
LINE
  8
DETAIL
  6
CONTINUOUS
 62
     5
 10
-0.3875364032012385
 20
-135.14207210835181
 30
0.0
 11
-0.3873917965544251
 21
-135.14732639073509
 31
0.0
  0
LINE
  8
DETAIL
  6
CONTINUOUS
 62
     5
 10
-0.3873917965544251
 20
-135.14732639073509
 30
0.0
 11
-0.3872947205611581
 21
-135.1519035915521
 31
0.0
  0
LINE
  8
DETAIL
  6
CONTINUOUS
 62
     5
 10
-0.3872947205611581
 20
-135.1519035915521
 30
0.0
 11
-0.3872947205611581
 21
-135.1519035915521
 31
0.0
  0
LINE
  8
DETAIL
  6
CONTINUOUS
 62
     5
 10
-0.3872947205611581
 20
-135.1519035915521
 30
0.0
 11
-0.3872498220845273
 21
-135.1551768246718
 31
0.0
  0
LINE
  8
DETAIL
  6
CONTINUOUS
 62
     5
 10
-0.3872498220845273
 20
-135.1551768246718
 30
0.0
 11
-0.3872389565286767
 21
-135.1578418394329
 31
0.0
  0
LINE
  8
DETAIL
  6
CONTINUOUS
 62
     5
 10
-0.3872389565286767
 20
-135.1578418394329
 30
0.0
 11
-0.3872389565286767
 21
-135.1578418394329
 31
0.0
  0
LINE
  8
DETAIL
  6
CONTINUOUS
 62
     5
 10
-0.3872389565286767
 20
-135.1578418394329
 30
0.0
 11
-0.3872438572049077
 21
-135.1607208016039
 31
0.0
  0
LINE
  8
DETAIL
  6
CONTINUOUS
 62
     5
 10
-0.3872438572049077
 20
-135.1607208016039
 30
0.0
 11
-0.3872685605281276
 21
-135.16381890720501
 31
0.0
  0
LINE
  8
DETAIL
  6
CONTINUOUS
 62
     5
 10
-0.3872685605281276
 20
-135.16381890720501
 30
0.0
 11
-0.3872685605281276
 21
-135.16381890720501
 31
0.0
  0
LINE
  8
DETAIL
  6
CONTINUOUS
 62
     5
 10
-0.3872685605281276
 20
-135.16381890720501
 30
0.0
 11
-0.3873198450498876
 21
-135.16696595003711
 31
0.0
  0
LINE
  8
DETAIL
  6
CONTINUOUS
 62
     5
 10
-0.3873198450498876
 20
-135.16696595003711
 30
0.0
 11
-0.3873931547791472
 21
-135.17010708476619
 31
0.0
  0
LINE
  8
DETAIL
  6
CONTINUOUS
 62
     5
 10
-0.3873931547791472
 20
-135.17010708476619
 30
0.0
 11
-0.3873931547791472
 21
-135.17010708476619
 31
0.0
  0
LINE
  8
DETAIL
  6
CONTINUOUS
 62
     5
 10
-0.3873931547791472
 20
-135.17010708476619
 30
0.0
 11
-0.3874868588567324
 21
-135.1733051878459
 31
0.0
  0
LINE
  8
DETAIL
  6
CONTINUOUS
 62
     5
 10
-0.3874868588567324
 20
-135.1733051878459
 30
0.0
 11
-0.387622361497165
 21
-135.17697866201391
 31
0.0
  0
LINE
  8
DETAIL
  6
CONTINUOUS
 62
     5
 10
-0.387622361497165
 20
-135.17697866201391
 30
0.0
 11
-0.387622361497165
 21
-135.17697866201391
 31
0.0
  0
LINE
  8
DETAIL
  6
CONTINUOUS
 62
     5
 10
-0.387622361497165
 20
-135.17697866201391
 30
0.0
 11
-0.3878066242460818
 21
-135.18125042507651
 31
0.0
  0
LINE
  8
DETAIL
  6
CONTINUOUS
 62
     5
 10
-0.3878066242460818
 20
-135.18125042507651
 30
0.0
 11
-0.3879658029009079
 21
-135.18470592884711
 31
0.0
  0
LINE
  8
DETAIL
  6
CONTINUOUS
 62
     5
 10
-0.3879658029009079
 20
-135.18470592884711
 30
0.0
 11
-0.3879658029009079
 21
-135.18470592884711
 31
0.0
  0
LINE
  8
DETAIL
  6
CONTINUOUS
 62
     5
 10
-0.3879658029009079
 20
-135.18470592884711
 30
0.0
 11
-0.3880350356195095
 21
-135.18612266013821
 31
0.0
  0
LINE
  8
DETAIL
  6
CONTINUOUS
 62
     5
 10
-0.3880350356195095
 20
-135.18612266013821
 30
0.0
 11
-0.3880661957472284
 21
-135.18658371177159
 31
0.0
  0
LINE
  8
DETAIL
  6
CONTINUOUS
 62
     5
 10
-0.3880661957472284
 20
-135.18658371177159
 30
0.0
 11
-0.3880661957472284
 21
-135.18658371177159
 31
0.0
  0
LINE
  8
DETAIL
  6
CONTINUOUS
 62
     5
 10
-0.3880661957472284
 20
-135.18658371177159
 30
0.0
 11
-0.3881242845297947
 21
-135.18739614924061
 31
0.0
  0
LINE
  8
DETAIL
  6
CONTINUOUS
 62
     5
 10
-0.3881242845297947
 20
-135.18739614924061
 30
0.0
 11
-0.3882100796234909
 21
-135.18845732272169
 31
0.0
  0
LINE
  8
DETAIL
  6
CONTINUOUS
 62
     5
 10
-0.3882100796234909
 20
-135.18845732272169
 30
0.0
 11
-0.3882100796234909
 21
-135.18845732272169
 31
0.0
  0
LINE
  8
DETAIL
  6
CONTINUOUS
 62
     5
 10
-0.3882100796234909
 20
-135.18845732272169
 30
0.0
 11
-0.3883121743110678
 21
-135.1894071127831
 31
0.0
  0
LINE
  8
DETAIL
  6
CONTINUOUS
 62
     5
 10
-0.3883121743110678
 20
-135.1894071127831
 30
0.0
 11
-0.388434647974691
 21
-135.19026523687489
 31
0.0
  0
LINE
  8
DETAIL
  6
CONTINUOUS
 62
     5
 10
-0.388434647974691
 20
-135.19026523687489
 30
0.0
 11
-0.388434647974691
 21
-135.19026523687489
 31
0.0
  0
LINE
  8
DETAIL
  6
CONTINUOUS
 62
     5
 10
-0.388434647974691
 20
-135.19026523687489
 30
0.0
 11
-0.3885860213185879
 21
-135.1911189636148
 31
0.0
  0
LINE
  8
DETAIL
  6
CONTINUOUS
 62
     5
 10
-0.3885860213185879
 20
-135.1911189636148
 30
0.0
 11
-0.3887770942486668
 21
-135.19194592940991
 31
0.0
  0
LINE
  8
DETAIL
  6
CONTINUOUS
 62
     5
 10
-0.3887770942486668
 20
-135.19194592940991
 30
0.0
 11
-0.3887770942486668
 21
-135.19194592940991
 31
0.0
  0
LINE
  8
DETAIL
  6
CONTINUOUS
 62
     5
 10
-0.3887770942486668
 20
-135.19194592940991
 30
0.0
 11
-0.3890130857450913
 21
-135.19271103560499
 31
0.0
  0
LINE
  8
DETAIL
  6
CONTINUOUS
 62
     5
 10
-0.3890130857450913
 20
-135.19271103560499
 30
0.0
 11
-0.3892746118879131
 21
-135.193437875505
 31
0.0
  0
LINE
  8
DETAIL
  6
CONTINUOUS
 62
     5
 10
-0.4444941146889505
 20
-143.64462888952809
 30
0.0
 11
-0.4432023085762467
 21
-143.64459602753001
 31
0.0
  0
LINE
  8
DETAIL
  6
CONTINUOUS
 62
     5
 10
-0.4432023085762467
 20
-143.64459602753001
 30
0.0
 11
-0.4419314471260805
 21
-143.6444304109132
 31
0.0
  0
LINE
  8
DETAIL
  6
CONTINUOUS
 62
     5
 10
-0.4419314471260805
 20
-143.6444304109132
 30
0.0
 11
-0.4419314471260805
 21
-143.6444304109132
 31
0.0
  0
LINE
  8
DETAIL
  6
CONTINUOUS
 62
     5
 10
-0.4419314471260805
 20
-143.6444304109132
 30
0.0
 11
-0.4406989894671369
 21
-143.64403291977851
 31
0.0
  0
LINE
  8
DETAIL
  6
CONTINUOUS
 62
     5
 10
-0.4406989894671369
 20
-143.64403291977851
 30
0.0
 11
-0.4395084525990569
 21
-143.6434389731121
 31
0.0
  0
LINE
  8
DETAIL
  6
CONTINUOUS
 62
     5
 10
-0.4395084525990569
 20
-143.6434389731121
 30
0.0
 11
-0.4395084525990569
 21
-143.6434389731121
 31
0.0
  0
LINE
  8
DETAIL
  6
CONTINUOUS
 62
     5
 10
-0.4395084525990569
 20
-143.6434389731121
 30
0.0
 11
-0.4383592249463391
 21
-143.64270638678681
 31
0.0
  0
LINE
  8
DETAIL
  6
CONTINUOUS
 62
     5
 10
-0.4383592249463391
 20
-143.64270638678681
 30
0.0
 11
-0.4372481227704839
 21
-143.64184802534649
 31
0.0
  0
LINE
  8
DETAIL
  6
CONTINUOUS
 62
     5
 10
-0.4372481227704839
 20
-143.64184802534649
 30
0.0
 11
-0.4372481227704839
 21
-143.64184802534649
 31
0.0
  0
LINE
  8
DETAIL
  6
CONTINUOUS
 62
     5
 10
-0.4372481227704839
 20
-143.64184802534649
 30
0.0
 11
-0.4361773769874162
 21
-143.64087683210889
 31
0.0
  0
LINE
  8
DETAIL
  6
CONTINUOUS
 62
     5
 10
-0.4361773769874162
 20
-143.64087683210889
 30
0.0
 11
-0.4351734493000095
 21
-143.63985101683471
 31
0.0
  0
LINE
  8
DETAIL
  6
CONTINUOUS
 62
     5
 10
-0.4351734493000095
 20
-143.63985101683471
 30
0.0
 11
-0.4351734493000095
 21
-143.63985101683471
 31
0.0
  0
LINE
  8
DETAIL
  6
CONTINUOUS
 62
     5
 10
-0.4351734493000095
 20
-143.63985101683471
 30
0.0
 11
-0.4342452713638068
 21
-143.63880607728521
 31
0.0
  0
LINE
  8
DETAIL
  6
CONTINUOUS
 62
     5
 10
-0.4342452713638068
 20
-143.63880607728521
 30
0.0
 11
-0.4333074238505787
 21
-143.63764139679819
 31
0.0
  0
LINE
  8
DETAIL
  6
CONTINUOUS
 62
     5
 10
-0.4333074238505787
 20
-143.63764139679819
 30
0.0
 11
-0.4333074238505787
 21
-143.63764139679819
 31
0.0
  0
LINE
  8
DETAIL
  6
CONTINUOUS
 62
     5
 10
-0.4333074238505787
 20
-143.63764139679819
 30
0.0
 11
-0.4322898033260572
 21
-143.6362706834752
 31
0.0
  0
LINE
  8
DETAIL
  6
CONTINUOUS
 62
     5
 10
-0.4322898033260572
 20
-143.6362706834752
 30
0.0
 11
-0.4312779208981965
 21
-143.63480105890449
 31
0.0
  0
LINE
  8
DETAIL
  6
CONTINUOUS
 62
     5
 10
-0.4312779208981965
 20
-143.63480105890449
 30
0.0
 11
-0.4312779208981965
 21
-143.63480105890449
 31
0.0
  0
LINE
  8
DETAIL
  6
CONTINUOUS
 62
     5
 10
-0.4312779208981965
 20
-143.63480105890449
 30
0.0
 11
-0.4303683118264416
 21
-143.63335551854701
 31
0.0
  0
LINE
  8
DETAIL
  6
CONTINUOUS
 62
     5
 10
-0.4303683118264416
 20
-143.63335551854701
 30
0.0
 11
-0.429545993416582
 21
-143.6319271398834
 31
0.0
  0
LINE
  8
DETAIL
  6
CONTINUOUS
 62
     5
 10
-0.429545993416582
 20
-143.6319271398834
 30
0.0
 11
-0.429545993416582
 21
-143.6319271398834
 31
0.0
  0
LINE
  8
DETAIL
  6
CONTINUOUS
 62
     5
 10
-0.429545993416582
 20
-143.6319271398834
 30
0.0
 11
-0.428774706530703
 21
-143.63048301608299
 31
0.0
  0
LINE
  8
DETAIL
  6
CONTINUOUS
 62
     5
 10
-0.428774706530703
 20
-143.63048301608299
 30
0.0
 11
-0.4280446041881305
 21
-143.62901622105349
 31
0.0
  0
LINE
  8
DETAIL
  6
CONTINUOUS
 62
     5
 10
-0.4280446041881305
 20
-143.62901622105349
 30
0.0
 11
-0.4280446041881305
 21
-143.62901622105349
 31
0.0
  0
LINE
  8
DETAIL
  6
CONTINUOUS
 62
     5
 10
-0.4280446041881305
 20
-143.62901622105349
 30
0.0
 11
-0.4273539097764569
 21
-143.62753282264569
 31
0.0
  0
LINE
  8
DETAIL
  6
CONTINUOUS
 62
     5
 10
-0.4273539097764569
 20
-143.62753282264569
 30
0.0
 11
-0.426706715990349
 21
-143.62606488373379
 31
0.0
  0
LINE
  8
DETAIL
  6
CONTINUOUS
 62
     5
 10
-0.426706715990349
 20
-143.62606488373379
 30
0.0
 11
-0.426706715990349
 21
-143.62606488373379
 31
0.0
  0
LINE
  8
DETAIL
  6
CONTINUOUS
 62
     5
 10
-0.426706715990349
 20
-143.62606488373379
 30
0.0
 11
-0.4260961105030674
 21
-143.62461847574011
 31
0.0
  0
LINE
  8
DETAIL
  6
CONTINUOUS
 62
     5
 10
-0.4260961105030674
 20
-143.62461847574011
 30
0.0
 11
-0.425465291605974
 21
-143.62306970924331
 31
0.0
  0
LINE
  8
DETAIL
  6
CONTINUOUS
 62
     5
 10
-0.425465291605974
 20
-143.62306970924331
 30
0.0
 11
-0.425465291605974
 21
-143.62306970924331
 31
0.0
  0
LINE
  8
DETAIL
  6
CONTINUOUS
 62
     5
 10
-0.425465291605974
 20
-143.62306970924331
 30
0.0
 11
-0.4247671313584078
 21
-143.62131398267499
 31
0.0
  0
LINE
  8
DETAIL
  6
CONTINUOUS
 62
     5
 10
-0.4247671313584078
 20
-143.62131398267499
 30
0.0
 11
-0.4240430862837457
 21
-143.61945380671659
 31
0.0
  0
LINE
  8
DETAIL
  6
CONTINUOUS
 62
     5
 10
-0.4240430862837457
 20
-143.61945380671659
 30
0.0
 11
-0.4240430862837457
 21
-143.61945380671659
 31
0.0
  0
LINE
  8
DETAIL
  6
CONTINUOUS
 62
     5
 10
-0.4240430862837457
 20
-143.61945380671659
 30
0.0
 11
-0.4233435870801259
 21
-143.61761172010119
 31
0.0
  0
LINE
  8
DETAIL
  6
CONTINUOUS
 62
     5
 10
-0.4233435870801259
 20
-143.61761172010119
 30
0.0
 11
-0.4226663766925185
 21
-143.6157832615354
 31
0.0
  0
LINE
  8
DETAIL
  6
CONTINUOUS
 62
     5
 10
-0.4226663766925185
 20
-143.6157832615354
 30
0.0
 11
-0.4226663766925185
 21
-143.6157832615354
 31
0.0
  0
LINE
  8
DETAIL
  6
CONTINUOUS
 62
     5
 10
-0.4226663766925185
 20
-143.6157832615354
 30
0.0
 11
-0.4219987819056996
 21
-143.6139381824278
 31
0.0
  0
LINE
  8
DETAIL
  6
CONTINUOUS
 62
     5
 10
-0.4219987819056996
 20
-143.6139381824278
 30
0.0
 11
-0.4213391526062651
 21
-143.61207008502879
 31
0.0
  0
LINE
  8
DETAIL
  6
CONTINUOUS
 62
     5
 10
-0.4213391526062651
 20
-143.61207008502879
 30
0.0
 11
-0.4213391526062651
 21
-143.61207008502879
 31
0.0
  0
LINE
  8
DETAIL
  6
CONTINUOUS
 62
     5
 10
-0.4213391526062651
 20
-143.61207008502879
 30
0.0
 11
-0.4206907432937896
 21
-143.6101864334664
 31
0.0
  0
LINE
  8
DETAIL
  6
CONTINUOUS
 62
     5
 10
-0.4206907432937896
 20
-143.6101864334664
 30
0.0
 11
-0.4200654037924778
 21
-143.60832628852589
 31
0.0
  0
LINE
  8
DETAIL
  6
CONTINUOUS
 62
     5
 10
-0.4200654037924778
 20
-143.60832628852589
 30
0.0
 11
-0.4200654037924778
 21
-143.60832628852589
 31
0.0
  0
LINE
  8
DETAIL
  6
CONTINUOUS
 62
     5
 10
-0.4200654037924778
 20
-143.60832628852589
 30
0.0
 11
-0.4194657816547078
 21
-143.60649905078799
 31
0.0
  0
LINE
  8
DETAIL
  6
CONTINUOUS
 62
     5
 10
-0.4194657816547078
 20
-143.60649905078799
 30
0.0
 11
-0.4188491200216049
 21
-143.6045638833543
 31
0.0
  0
LINE
  8
DETAIL
  6
CONTINUOUS
 62
     5
 10
-0.4188491200216049
 20
-143.6045638833543
 30
0.0
 11
-0.4188491200216049
 21
-143.6045638833543
 31
0.0
  0
LINE
  8
DETAIL
  6
CONTINUOUS
 62
     5
 10
-0.4188491200216049
 20
-143.6045638833543
 30
0.0
 11
-0.418179937621062
 21
-143.6024024631065
 31
0.0
  0
LINE
  8
DETAIL
  6
CONTINUOUS
 62
     5
 10
-0.418179937621062
 20
-143.6024024631065
 30
0.0
 11
-0.4174972599333842
 21
-143.60013675953039
 31
0.0
  0
LINE
  8
DETAIL
  6
CONTINUOUS
 62
     5
 10
-0.4174972599333842
 20
-143.60013675953039
 30
0.0
 11
-0.4174972599333842
 21
-143.60013675953039
 31
0.0
  0
LINE
  8
DETAIL
  6
CONTINUOUS
 62
     5
 10
-0.4174972599333842
 20
-143.60013675953039
 30
0.0
 11
-0.4168458750990567
 21
-143.5979087243127
 31
0.0
  0
LINE
  8
DETAIL
  6
CONTINUOUS
 62
     5
 10
-0.4168458750990567
 20
-143.5979087243127
 30
0.0
 11
-0.4162191151430079
 21
-143.59569994533689
 31
0.0
  0
LINE
  8
DETAIL
  6
CONTINUOUS
 62
     5
 10
-0.4162191151430079
 20
-143.59569994533689
 30
0.0
 11
-0.4162191151430079
 21
-143.59569994533689
 31
0.0
  0
LINE
  8
DETAIL
  6
CONTINUOUS
 62
     5
 10
-0.4162191151430079
 20
-143.59569994533689
 30
0.0
 11
-0.4156027466015075
 21
-143.59347025656101
 31
0.0
  0
LINE
  8
DETAIL
  6
CONTINUOUS
 62
     5
 10
-0.4156027466015075
 20
-143.59347025656101
 30
0.0
 11
-0.4150037301790235
 21
-143.591252840039
 31
0.0
  0
LINE
  8
DETAIL
  6
CONTINUOUS
 62
     5
 10
-0.4150037301790235
 20
-143.591252840039
 30
0.0
 11
-0.4150037301790235
 21
-143.591252840039
 31
0.0
  0
LINE
  8
DETAIL
  6
CONTINUOUS
 62
     5
 10
-0.4150037301790235
 20
-143.591252840039
 30
0.0
 11
-0.4144259949816842
 21
-143.5890659577035
 31
0.0
  0
LINE
  8
DETAIL
  6
CONTINUOUS
 62
     5
 10
-0.4144259949816842
 20
-143.5890659577035
 30
0.0
 11
-0.4138401495745256
 21
-143.58679484290221
 31
0.0
  0
LINE
  8
DETAIL
  6
CONTINUOUS
 62
     5
 10
-0.4138401495745256
 20
-143.58679484290221
 30
0.0
 11
-0.4138401495745256
 21
-143.58679484290221
 31
0.0
  0
LINE
  8
DETAIL
  6
CONTINUOUS
 62
     5
 10
-0.4138401495745256
 20
-143.58679484290221
 30
0.0
 11
-0.4132364943860694
 21
-143.58440616339661
 31
0.0
  0
LINE
  8
DETAIL
  6
CONTINUOUS
 62
     5
 10
-0.4132364943860694
 20
-143.58440616339661
 30
0.0
 11
-0.4127174178590849
 21
-143.58232535319081
 31
0.0
  0
LINE
  8
DETAIL
  6
CONTINUOUS
 62
     5
 10
-0.4127174178590849
 20
-143.58232535319081
 30
0.0
 11
-0.4127174178590849
 21
-143.58232535319081
 31
0.0
  0
LINE
  8
DETAIL
  6
CONTINUOUS
 62
     5
 10
-0.4127174178590849
 20
-143.58232535319081
 30
0.0
 11
-0.4123691218824206
 21
-143.58091278832529
 31
0.0
  0
LINE
  8
DETAIL
  6
CONTINUOUS
 62
     5
 10
-0.4123691218824206
 20
-143.58091278832529
 30
0.0
 11
-0.4121009741359103
 21
-143.57980984675029
 31
0.0
  0
LINE
  8
DETAIL
  6
CONTINUOUS
 62
     5
 10
-0.4121009741359103
 20
-143.57980984675029
 30
0.0
 11
-0.4121009741359103
 21
-143.57980984675029
 31
0.0
  0
LINE
  8
DETAIL
  6
CONTINUOUS
 62
     5
 10
-0.4121009741359103
 20
-143.57980984675029
 30
0.0
 11
-0.4118066680343873
 21
-143.5785921042775
 31
0.0
  0
LINE
  8
DETAIL
  6
CONTINUOUS
 62
     5
 10
-0.4118066680343873
 20
-143.5785921042775
 30
0.0
 11
-0.4114940341416968
 21
-143.57729092625601
 31
0.0
  0
LINE
  8
DETAIL
  6
CONTINUOUS
 62
     5
 10
-0.4114940341416968
 20
-143.57729092625601
 30
0.0
 11
-0.4114940341416968
 21
-143.57729092625601
 31
0.0
  0
LINE
  8
DETAIL
  6
CONTINUOUS
 62
     5
 10
-0.4114940341416968
 20
-143.57729092625601
 30
0.0
 11
-0.4111916159383782
 21
-143.57602031018311
 31
0.0
  0
LINE
  8
DETAIL
  6
CONTINUOUS
 62
     5
 10
-0.4111916159383782
 20
-143.57602031018311
 30
0.0
 11
-0.4108966714265989
 21
-143.57476899260789
 31
0.0
  0
LINE
  8
DETAIL
  6
CONTINUOUS
 62
     5
 10
-0.4108966714265989
 20
-143.57476899260789
 30
0.0
 11
-0.4108966714265989
 21
-143.57476899260789
 31
0.0
  0
LINE
  8
DETAIL
  6
CONTINUOUS
 62
     5
 10
-0.4108966714265989
 20
-143.57476899260789
 30
0.0
 11
-0.4106013884302229
 21
-143.57350570840529
 31
0.0
  0
LINE
  8
DETAIL
  6
CONTINUOUS
 62
     5
 10
-0.4106013884302229
 20
-143.57350570840529
 30
0.0
 11
-0.4103089595405436
 21
-143.57224444670649
 31
0.0
  0
LINE
  8
DETAIL
  6
CONTINUOUS
 62
     5
 10
-0.4103089595405436
 20
-143.57224444670649
 30
0.0
 11
-0.4103089595405436
 21
-143.57224444670649
 31
0.0
  0
LINE
  8
DETAIL
  6
CONTINUOUS
 62
     5
 10
-0.4103089595405436
 20
-143.57224444670649
 30
0.0
 11
-0.4100221451428752
 21
-143.57099657118761
 31
0.0
  0
LINE
  8
DETAIL
  6
CONTINUOUS
 62
     5
 10
-0.4100221451428752
 20
-143.57099657118761
 30
0.0
 11
-0.40973097203414
 21
-143.56971768945371
 31
0.0
  0
LINE
  8
DETAIL
  6
CONTINUOUS
 62
     5
 10
-0.40973097203414
 20
-143.56971768945371
 30
0.0
 11
-0.40973097203414
 21
-143.56971768945371
 31
0.0
  0
LINE
  8
DETAIL
  6
CONTINUOUS
 62
     5
 10
-0.40973097203414
 20
-143.56971768945371
 30
0.0
 11
-0.4094266141502203
 21
-143.56836857697911
 31
0.0
  0
LINE
  8
DETAIL
  6
CONTINUOUS
 62
     5
 10
-0.4094266141502203
 20
-143.56836857697911
 30
0.0
 11
-0.4091175675937393
 21
-143.56698643678371
 31
0.0
  0
LINE
  8
DETAIL
  6
CONTINUOUS
 62
     5
 10
-0.4091175675937393
 20
-143.56698643678371
 30
0.0
 11
-0.4091175675937393
 21
-143.56698643678371
 31
0.0
  0
LINE
  8
DETAIL
  6
CONTINUOUS
 62
     5
 10
-0.4091175675937393
 20
-143.56698643678371
 30
0.0
 11
-0.4088139344328283
 21
-143.56561567972039
 31
0.0
  0
LINE
  8
DETAIL
  6
CONTINUOUS
 62
     5
 10
-0.4088139344328283
 20
-143.56561567972039
 30
0.0
 11
-0.408514918459332
 21
-143.5642531204189
 31
0.0
  0
LINE
  8
DETAIL
  6
CONTINUOUS
 62
     5
 10
-0.408514918459332
 20
-143.5642531204189
 30
0.0
 11
-0.408514918459332
 21
-143.5642531204189
 31
0.0
  0
LINE
  8
DETAIL
  6
CONTINUOUS
 62
     5
 10
-0.408514918459332
 20
-143.5642531204189
 30
0.0
 11
-0.4082177107092093
 21
-143.56288686587499
 31
0.0
  0
LINE
  8
DETAIL
  6
CONTINUOUS
 62
     5
 10
-0.4082177107092093
 20
-143.56288686587499
 30
0.0
 11
-0.4079223494831012
 21
-143.5615177887712
 31
0.0
  0
LINE
  8
DETAIL
  6
CONTINUOUS
 62
     5
 10
-0.4079223494831012
 20
-143.5615177887712
 30
0.0
 11
-0.4079223494831012
 21
-143.5615177887712
 31
0.0
  0
LINE
  8
DETAIL
  6
CONTINUOUS
 62
     5
 10
-0.4079223494831012
 20
-143.5615177887712
 30
0.0
 11
-0.4076294622035448
 21
-143.56014908657829
 31
0.0
  0
LINE
  8
DETAIL
  6
CONTINUOUS
 62
     5
 10
-0.4076294622035448
 20
-143.56014908657829
 30
0.0
 11
-0.407339185513365
 21
-143.55878049025301
 31
0.0
  0
LINE
  8
DETAIL
  6
CONTINUOUS
 62
     5
 10
-0.407339185513365
 20
-143.55878049025301
 30
0.0
 11
-0.407339185513365
 21
-143.55878049025301
 31
0.0
  0
LINE
  8
DETAIL
  6
CONTINUOUS
 62
     5
 10
-0.407339185513365
 20
-143.55878049025301
 30
0.0
 11
-0.4070513123222099
 21
-143.55741113921701
 31
0.0
  0
LINE
  8
DETAIL
  6
CONTINUOUS
 62
     5
 10
-0.4070513123222099
 20
-143.55741113921701
 30
0.0
 11
-0.4067647514002601
 21
-143.55604127327749
 31
0.0
  0
LINE
  8
DETAIL
  6
CONTINUOUS
 62
     5
 10
-0.4067647514002601
 20
-143.55604127327749
 30
0.0
 11
-0.4064906230662473
 21
-143.55465189827649
 31
0.0
  0
LINE
  8
DETAIL
  6
CONTINUOUS
 62
     5
 10
-0.4064906230662473
 20
-143.55465189827649
 30
0.0
 11
-0.4062377885973092
 21
-143.5532479030694
 31
0.0
  0
LINE
  8
DETAIL
  6
CONTINUOUS
 62
     5
 10
-0.4062377885973092
 20
-143.5532479030694
 30
0.0
 11
-0.4062377885973092
 21
-143.5532479030694
 31
0.0
  0
LINE
  8
DETAIL
  6
CONTINUOUS
 62
     5
 10
-0.4062377885973092
 20
-143.5532479030694
 30
0.0
 11
-0.4060273796669662
 21
-143.5518189643781
 31
0.0
  0
LINE
  8
DETAIL
  6
CONTINUOUS
 62
     5
 10
-0.4060273796669662
 20
-143.5518189643781
 30
0.0
 11
-0.4058798791857043
 21
-143.55037194663461
 31
0.0
  0
LINE
  8
DETAIL
  6
CONTINUOUS
 62
     5
 10
-0.4058798791857043
 20
-143.55037194663461
 30
0.0
 11
-0.4058798791857043
 21
-143.55037194663461
 31
0.0
  0
LINE
  8
DETAIL
  6
CONTINUOUS
 62
     5
 10
-0.4058798791857043
 20
-143.55037194663461
 30
0.0
 11
-0.4058119777820366
 21
-143.5489223449654
 31
0.0
  0
LINE
  8
DETAIL
  6
CONTINUOUS
 62
     5
 10
-0.4058119777820366
 20
-143.5489223449654
 30
0.0
 11
-0.4058258457339434
 21
-143.5475029895492
 31
0.0
  0
LINE
  8
DETAIL
  6
CONTINUOUS
 62
     5
 10
-0.4058258457339434
 20
-143.5475029895492
 30
0.0
 11
-0.4058258457339434
 21
-143.5475029895492
 31
0.0
  0
LINE
  8
DETAIL
  6
CONTINUOUS
 62
     5
 10
-0.4058258457339434
 20
-143.5475029895492
 30
0.0
 11
-0.4059347057732339
 21
-143.54612941234751
 31
0.0
  0
LINE
  8
DETAIL
  6
CONTINUOUS
 62
     5
 10
-0.4059347057732339
 20
-143.54612941234751
 30
0.0
 11
-0.4062105108080232
 21
-143.54473061738739
 31
0.0
  0
LINE
  8
DETAIL
  6
CONTINUOUS
 62
     5
 10
-0.4062105108080232
 20
-143.54473061738739
 30
0.0
 11
-0.4062105108080232
 21
-143.54473061738739
 31
0.0
  0
LINE
  8
DETAIL
  6
CONTINUOUS
 62
     5
 10
-0.4062105108080232
 20
-143.54473061738739
 30
0.0
 11
-0.4066847962008069
 21
-143.54329617088251
 31
0.0
  0
LINE
  8
DETAIL
  6
CONTINUOUS
 62
     5
 10
-0.4066847962008069
 20
-143.54329617088251
 30
0.0
 11
-0.4071686969771235
 21
-143.54214441572461
 31
0.0
  0
LINE
  8
DETAIL
  6
CONTINUOUS
 62
     5
 10
-0.4071686969771235
 20
-143.54214441572461
 30
0.0
 11
-0.4071686969771235
 21
-143.54214441572461
 31
0.0
  0
LINE
  8
DETAIL
  6
CONTINUOUS
 62
     5
 10
-0.4071686969771235
 20
-143.54214441572461
 30
0.0
 11
-0.4074867772567359
 21
-143.5415381980938
 31
0.0
  0
LINE
  8
DETAIL
  6
CONTINUOUS
 62
     5
 10
-0.4074867772567359
 20
-143.5415381980938
 30
0.0
 11
-0.4077377179013411
 21
-143.5411896006444
 31
0.0
  0
LINE
  8
DETAIL
  6
CONTINUOUS
 62
     5
 10
-0.4077377179013411
 20
-143.5411896006444
 30
0.0
 11
-0.4077377179013411
 21
-143.5411896006444
 31
0.0
  0
LINE
  8
DETAIL
  6
CONTINUOUS
 62
     5
 10
-0.4077377179013411
 20
-143.5411896006444
 30
0.0
 11
-0.4080536890076019
 21
-143.5407631365492
 31
0.0
  0
LINE
  8
DETAIL
  6
CONTINUOUS
 62
     5
 10
-0.4080536890076019
 20
-143.5407631365492
 30
0.0
 11
-0.4084267008936422
 21
-143.54028380457109
 31
0.0
  0
LINE
  8
DETAIL
  6
CONTINUOUS
 62
     5
 10
-0.4084267008936422
 20
-143.54028380457109
 30
0.0
 11
-0.4084267008936422
 21
-143.54028380457109
 31
0.0
  0
LINE
  8
DETAIL
  6
CONTINUOUS
 62
     5
 10
-0.4084267008936422
 20
-143.54028380457109
 30
0.0
 11
-0.4088227666425155
 21
-143.53984242581419
 31
0.0
  0
LINE
  8
DETAIL
  6
CONTINUOUS
 62
     5
 10
-0.4088227666425155
 20
-143.53984242581419
 30
0.0
 11
-0.4092440701782607
 21
-143.53943262515759
 31
0.0
  0
LINE
  8
DETAIL
  6
CONTINUOUS
 62
     5
 10
-0.4092440701782607
 20
-143.53943262515759
 30
0.0
 11
-0.4092440701782607
 21
-143.53943262515759
 31
0.0
  0
LINE
  8
DETAIL
  6
CONTINUOUS
 62
     5
 10
-0.4092440701782607
 20
-143.53943262515759
 30
0.0
 11
-0.4097007072417682
 21
-143.53903080325199
 31
0.0
  0
LINE
  8
DETAIL
  6
CONTINUOUS
 62
     5
 10
-0.4097007072417682
 20
-143.53903080325199
 30
0.0
 11
-0.4101982499769292
 21
-143.5386416600613
 31
0.0
  0
LINE
  8
DETAIL
  6
CONTINUOUS
 62
     5
 10
-0.4101982499769292
 20
-143.5386416600613
 30
0.0
 11
-0.4101982499769292
 21
-143.5386416600613
 31
0.0
  0
LINE
  8
DETAIL
  6
CONTINUOUS
 62
     5
 10
-0.4101982499769292
 20
-143.5386416600613
 30
0.0
 11
-0.4107366205139442
 21
-143.53827297012231
 31
0.0
  0
LINE
  8
DETAIL
  6
CONTINUOUS
 62
     5
 10
-0.4107366205139442
 20
-143.53827297012231
 30
0.0
 11
-0.4112976645103572
 21
-143.53791650693711
 31
0.0
  0
LINE
  8
DETAIL
  6
CONTINUOUS
 62
     5
 10
-0.4097984560921759
 20
-143.53536526469179
 30
0.0
 11
-0.4118260795524975
 21
-143.53576884769109
 31
0.0
  0
LINE
  8
DETAIL
  6
CONTINUOUS
 62
     5
 10
-0.4118260795524975
 20
-143.53576884769109
 30
0.0
 11
-0.4139023599603888
 21
-143.5361366297102
 31
0.0
  0
LINE
  8
DETAIL
  6
CONTINUOUS
 62
     5
 10
-0.4139023599603888
 20
-143.5361366297102
 30
0.0
 11
-0.4139023599603888
 21
-143.5361366297102
 31
0.0
  0
LINE
  8
DETAIL
  6
CONTINUOUS
 62
     5
 10
-0.4139023599603888
 20
-143.5361366297102
 30
0.0
 11
-0.4160555624629296
 21
-143.5364536981983
 31
0.0
  0
LINE
  8
DETAIL
  6
CONTINUOUS
 62
     5
 10
-0.4160555624629296
 20
-143.5364536981983
 30
0.0
 11
-0.4182323850102421
 21
-143.5367886943354
 31
0.0
  0
LINE
  8
DETAIL
  6
CONTINUOUS
 62
     5
 10
-0.4182323850102421
 20
-143.5367886943354
 30
0.0
 11
-0.4182323850102421
 21
-143.5367886943354
 31
0.0
  0
LINE
  8
DETAIL
  6
CONTINUOUS
 62
     5
 10
-0.4182323850102421
 20
-143.5367886943354
 30
0.0
 11
-0.4203609149316208
 21
-143.53721451664109
 31
0.0
  0
LINE
  8
DETAIL
  6
CONTINUOUS
 62
     5
 10
-0.4203609149316208
 20
-143.53721451664109
 30
0.0
 11
-0.4223763642680751
 21
-143.53773753928269
 31
0.0
  0
LINE
  8
DETAIL
  6
CONTINUOUS
 62
     5
 10
-0.4223763642680751
 20
-143.53773753928269
 30
0.0
 11
-0.4223763642680751
 21
-143.53773753928269
 31
0.0
  0
LINE
  8
DETAIL
  6
CONTINUOUS
 62
     5
 10
-0.4223763642680751
 20
-143.53773753928269
 30
0.0
 11
-0.4242289933267784
 21
-143.53839314126071
 31
0.0
  0
LINE
  8
DETAIL
  6
CONTINUOUS
 62
     5
 10
-0.4242289933267784
 20
-143.53839314126071
 30
0.0
 11
-0.4259221307638654
 21
-143.53939924526821
 31
0.0
  0
LINE
  8
DETAIL
  6
CONTINUOUS
 62
     5
 10
-0.4259221307638654
 20
-143.53939924526821
 30
0.0
 11
-0.4259221307638654
 21
-143.53939924526821
 31
0.0
  0
LINE
  8
DETAIL
  6
CONTINUOUS
 62
     5
 10
-0.4259221307638654
 20
-143.53939924526821
 30
0.0
 11
-0.4274175227930073
 21
-143.54085349731761
 31
0.0
  0
LINE
  8
DETAIL
  6
CONTINUOUS
 62
     5
 10
-0.4274175227930073
 20
-143.54085349731761
 30
0.0
 11
-0.4284575175219061
 21
-143.54218989300759
 31
0.0
  0
LINE
  8
DETAIL
  6
CONTINUOUS
 62
     5
 10
-0.4284575175219061
 20
-143.54218989300759
 30
0.0
 11
-0.4284575175219061
 21
-143.54218989300759
 31
0.0
  0
LINE
  8
DETAIL
  6
CONTINUOUS
 62
     5
 10
-0.4284575175219061
 20
-143.54218989300759
 30
0.0
 11
-0.4288592568744889
 21
-143.54289215883
 31
0.0
  0
LINE
  8
DETAIL
  6
CONTINUOUS
 62
     5
 10
-0.4288592568744889
 20
-143.54289215883
 30
0.0
 11
-0.4289584561581705
 21
-143.5433065952648
 31
0.0
  0
LINE
  8
DETAIL
  6
CONTINUOUS
 62
     5
 10
-0.4289584561581705
 20
-143.5433065952648
 30
0.0
 11
-0.4289584561581705
 21
-143.5433065952648
 31
0.0
  0
LINE
  8
DETAIL
  6
CONTINUOUS
 62
     5
 10
-0.4289584561581705
 20
-143.5433065952648
 30
0.0
 11
-0.4291217560557925
 21
-143.54387678208559
 31
0.0
  0
LINE
  8
DETAIL
  6
CONTINUOUS
 62
     5
 10
-0.4291217560557925
 20
-143.54387678208559
 30
0.0
 11
-0.4293209253665964
 21
-143.54457284225549
 31
0.0
  0
LINE
  8
DETAIL
  6
CONTINUOUS
 62
     5
 10
-0.4293209253665964
 20
-143.54457284225549
 30
0.0
 11
-0.4293209253665964
 21
-143.54457284225549
 31
0.0
  0
LINE
  8
DETAIL
  6
CONTINUOUS
 62
     5
 10
-0.4293209253665964
 20
-143.54457284225549
 30
0.0
 11
-0.4294558649703504
 21
-143.5452778058357
 31
0.0
  0
LINE
  8
DETAIL
  6
CONTINUOUS
 62
     5
 10
-0.4294558649703504
 20
-143.5452778058357
 30
0.0
 11
-0.429533875950483
 21
-143.54599978809441
 31
0.0
  0
LINE
  8
DETAIL
  6
CONTINUOUS
 62
     5
 10
-0.429533875950483
 20
-143.54599978809441
 30
0.0
 11
-0.429533875950483
 21
-143.54599978809441
 31
0.0
  0
LINE
  8
DETAIL
  6
CONTINUOUS
 62
     5
 10
-0.429533875950483
 20
-143.54599978809441
 30
0.0
 11
-0.4295804272062469
 21
-143.546771454598
 31
0.0
  0
LINE
  8
DETAIL
  6
CONTINUOUS
 62
     5
 10
-0.4295804272062469
 20
-143.546771454598
 30
0.0
 11
-0.4295862587121064
 21
-143.54759858689661
 31
0.0
  0
LINE
  8
DETAIL
  6
CONTINUOUS
 62
     5
 10
-0.4295862587121064
 20
-143.54759858689661
 30
0.0
 11
-0.4295862587121064
 21
-143.54759858689661
 31
0.0
  0
LINE
  8
DETAIL
  6
CONTINUOUS
 62
     5
 10
-0.4295862587121064
 20
-143.54759858689661
 30
0.0
 11
-0.4295413070864242
 21
-143.54847585825061
 31
0.0
  0
LINE
  8
DETAIL
  6
CONTINUOUS
 62
     5
 10
-0.4295413070864242
 20
-143.54847585825061
 30
0.0
 11
-0.4294670244559029
 21
-143.5493803927757
 31
0.0
  0
LINE
  8
DETAIL
  6
CONTINUOUS
 62
     5
 10
-44.447897072307804
 20
169.048759064362
 30
0.0
 11
-44.44985261988495
 21
169.10551239608779
 31
0.0
  0
LINE
  8
DETAIL
  6
CONTINUOUS
 62
     5
 10
-44.44985261988495
 20
169.10551239608779
 30
0.0
 11
-44.451790321635833
 21
169.16226401406081
 31
0.0
  0
LINE
  8
DETAIL
  6
CONTINUOUS
 62
     5
 10
-44.451790321635833
 20
169.16226401406081
 30
0.0
 11
-44.451790321635833
 21
169.16226401406081
 31
0.0
  0
LINE
  8
DETAIL
  6
CONTINUOUS
 62
     5
 10
-44.451790321635833
 20
169.16226401406081
 30
0.0
 11
-44.453696137285988
 21
169.21901440863621
 31
0.0
  0
LINE
  8
DETAIL
  6
CONTINUOUS
 62
     5
 10
-44.453696137285988
 20
169.21901440863621
 30
0.0
 11
-44.455571248759497
 21
169.27577288659899
 31
0.0
  0
LINE
  8
DETAIL
  6
CONTINUOUS
 62
     5
 10
-44.455571248759497
 20
169.27577288659899
 30
0.0
 11
-44.455571248759497
 21
169.27577288659899
 31
0.0
  0
LINE
  8
DETAIL
  6
CONTINUOUS
 62
     5
 10
-44.455571248759497
 20
169.27577288659899
 30
0.0
 11
-44.45741936834122
 21
169.33254162622691
 31
0.0
  0
LINE
  8
DETAIL
  6
CONTINUOUS
 62
     5
 10
-44.45741936834122
 20
169.33254162622691
 30
0.0
 11
-44.459239107568813
 21
169.38928547532171
 31
0.0
  0
LINE
  8
DETAIL
  6
CONTINUOUS
 62
     5
 10
-44.459239107568813
 20
169.38928547532171
 30
0.0
 11
-44.459239107568813
 21
169.38928547532171
 31
0.0
  0
LINE
  8
DETAIL
  6
CONTINUOUS
 62
     5
 10
-44.459239107568813
 20
169.38928547532171
 30
0.0
 11
-44.461029097992082
 21
169.4459950754331
 31
0.0
  0
LINE
  8
DETAIL
  6
CONTINUOUS
 62
     5
 10
-44.461029097992082
 20
169.4459950754331
 30
0.0
 11
-44.46279315195693
 21
169.5028015735729
 31
0.0
  0
LINE
  8
DETAIL
  6
CONTINUOUS
 62
     5
 10
-44.46279315195693
 20
169.5028015735729
 30
0.0
 11
-44.46279315195693
 21
169.5028015735729
 31
0.0
  0
LINE
  8
DETAIL
  6
CONTINUOUS
 62
     5
 10
-44.46279315195693
 20
169.5028015735729
 30
0.0
 11
-44.464532471399018
 21
169.5597400702745
 31
0.0
  0
LINE
  8
DETAIL
  6
CONTINUOUS
 62
     5
 10
-44.464532471399018
 20
169.5597400702745
 30
0.0
 11
-44.466232635815459
 21
169.6163209746978
 31
0.0
  0
LINE
  8
DETAIL
  6
CONTINUOUS
 62
     5
 10
-44.466232635815459
 20
169.6163209746978
 30
0.0
 11
-44.466232635815459
 21
169.6163209746978
 31
0.0
  0
LINE
  8
DETAIL
  6
CONTINUOUS
 62
     5
 10
-44.466232635815459
 20
169.6163209746978
 30
0.0
 11
-44.467881458424017
 21
169.67212960995269
 31
0.0
  0
LINE
  8
DETAIL
  6
CONTINUOUS
 62
     5
 10
-44.467881458424017
 20
169.67212960995269
 30
0.0
 11
-44.469491309759178
 21
169.72757564633409
 31
0.0
  0
LINE
  8
DETAIL
  6
CONTINUOUS
 62
     5
 10
-44.469491309759178
 20
169.72757564633409
 30
0.0
 11
-44.469491309759178
 21
169.72757564633409
 31
0.0
  0
LINE
  8
DETAIL
  6
CONTINUOUS
 62
     5
 10
-44.469491309759178
 20
169.72757564633409
 30
0.0
 11
-44.471076827705467
 21
169.78314866209709
 31
0.0
  0
LINE
  8
DETAIL
  6
CONTINUOUS
 62
     5
 10
-44.471076827705467
 20
169.78314866209709
 30
0.0
 11
-44.472637162228118
 21
169.8388335201785
 31
0.0
  0
LINE
  8
DETAIL
  6
CONTINUOUS
 62
     5
 10
-44.472637162228118
 20
169.8388335201785
 30
0.0
 11
-44.472637162228118
 21
169.8388335201785
 31
0.0
  0
LINE
  8
DETAIL
  6
CONTINUOUS
 62
     5
 10
-44.472637162228118
 20
169.8388335201785
 30
0.0
 11
-44.474168181870603
 21
169.8945040703052
 31
0.0
  0
LINE
  8
DETAIL
  6
CONTINUOUS
 62
     5
 10
-44.474168181870603
 20
169.8945040703052
 30
0.0
 11
-44.475668117387499
 21
169.95009482469411
 31
0.0
  0
LINE
  8
DETAIL
  6
CONTINUOUS
 62
     5
 10
-44.475668117387499
 20
169.95009482469411
 30
0.0
 11
-44.475668117387499
 21
169.95009482469411
 31
0.0
  0
LINE
  8
DETAIL
  6
CONTINUOUS
 62
     5
 10
-44.475668117387499
 20
169.95009482469411
 30
0.0
 11
-44.47713729985378
 21
170.00562097752481
 31
0.0
  0
LINE
  8
DETAIL
  6
CONTINUOUS
 62
     5
 10
-44.47713729985378
 20
170.00562097752481
 30
0.0
 11
-44.478582099399318
 21
170.06135978834209
 31
0.0
  0
LINE
  8
DETAIL
  6
CONTINUOUS
 62
     5
 10
-44.478582099399318
 20
170.06135978834209
 30
0.0
 11
-44.478582099399318
 21
170.06135978834209
 31
0.0
  0
LINE
  8
DETAIL
  6
CONTINUOUS
 62
     5
 10
-44.478582099399318
 20
170.06135978834209
 30
0.0
 11
-44.480003766306481
 21
170.11737680204581
 31
0.0
  0
LINE
  8
DETAIL
  6
CONTINUOUS
 62
     5
 10
-44.480003766306481
 20
170.11737680204581
 30
0.0
 11
-44.481377032425137
 21
170.17262863958601
 31
0.0
  0
LINE
  8
DETAIL
  6
CONTINUOUS
 62
     5
 10
-44.481377032425137
 20
170.17262863958601
 30
0.0
 11
-44.481377032425137
 21
170.17262863958601
 31
0.0
  0
LINE
  8
DETAIL
  6
CONTINUOUS
 62
     5
 10
-44.481377032425137
 20
170.17262863958601
 30
0.0
 11
-44.482680767997181
 21
170.2262341402043
 31
0.0
  0
LINE
  8
DETAIL
  6
CONTINUOUS
 62
     5
 10
-44.482680767997181
 20
170.2262341402043
 30
0.0
 11
-44.483936915267464
 21
170.27906994024221
 31
0.0
  0
LINE
  8
DETAIL
  6
CONTINUOUS
 62
     5
 10
-44.483936915267464
 20
170.27906994024221
 30
0.0
 11
-44.483936915267464
 21
170.27906994024221
 31
0.0
  0
LINE
  8
DETAIL
  6
CONTINUOUS
 62
     5
 10
-44.483936915267464
 20
170.27906994024221
 30
0.0
 11
-44.485171261180653
 21
170.33217927637631
 31
0.0
  0
LINE
  8
DETAIL
  6
CONTINUOUS
 62
     5
 10
-44.485171261180653
 20
170.33217927637631
 30
0.0
 11
-44.486381899476328
 21
170.38551398951591
 31
0.0
  0
LINE
  8
DETAIL
  6
CONTINUOUS
 62
     5
 10
-44.486381899476328
 20
170.38551398951591
 30
0.0
 11
-44.486381899476328
 21
170.38551398951591
 31
0.0
  0
LINE
  8
DETAIL
  6
CONTINUOUS
 62
     5
 10
-44.486381899476328
 20
170.38551398951591
 30
0.0
 11
-44.487561398889277
 21
170.43880110349761
 31
0.0
  0
LINE
  8
DETAIL
  6
CONTINUOUS
 62
     5
 10
-44.487561398889277
 20
170.43880110349761
 30
0.0
 11
-44.488707921322998
 21
170.49195976963759
 31
0.0
  0
LINE
  8
DETAIL
  6
CONTINUOUS
 62
     5
 10
-44.488707921322998
 20
170.49195976963759
 30
0.0
 11
-44.488707921322998
 21
170.49195976963759
 31
0.0
  0
LINE
  8
DETAIL
  6
CONTINUOUS
 62
     5
 10
-44.488707921322998
 20
170.49195976963759
 30
0.0
 11
-44.489822357104231
 21
170.54503789258339
 31
0.0
  0
LINE
  8
DETAIL
  6
CONTINUOUS
 62
     5
 10
-44.489822357104231
 20
170.54503789258339
 30
0.0
 11
-44.490910917071687
 21
170.59840626283949
 31
0.0
  0
LINE
  8
DETAIL
  6
CONTINUOUS
 62
     5
 10
-44.490910917071687
 20
170.59840626283949
 30
0.0
 11
-44.490910917071687
 21
170.59840626283949
 31
0.0
  0
LINE
  8
DETAIL
  6
CONTINUOUS
 62
     5
 10
-44.490910917071687
 20
170.59840626283949
 30
0.0
 11
-44.491974423389017
 21
170.65214547464851
 31
0.0
  0
LINE
  8
DETAIL
  6
CONTINUOUS
 62
     5
 10
-44.491974423389017
 20
170.65214547464851
 30
0.0
 11
-44.492986822993998
 21
170.70485245135251
 31
0.0
  0
LINE
  8
DETAIL
  6
CONTINUOUS
 62
     5
 10
-44.492986822993998
 20
170.70485245135251
 30
0.0
 11
-44.492986822993998
 21
170.70485245135251
 31
0.0
  0
LINE
  8
DETAIL
  6
CONTINUOUS
 62
     5
 10
-44.492986822993998
 20
170.70485245135251
 30
0.0
 11
-44.493926491798902
 21
170.75534385012091
 31
0.0
  0
LINE
  8
DETAIL
  6
CONTINUOUS
 62
     5
 10
-44.493926491798902
 20
170.75534385012091
 30
0.0
 11
-44.494816396827218
 21
170.80479893432809
 31
0.0
  0
LINE
  8
DETAIL
  6
CONTINUOUS
 62
     5
 10
-44.494816396827218
 20
170.80479893432809
 30
0.0
 11
-44.494816396827218
 21
170.80479893432809
 31
0.0
  0
LINE
  8
DETAIL
  6
CONTINUOUS
 62
     5
 10
-44.494816396827218
 20
170.80479893432809
 30
0.0
 11
-44.495683397915627
 21
170.85462107359669
 31
0.0
  0
LINE
  8
DETAIL
  6
CONTINUOUS
 62
     5
 10
-44.495683397915627
 20
170.85462107359669
 30
0.0
 11
-44.496525335048553
 21
170.9047474563472
 31
0.0
  0
LINE
  8
DETAIL
  6
CONTINUOUS
 62
     5
 10
-44.496525335048553
 20
170.9047474563472
 30
0.0
 11
-44.496525335048553
 21
170.9047474563472
 31
0.0
  0
LINE
  8
DETAIL
  6
CONTINUOUS
 62
     5
 10
-44.496525335048553
 20
170.9047474563472
 30
0.0
 11
-44.497334327186991
 21
170.95481193789561
 31
0.0
  0
LINE
  8
DETAIL
  6
CONTINUOUS
 62
     5
 10
-44.497334327186991
 20
170.95481193789561
 30
0.0
 11
-44.498108629061448
 21
171.00470122235359
 31
0.0
  0
LINE
  8
DETAIL
  6
CONTINUOUS
 62
     5
 10
-44.498108629061448
 20
171.00470122235359
 30
0.0
 11
-44.498108629061448
 21
171.00470122235359
 31
0.0
  0
LINE
  8
DETAIL
  6
CONTINUOUS
 62
     5
 10
-44.498108629061448
 20
171.00470122235359
 30
0.0
 11
-44.498849148539421
 21
171.0544789225402
 31
0.0
  0
LINE
  8
DETAIL
  6
CONTINUOUS
 62
     5
 10
-44.498849148539421
 20
171.0544789225402
 30
0.0
 11
-44.499561270270988
 21
171.10466343729149
 31
0.0
  0
LINE
  8
DETAIL
  6
CONTINUOUS
 62
     5
 10
-44.499561270270988
 20
171.10466343729149
 30
0.0
 11
-44.499561270270988
 21
171.10466343729149
 31
0.0
  0
LINE
  8
DETAIL
  6
CONTINUOUS
 62
     5
 10
-44.499561270270988
 20
171.10466343729149
 30
0.0
 11
-44.500245487375757
 21
171.15536886373269
 31
0.0
  0
LINE
  8
DETAIL
  6
CONTINUOUS
 62
     5
 10
-44.500245487375757
 20
171.15536886373269
 30
0.0
 11
-44.500878250081307
 21
171.20463730610359
 31
0.0
  0
LINE
  8
DETAIL
  6
CONTINUOUS
 62
     5
 10
-44.500878250081307
 20
171.20463730610359
 30
0.0
 11
-44.500878250081307
 21
171.20463730610359
 31
0.0
  0
LINE
  8
DETAIL
  6
CONTINUOUS
 62
     5
 10
-44.500878250081307
 20
171.20463730610359
 30
0.0
 11
-44.501440162020117
 21
171.2508172881567
 31
0.0
  0
LINE
  8
DETAIL
  6
CONTINUOUS
 62
     5
 10
-44.501440162020117
 20
171.2508172881567
 30
0.0
 11
-44.50195248332659
 21
171.29555500456169
 31
0.0
  0
LINE
  8
DETAIL
  6
CONTINUOUS
 62
     5
 10
-44.50195248332659
 20
171.29555500456169
 30
0.0
 11
-44.50195248332659
 21
171.29555500456169
 31
0.0
  0
LINE
  8
DETAIL
  6
CONTINUOUS
 62
     5
 10
-44.50195248332659
 20
171.29555500456169
 30
0.0
 11
-44.502439716707393
 21
171.34080709525051
 31
0.0
  0
LINE
  8
DETAIL
  6
CONTINUOUS
 62
     5
 10
-44.502439716707393
 20
171.34080709525051
 30
0.0
 11
-44.502898678655697
 21
171.38647431026769
 31
0.0
  0
LINE
  8
DETAIL
  6
CONTINUOUS
 62
     5
 10
-44.502898678655697
 20
171.38647431026769
 30
0.0
 11
-44.502898678655697
 21
171.38647431026769
 31
0.0
  0
LINE
  8
DETAIL
  6
CONTINUOUS
 62
     5
 10
-44.502898678655697
 20
171.38647431026769
 30
0.0
 11
-44.503320981852312
 21
171.43204134231291
 31
0.0
  0
LINE
  8
DETAIL
  6
CONTINUOUS
 62
     5
 10
-44.503320981852312
 20
171.43204134231291
 30
0.0
 11
-44.503705109949351
 21
171.47738454458019
 31
0.0
  0
LINE
  8
DETAIL
  6
CONTINUOUS
 62
     5
 10
-44.503705109949351
 20
171.47738454458019
 30
0.0
 11
-44.503705109949351
 21
171.47738454458019
 31
0.0
  0
LINE
  8
DETAIL
  6
CONTINUOUS
 62
     5
 10
-44.503705109949351
 20
171.47738454458019
 30
0.0
 11
-44.504051314923913
 21
171.5226004973633
 31
0.0
  0
LINE
  8
DETAIL
  6
CONTINUOUS
 62
     5
 10
-44.504051314923913
 20
171.5226004973633
 30
0.0
 11
-44.504360051084859
 21
171.5682750288606
 31
0.0
  0
LINE
  8
DETAIL
  6
CONTINUOUS
 62
     5
 10
-44.504360051084859
 20
171.5682750288606
 30
0.0
 11
-44.504360051084859
 21
171.5682750288606
 31
0.0
  0
LINE
  8
DETAIL
  6
CONTINUOUS
 62
     5
 10
-44.504360051084859
 20
171.5682750288606
 30
0.0
 11
-44.504629903251612
 21
171.61452911621609
 31
0.0
  0
LINE
  8
DETAIL
  6
CONTINUOUS
 62
     5
 10
-44.504629903251612
 20
171.61452911621609
 30
0.0
 11
-44.50485177594237
 21
171.6591350844669
 31
0.0
  0
LINE
  8
DETAIL
  6
CONTINUOUS
 62
     5
 10
-44.50485177594237
 20
171.6591350844669
 30
0.0
 11
-44.50485177594237
 21
171.6591350844669
 31
0.0
  0
LINE
  8
DETAIL
  6
CONTINUOUS
 62
     5
 10
-44.50485177594237
 20
171.6591350844669
 30
0.0
 11
-44.505019021945152
 21
171.7002164710789
 31
0.0
  0
LINE
  8
DETAIL
  6
CONTINUOUS
 62
     5
 10
-44.505019021945152
 20
171.7002164710789
 30
0.0
 11
-44.505142467406927
 21
171.73965031533271
 31
0.0
  0
LINE
  8
DETAIL
  6
CONTINUOUS
 62
     5
 10
-44.505142467406927
 20
171.73965031533271
 30
0.0
 11
-44.505142467406927
 21
171.73965031533271
 31
0.0
  0
LINE
  8
DETAIL
  6
CONTINUOUS
 62
     5
 10
-44.505142467406927
 20
171.73965031533271
 30
0.0
 11
-44.505233934007258
 21
171.77966812277691
 31
0.0
  0
LINE
  8
DETAIL
  6
CONTINUOUS
 62
     5
 10
-44.505233934007258
 20
171.77966812277691
 30
0.0
 11
-44.505291752196399
 21
171.82016576221849
 31
0.0
  0
LINE
  8
DETAIL
  6
CONTINUOUS
 62
     5
 10
-44.505291752196399
 20
171.82016576221849
 30
0.0
 11
-44.505291752196399
 21
171.82016576221849
 31
0.0
  0
LINE
  8
DETAIL
  6
CONTINUOUS
 62
     5
 10
-44.505291752196399
 20
171.82016576221849
 30
0.0
 11
-44.505312056783403
 21
171.86056338917891
 31
0.0
  0
LINE
  8
DETAIL
  6
CONTINUOUS
 62
     5
 10
-44.505312056783403
 20
171.86056338917891
 30
0.0
 11
-44.505295691255697
 21
171.90071394277771
 31
0.0
  0
LINE
  8
DETAIL
  6
CONTINUOUS
 62
     5
 10
-44.505295691255697
 20
171.90071394277771
 30
0.0
 11
-44.505295691255697
 21
171.90071394277771
 31
0.0
  0
LINE
  8
DETAIL
  6
CONTINUOUS
 62
     5
 10
-44.505295691255697
 20
171.90071394277771
 30
0.0
 11
-44.505243340398813
 21
171.9407296836207
 31
0.0
  0
LINE
  8
DETAIL
  6
CONTINUOUS
 62
     5
 10
-44.505243340398813
 20
171.9407296836207
 30
0.0
 11
-44.505150345532343
 21
171.98132737465949
 31
0.0
  0
LINE
  8
DETAIL
  6
CONTINUOUS
 62
     5
 10
-44.505150345532343
 20
171.98132737465949
 30
0.0
 11
-44.505150345532343
 21
171.98132737465949
 31
0.0
  0
LINE
  8
DETAIL
  6
CONTINUOUS
 62
     5
 10
-44.505150345532343
 20
171.98132737465949
 30
0.0
 11
-44.505014878406428
 21
172.02266220618591
 31
0.0
  0
LINE
  8
DETAIL
  6
CONTINUOUS
 62
     5
 10
-44.505014878406428
 20
172.02266220618591
 30
0.0
 11
-44.504851775973293
 21
172.06203857551509
 31
0.0
  0
LINE
  8
DETAIL
  6
CONTINUOUS
 62
     5
 10
-44.504851775973293
 20
172.06203857551509
 30
0.0
 11
-44.504851775973293
 21
172.06203857551509
 31
0.0
  0
LINE
  8
DETAIL
  6
CONTINUOUS
 62
     5
 10
-44.504851775973293
 20
172.06203857551509
 30
0.0
 11
-44.504673897095927
 21
172.09718148334511
 31
0.0
  0
LINE
  8
DETAIL
  6
CONTINUOUS
 62
     5
 10
-44.504673897095927
 20
172.09718148334511
 30
0.0
 11
-44.504469523078228
 21
172.1303491368858
 31
0.0
  0
LINE
  8
DETAIL
  6
CONTINUOUS
 62
     5
 10
-44.504469523078228
 20
172.1303491368858
 30
0.0
 11
-44.504469523078228
 21
172.1303491368858
 31
0.0
  0
LINE
  8
DETAIL
  6
CONTINUOUS
 62
     5
 10
-44.504469523078228
 20
172.1303491368858
 30
0.0
 11
-44.504223061314967
 21
172.1642246096558
 31
0.0
  0
LINE
  8
DETAIL
  6
CONTINUOUS
 62
     5
 10
-44.504223061314967
 20
172.1642246096558
 30
0.0
 11
-44.503928001118538
 21
172.19865723389469
 31
0.0
  0
LINE
  8
DETAIL
  6
CONTINUOUS
 62
     5
 10
-44.503928001118538
 20
172.19865723389469
 30
0.0
 11
-44.503928001118538
 21
172.19865723389469
 31
0.0
  0
LINE
  8
DETAIL
  6
CONTINUOUS
 62
     5
 10
-44.503928001118538
 20
172.19865723389469
 30
0.0
 11
-44.503580743333032
 21
172.23292662803399
 31
0.0
  0
LINE
  8
DETAIL
  6
CONTINUOUS
 62
     5
 10
-44.503580743333032
 20
172.23292662803399
 30
0.0
 11
-44.503180253014762
 21
172.26686729654921
 31
0.0
  0
LINE
  8
DETAIL
  6
CONTINUOUS
 62
     5
 10
-44.503180253014762
 20
172.26686729654921
 30
0.0
 11
-44.503180253014762
 21
172.26686729654921
 31
0.0
  0
LINE
  8
DETAIL
  6
CONTINUOUS
 62
     5
 10
-44.503180253014762
 20
172.26686729654921
 30
0.0
 11
-44.50272130158271
 21
172.30060601470359
 31
0.0
  0
LINE
  8
DETAIL
  6
CONTINUOUS
 62
     5
 10
-44.50272130158271
 20
172.30060601470359
 30
0.0
 11
-44.502179321691983
 21
172.33488375485831
 31
0.0
  0
LINE
  8
DETAIL
  6
CONTINUOUS
 62
     5
 10
-44.502179321691983
 20
172.33488375485831
 30
0.0
 11
-44.502179321691983
 21
172.33488375485831
 31
0.0
  0
LINE
  8
DETAIL
  6
CONTINUOUS
 62
     5
 10
-44.502179321691983
 20
172.33488375485831
 30
0.0
 11
-44.501543609016721
 21
172.36984212003739
 31
0.0
  0
LINE
  8
DETAIL
  6
CONTINUOUS
 62
     5
 10
-44.501543609016721
 20
172.36984212003739
 30
0.0
 11
-44.500878250073242
 21
172.4026110388281
 31
0.0
  0
LINE
  8
DETAIL
  6
CONTINUOUS
 62
     5
 10
-44.500878250073242
 20
172.4026110388281
 30
0.0
 11
-44.500878250073242
 21
172.4026110388281
 31
0.0
  0
LINE
  8
DETAIL
  6
CONTINUOUS
 62
     5
 10
-44.500878250073242
 20
172.4026110388281
 30
0.0
 11
-44.500241585237177
 21
172.43078157990661
 31
0.0
  0
LINE
  8
DETAIL
  6
CONTINUOUS
 62
     5
 10
-44.500241585237177
 20
172.43078157990661
 30
0.0
 11
-44.499594179491851
 21
172.4568010467419
 31
0.0
  0
LINE
  8
DETAIL
  6
CONTINUOUS
 62
     5
 10
-44.499594179491851
 20
172.4568010467419
 30
0.0
 11
-44.499594179491851
 21
172.4568010467419
 31
0.0
  0
LINE
  8
DETAIL
  6
CONTINUOUS
 62
     5
 10
-44.499594179491851
 20
172.4568010467419
 30
0.0
 11
-44.498886266633917
 21
172.48357625452491
 31
0.0
  0
LINE
  8
DETAIL
  6
CONTINUOUS
 62
     5
 10
-44.498886266633917
 20
172.48357625452491
 30
0.0
 11
-44.498124531118719
 21
172.5109958305425
 31
0.0
  0
LINE
  8
DETAIL
  6
CONTINUOUS
 62
     5
 10
-44.498124531118719
 20
172.5109958305425
 30
0.0
 11
-44.498124531118719
 21
172.5109958305425
 31
0.0
  0
LINE
  8
DETAIL
  6
CONTINUOUS
 62
     5
 10
-44.498124531118719
 20
172.5109958305425
 30
0.0
 11
-44.497327894405771
 21
172.53833686841881
 31
0.0
  0
LINE
  8
DETAIL
  6
CONTINUOUS
 62
     5
 10
-44.497327894405771
 20
172.53833686841881
 30
0.0
 11
-44.496507775324737
 21
172.5654485150458
 31
0.0
  0
LINE
  8
DETAIL
  6
CONTINUOUS
 62
     5
 10
-44.496507775324737
 20
172.5654485150458
 30
0.0
 11
-44.496507775324737
 21
172.5654485150458
 31
0.0
  0
LINE
  8
DETAIL
  6
CONTINUOUS
 62
     5
 10
-44.496507775324737
 20
172.5654485150458
 30
0.0
 11
-44.495667107012423
 21
172.59250542434029
 31
0.0
  0
LINE
  8
DETAIL
  6
CONTINUOUS
 62
     5
 10
-44.495667107012423
 20
172.59250542434029
 30
0.0
 11
-44.494782382479798
 21
172.62041222506701
 31
0.0
  0
LINE
  8
DETAIL
  6
CONTINUOUS
 62
     5
 10
-44.494782382479798
 20
172.62041222506701
 30
0.0
 11
-44.494782382479798
 21
172.62041222506701
 31
0.0
  0
LINE
  8
DETAIL
  6
CONTINUOUS
 62
     5
 10
-44.494782382479798
 20
172.62041222506701
 30
0.0
 11
-44.493851800491711
 21
172.64938305153831
 31
0.0
  0
LINE
  8
DETAIL
  6
CONTINUOUS
 62
     5
 10
-44.493851800491711
 20
172.64938305153831
 30
0.0
 11
-44.492986822957619
 21
172.67614008542159
 31
0.0
  0
LINE
  8
DETAIL
  6
CONTINUOUS
 62
     5
 10
-44.492986822957619
 20
172.67614008542159
 30
0.0
 11
-44.492986822957619
 21
172.67614008542159
 31
0.0
  0
LINE
  8
DETAIL
  6
CONTINUOUS
 62
     5
 10
-44.492986822957619
 20
172.67614008542159
 30
0.0
 11
-44.492277336913048
 21
172.6978963517748
 31
0.0
  0
LINE
  8
DETAIL
  6
CONTINUOUS
 62
     5
 10
-44.492277336913048
 20
172.6978963517748
 30
0.0
 11
-44.491613666756173
 21
172.71732020187389
 31
0.0
  0
LINE
  8
DETAIL
  6
CONTINUOUS
 62
     5
 10
-44.491613666756173
 20
172.71732020187389
 30
0.0
 11
-44.491613666756173
 21
172.71732020187389
 31
0.0
  0
LINE
  8
DETAIL
  6
CONTINUOUS
 62
     5
 10
-44.491613666756173
 20
172.71732020187389
 30
0.0
 11
-44.490862416334487
 21
172.7375869073021
 31
0.0
  0
LINE
  8
DETAIL
  6
CONTINUOUS
 62
     5
 10
-44.490862416334487
 20
172.7375869073021
 30
0.0
 11
-44.489994869927607
 21
172.75844409466799
 31
0.0
  0
LINE
  8
DETAIL
  6
CONTINUOUS
 62
     5
 10
-44.489994869927607
 20
172.75844409466799
 30
0.0
 11
-44.489994869927607
 21
172.75844409466799
 31
0.0
  0
LINE
  8
DETAIL
  6
CONTINUOUS
 62
     5
 10
-44.489994869927607
 20
172.75844409466799
 30
0.0
 11
-44.48900860260494
 21
172.77896010429819
 31
0.0
  0
LINE
  8
DETAIL
  6
CONTINUOUS
 62
     5
 10
-44.48900860260494
 20
172.77896010429819
 30
0.0
 11
-44.487901672146563
 21
172.7989137763702
 31
0.0
  0
LINE
  8
DETAIL
  6
CONTINUOUS
 62
     5
 10
-44.487901672146563
 20
172.7989137763702
 30
0.0
 11
-44.487901672146563
 21
172.7989137763702
 31
0.0
  0
LINE
  8
DETAIL
  6
CONTINUOUS
 62
     5
 10
-44.487901672146563
 20
172.7989137763702
 30
0.0
 11
-44.486645604191153
 21
172.8184079874186
 31
0.0
  0
LINE
  8
DETAIL
  6
CONTINUOUS
 62
     5
 10
-44.486645604191153
 20
172.8184079874186
 30
0.0
 11
-44.485105313086713
 21
172.83813125954489
 31
0.0
  0
LINE
  8
DETAIL
  6
CONTINUOUS
 62
     5
 10
-44.485105313086713
 20
172.83813125954489
 30
0.0
 11
-44.485105313086713
 21
172.83813125954489
 31
0.0
  0
LINE
  8
DETAIL
  6
CONTINUOUS
 62
     5
 10
-44.485105313086713
 20
172.83813125954489
 30
0.0
 11
-44.483225550969912
 21
172.85815525571209
 31
0.0
  0
LINE
  8
DETAIL
  6
CONTINUOUS
 62
     5
 10
-44.483225550969912
 20
172.85815525571209
 30
0.0
 11
-44.48137703242196
 21
172.87549855675709
 31
0.0
  0
LINE
  8
DETAIL
  6
CONTINUOUS
 62
     5
 10
-44.48137703242196
 20
172.87549855675709
 30
0.0
 11
-44.48137703242196
 21
172.87549855675709
 31
0.0
  0
LINE
  8
DETAIL
  6
CONTINUOUS
 62
     5
 10
-44.48137703242196
 20
172.87549855675709
 30
0.0
 11
-44.479895862266183
 21
172.88771348461611
 31
0.0
  0
LINE
  8
DETAIL
  6
CONTINUOUS
 62
     5
 10
-44.479895862266183
 20
172.88771348461611
 30
0.0
 11
-44.478553743867678
 21
172.89754040773869
 31
0.0
  0
LINE
  8
DETAIL
  6
CONTINUOUS
 62
     5
 10
-44.478553743867678
 20
172.89754040773869
 30
0.0
 11
-44.478553743867678
 21
172.89754040773869
 31
0.0
  0
LINE
  8
DETAIL
  6
CONTINUOUS
 62
     5
 10
-44.478553743867678
 20
172.89754040773869
 30
0.0
 11
-44.477062490640492
 21
172.90820826034999
 31
0.0
  0
LINE
  8
DETAIL
  6
CONTINUOUS
 62
     5
 10
-44.477062490640492
 20
172.90820826034999
 30
0.0
 11
-44.475458757677529
 21
172.9197121932522
 31
0.0
  0
LINE
  8
DETAIL
  6
CONTINUOUS
 62
     5
 10
-44.475458757677529
 20
172.9197121932522
 30
0.0
 11
-44.475458757677529
 21
172.9197121932522
 31
0.0
  0
LINE
  8
DETAIL
  6
CONTINUOUS
 62
     5
 10
-44.475458757677529
 20
172.9197121932522
 30
0.0
 11
-44.473844868178389
 21
172.93137616956031
 31
0.0
  0
LINE
  8
DETAIL
  6
CONTINUOUS
 62
     5
 10
-44.473844868178389
 20
172.93137616956031
 30
0.0
 11
-44.472260976109062
 21
172.94307318506159
 31
0.0
  0
LINE
  8
DETAIL
  6
CONTINUOUS
 62
     5
 10
-44.472260976109062
 20
172.94307318506159
 30
0.0
 11
-44.472260976109062
 21
172.94307318506159
 31
0.0
  0
LINE
  8
DETAIL
  6
CONTINUOUS
 62
     5
 10
-44.472260976109062
 20
172.94307318506159
 30
0.0
 11
-44.470712651942449
 21
172.95507290689559
 31
0.0
  0
LINE
  8
DETAIL
  6
CONTINUOUS
 62
     5
 10
-44.470712651942449
 20
172.95507290689559
 30
0.0
 11
-44.469129301417297
 21
172.96868265493049
 31
0.0
  0
LINE
  8
DETAIL
  6
CONTINUOUS
 62
     5
 10
-44.469129301417297
 20
172.96868265493049
 30
0.0
 11
-44.469129301417297
 21
172.96868265493049
 31
0.0
  0
LINE
  8
DETAIL
  6
CONTINUOUS
 62
     5
 10
-44.469129301417297
 20
172.96868265493049
 30
0.0
 11
-44.467512996130267
 21
172.98429425132099
 31
0.0
  0
LINE
  8
DETAIL
  6
CONTINUOUS
 62
     5
 10
-44.467512996130267
 20
172.98429425132099
 30
0.0
 11
-44.466232635857182
 21
172.99759987462309
 31
0.0
  0
LINE
  8
DETAIL
  6
CONTINUOUS
 62
     5
 10
-44.466232635857182
 20
172.99759987462309
 30
0.0
 11
-44.466232635857182
 21
172.99759987462309
 31
0.0
  0
LINE
  8
DETAIL
  6
CONTINUOUS
 62
     5
 10
-44.466232635857182
 20
172.99759987462309
 30
0.0
 11
-44.465575720021889
 21
173.0048468562604
 31
0.0
  0
LINE
  8
DETAIL
  6
CONTINUOUS
 62
     5
 10
-44.465575720021889
 20
173.0048468562604
 30
0.0
 11
-44.465137318468351
 21
173.0092027827159
 31
0.0
  0
LINE
  8
DETAIL
  6
CONTINUOUS
 62
     5
 10
-44.465137318468351
 20
173.0092027827159
 30
0.0
 11
-44.465137318468351
 21
173.0092027827159
 31
0.0
  0
LINE
  8
DETAIL
  6
CONTINUOUS
 62
     5
 10
-44.465137318468351
 20
173.0092027827159
 30
0.0
 11
-44.464442269592148
 21
173.01449870586521
 31
0.0
  0
LINE
  8
DETAIL
  6
CONTINUOUS
 62
     5
 10
-44.464442269592148
 20
173.01449870586521
 30
0.0
 11
-44.463426915578907
 21
173.0202992840855
 31
0.0
  0
LINE
  8
DETAIL
  6
CONTINUOUS
 62
     5
 10
-44.463426915578907
 20
173.0202992840855
 30
0.0
 11
-44.463426915578907
 21
173.0202992840855
 31
0.0
  0
LINE
  8
DETAIL
  6
CONTINUOUS
 62
     5
 10
-44.463426915578907
 20
173.0202992840855
 30
0.0
 11
-44.462110280853153
 21
173.0253993047636
 31
0.0
  0
LINE
  8
DETAIL
  6
CONTINUOUS
 62
     5
 10
-44.462110280853153
 20
173.0253993047636
 30
0.0
 11
-44.460430615027462
 21
173.02978046481439
 31
0.0
  0
LINE
  8
DETAIL
  6
CONTINUOUS
 62
     5
 10
-44.460430615027462
 20
173.02978046481439
 30
0.0
 11
-44.460430615027462
 21
173.02978046481439
 31
0.0
  0
LINE
  8
DETAIL
  6
CONTINUOUS
 62
     5
 10
-44.460430615027462
 20
173.02978046481439
 30
0.0
 11
-44.458283872876557
 21
173.03360087738159
 31
0.0
  0
LINE
  8
DETAIL
  6
CONTINUOUS
 62
     5
 10
-44.458283872876557
 20
173.03360087738159
 30
0.0
 11
-44.455477604656608
 21
173.0365374109862
 31
0.0
  0
LINE
  8
DETAIL
  6
CONTINUOUS
 62
     5
 10
-44.455477604656608
 20
173.0365374109862
 30
0.0
 11
-44.455477604656608
 21
173.0365374109862
 31
0.0
  0
LINE
  8
DETAIL
  6
CONTINUOUS
 62
     5
 10
-44.455477604656608
 20
173.0365374109862
 30
0.0
 11
-44.451905857717968
 21
173.0383311402334
 31
0.0
  0
LINE
  8
DETAIL
  6
CONTINUOUS
 62
     5
 10
-44.451905857717968
 20
173.0383311402334
 30
0.0
 11
-44.447897072307804
 21
173.03946120868301
 31
0.0
  0
ARC
  8
DETAIL
  6
CONTINUOUS
 62
     5
 10
-38.224810143561399
 20
171.56068701040661
 30
0.0
 40
0.8889882293781486
 50
90.999996406012627
 51
180.0
  0
ARC
  8
DETAIL
  6
CONTINUOUS
 62
     5
 10
-66.171986451462772
 20
167.75489302172949
 30
0.0
 40
4.0004470322020236
 50
93.999999999996504
 51
180.0
  0
ARC
  8
DETAIL
  6
CONTINUOUS
 62
     5
 10
-7.556399949714887
 20
-137.2527814060054
 30
0.0
 40
1.3334823440672889
 50
95.710494792794108
 51
179.99966872879691
  0
ARC
  8
DETAIL
  6
CONTINUOUS
 62
     5
 10
-7.556399949714887
 20
-141.14659407926871
 30
0.0
 40
1.3334823440673611
 50
179.99989032090309
 51
264.28906929641948
  0
ARC
  8
DETAIL
  6
CONTINUOUS
 62
     5
 10
-7.556399949714887
 20
-137.2527814060054
 30
0.0
 40
1.7779764587563729
 50
95.710593137484238
 51
180.0
  0
ARC
  8
DETAIL
  6
CONTINUOUS
 62
     5
 10
-7.556399949714887
 20
-141.14659407926871
 30
0.0
 40
1.777976458756257
 50
180.0
 51
264.28940686251582
  0
LINE
  8
DETAIL
  6
CONTINUOUS
 62
     5
 10
-44.447737151859542
 20
173.0394730489393
 30
0.0
 11
-39.113798372939527
 21
173.0394730489393
 31
0.0
  0
LINE
  8
DETAIL
  6
CONTINUOUS
 62
     5
 10
-38.240325127602773
 20
172.44954303781199
 30
0.0
 11
-0.4444941146889505
 21
173.0394730489393
 31
0.0
  0
LINE
  8
DETAIL
  6
CONTINUOUS
 62
     5
 10
-66.451043529963954
 20
171.74559516605041
 30
0.0
 11
-44.447897072307804
 21
173.03946120868301
 31
0.0
  0
LINE
  8
DETAIL
  6
CONTINUOUS
 62
     5
 10
-64.838504107395465
 20
161.48262606702249
 30
0.0
 11
-70.17243348366469
 21
161.48262606702249
 31
0.0
  0
LINE
  8
DETAIL
  6
CONTINUOUS
 62
     5
 10
-45.46371429719693
 20
157.03768492013111
 30
0.0
 11
-45.781210093276059
 21
157.03768492013111
 31
0.0
  0
LINE
  8
DETAIL
  6
CONTINUOUS
 62
     5
 10
-64.838504107395465
 20
161.48262606702249
 30
0.0
 11
-39.113798372939527
 21
155.2597084613744
 31
0.0
  0
LINE
  8
DETAIL
  6
CONTINUOUS
 62
     5
 10
-9.0021106212885798
 20
-142.18154380852999
 30
0.0
 11
-8.9533715489577617
 21
-142.09733381888151
 31
0.0
  0
LINE
  8
DETAIL
  6
CONTINUOUS
 62
     5
 10
-8.8898822937816249
 20
-137.2527814060054
 30
0.0
 11
-8.8898822937816249
 21
-141.14659407926871
 31
0.0
  0
LINE
  8
DETAIL
  6
CONTINUOUS
 62
     5
 10
-9.3343764084711438
 20
-137.2527814060054
 30
0.0
 11
-9.3343764084711438
 21
-141.14659407926871
 31
0.0
  0
LINE
  8
DETAIL
  6
CONTINUOUS
 62
     5
 10
-45.781210093276059
 20
157.03768492013111
 30
0.0
 11
-45.781210093276059
 21
157.1265837430692
 31
0.0
  0
LINE
  8
DETAIL
  6
CONTINUOUS
 62
     5
 10
-44.447727749208752
 20
169.03902601673741
 30
0.0
 11
-44.447897072307804
 21
169.048759064362
 31
0.0
  0
LINE
  8
DETAIL
  6
CONTINUOUS
 62
     5
 10
-8.9533714815726171
 20
-136.30204158069361
 30
0.0
 11
-9.0021106212885798
 21
-136.2178316767436
 31
0.0
  0
LINE
  8
DETAIL
  6
CONTINUOUS
 62
     5
 10
-70.17243348366469
 20
161.48262606702249
 30
0.0
 11
-70.17243348366469
 21
167.75489302172949
 31
0.0
  0
LINE
  8
DETAIL
  6
CONTINUOUS
 62
     5
 10
-0.4444941146889505
 20
-134.7547465957459
 30
0.0
 11
-7.7333152198330026
 21
-135.4836287062426
 31
0.0
  0
LINE
  8
DETAIL
  6
CONTINUOUS
 62
     5
 10
-0.3202122377629166
 20
-135.1890294646623
 30
0.0
 11
-7.6890864022597043
 21
-135.92591688127189
 31
0.0
  0
LINE
  8
DETAIL
  6
CONTINUOUS
 62
     5
 10
-7.6890942196664582
 20
-142.47345782240291
 30
0.0
 11
-0.3202122377629166
 21
-143.21034602043349
 31
0.0
  0
LINE
  8
DETAIL
  6
CONTINUOUS
 62
     5
 10
-7.7333152198330026
 20
-142.91574677903151
 30
0.0
 11
-0.4444941146889505
 21
-143.64462888952809
 31
0.0
  0
ARC
  8
DETAIL
  6
CONTINUOUS
 62
     5
 10
157.0893202979141
 20
3.39549316386092
 30
0.0
 40
0.269933218874832
 50
231.566877757236
 51
336.00000000001688
  0
ARC
  8
DETAIL
  6
CONTINUOUS
 62
     5
 10
157.22827200944241
 20
3.707583817741579
 30
0.0
 40
0.2699332188751239
 50
336.00000000001688
 51
65.999999999952607
  0
ARC
  8
DETAIL
  6
CONTINUOUS
 62
     5
 10
91.654787965784635
 20
27.014533232565551
 30
0.0
 40
0.299925798750068
 50
65.999999999974108
 51
156.00000000000239
  0
ARC
  8
DETAIL
  6
CONTINUOUS
 62
     5
 10
91.106796263614569
 20
27.25851485773137
 30
0.0
 40
0.299925798749976
 50
246.00000000001691
 51
336.00000000000239
  0
ARC
  8
DETAIL
  6
CONTINUOUS
 62
     5
 10
157.22827200944241
 20
3.707583817741579
 30
0.0
 40
0.5398664377502519
 50
336.00000000001688
 51
65.999999999988148
  0
ARC
  8
DETAIL
  6
CONTINUOUS
 62
     5
 10
157.0893202979141
 20
3.39549316386092
 30
0.0
 40
0.539866437749992
 50
231.56687775720289
 51
336.00000000001688
  0
LINE
  8
DETAIL
  6
CONTINUOUS
 62
     5
 10
154.17797825832389
 20
5.3611407885114204
 30
0.0
 11
156.92152961370971
 21
3.184045229403182
 31
0.0
  0
LINE
  8
DETAIL
  6
CONTINUOUS
 62
     5
 10
156.7537389296053
 20
2.9725972950450341
 30
0.0
 11
154.0101875741195
 21
5.1496928540536828
 31
0.0
  0
LINE
  8
DETAIL
  6
CONTINUOUS
 62
     5
 10
157.7214645413558
 20
3.4880003551024861
 30
0.0
 11
157.58251282982741
 21
3.175909701222281
 31
0.0
  0
LINE
  8
DETAIL
  6
CONTINUOUS
 62
     5
 10
157.3359165639207
 20
3.2857014325913951
 30
0.0
 11
157.47486827534931
 21
3.5977920863724648
 31
0.0
  0
LINE
  8
DETAIL
  6
CONTINUOUS
 62
     5
 10
157.4478554719814
 20
4.200776349654916
 30
0.0
 11
157.33806374071219
 21
3.9541800836482248
 31
0.0
  0
LINE
  8
DETAIL
  6
CONTINUOUS
 62
     5
 10
89.533245510310962
 20
33.102622800276087
 30
0.0
 11
157.4478554719814
 21
4.200776349654916
 31
0.0
  0
LINE
  8
DETAIL
  6
CONTINUOUS
 62
     5
 10
157.33806374071219
 20
3.9541800836482248
 30
0.0
 11
143.67480396699469
 21
10.03745526983039
 31
0.0
  0
LINE
  8
DETAIL
  6
CONTINUOUS
 62
     5
 10
154.0101875741195
 20
5.1496928540536828
 30
0.0
 11
154.17797825832389
 21
5.3611407885114204
 31
0.0
  0
LINE
  8
DETAIL
  6
CONTINUOUS
 62
     5
 10
142.56468757273731
 20
7.5440930249860676
 30
0.0
 11
143.78459569826379
 21
10.28405153573658
 31
0.0
  0
LINE
  8
DETAIL
  6
CONTINUOUS
 62
     5
 10
93.329421934432958
 20
26.597247812532711
 30
0.0
 11
91.776778778417452
 21
27.288529083650701
 31
0.0
  0
LINE
  8
DETAIL
  6
CONTINUOUS
 62
     5
 10
89.533245510310962
 20
27.630795130678958
 30
0.0
 11
90.984805451081911
 21
26.98451900664622
 31
0.0
  0
LINE
  8
DETAIL
  6
CONTINUOUS
 62
     5
 10
139.92477648818391
 20
6.5307260986369329
 30
0.0
 11
93.085440309367641
 21
26.049256110362421
 31
0.0
  0
LINE
  8
DETAIL
  6
CONTINUOUS
 62
     5
 10
89.533245510310962
 20
-148.65297982880159
 30
0.0
 11
89.533245510310962
 21
140.72107106270599
 31
0.0
  0
LINE
  8
DETAIL
  6
CONTINUOUS
 62
     5
 10
89.533245510310962
 20
-148.657337097919
 30
0.0
 11
89.533245510310962
 21
-149.1072257960441
 31
0.0
  0
LINE
  8
DETAIL
  6
CONTINUOUS
 62
     5
 10
93.085440309367641
 20
26.049256110362421
 30
0.0
 11
93.329421934432958
 21
26.597247812532711
 31
0.0
  0
LINE
  8
DETAIL
  6
CONTINUOUS
 62
     5
 10
139.9247764812857
 20
6.5307261013363131
 30
0.0
 11
142.56468757273731
 21
7.5440930249860676
 31
0.0
  0
ARC
  8
DETAIL
  6
CONTINUOUS
 62
     5
 10
157.08932029791441
 20
-82.952645828639561
 30
0.0
 40
0.269933218874832
 50
231.566877757236
 51
336.00000000001688
  0
ARC
  8
DETAIL
  6
CONTINUOUS
 62
     5
 10
157.22827200944269
 20
-82.640555174758902
 30
0.0
 40
0.2699332188751239
 50
336.00000000001688
 51
65.999999999952607
  0
ARC
  8
DETAIL
  6
CONTINUOUS
 62
     5
 10
91.654787965784863
 20
-59.333605759934471
 30
0.0
 40
0.299925798750068
 50
65.999999999974108
 51
156.00000000000239
  0
ARC
  8
DETAIL
  6
CONTINUOUS
 62
     5
 10
91.106796263614797
 20
-59.089624134769558
 30
0.0
 40
0.299925798749976
 50
246.00000000001691
 51
336.00000000000239
  0
ARC
  8
DETAIL
  6
CONTINUOUS
 62
     5
 10
157.22827200944269
 20
-82.640555174758902
 30
0.0
 40
0.5398664377502519
 50
336.00000000001688
 51
65.999999999988148
  0
ARC
  8
DETAIL
  6
CONTINUOUS
 62
     5
 10
157.08932029791441
 20
-82.952645828639561
 30
0.0
 40
0.539866437749992
 50
231.56687775720289
 51
336.00000000001688
  0
LINE
  8
DETAIL
  6
CONTINUOUS
 62
     5
 10
154.1779782583242
 20
-80.98699820398906
 30
0.0
 11
156.92152961370991
 21
-83.164093763097753
 31
0.0
  0
LINE
  8
DETAIL
  6
CONTINUOUS
 62
     5
 10
156.75373892960559
 20
-83.375541697454992
 30
0.0
 11
154.01018757411981
 21
-81.198446138446798
 31
0.0
  0
LINE
  8
DETAIL
  6
CONTINUOUS
 62
     5
 10
157.721464541356
 20
-82.86013863739754
 30
0.0
 11
157.58251282982761
 21
-83.172229291278654
 31
0.0
  0
LINE
  8
DETAIL
  6
CONTINUOUS
 62
     5
 10
157.3359165639209
 20
-83.062437559908631
 30
0.0
 11
157.47486827534951
 21
-82.750346906128016
 31
0.0
  0
LINE
  8
DETAIL
  6
CONTINUOUS
 62
     5
 10
157.4478554719816
 20
-82.147362642845565
 30
0.0
 11
157.33806374071241
 21
-82.393958908852255
 31
0.0
  0
LINE
  8
DETAIL
  6
CONTINUOUS
 62
     5
 10
89.53324551031119
 20
-53.245516192224393
 30
0.0
 11
157.4478554719816
 21
-82.147362642845565
 31
0.0
  0
LINE
  8
DETAIL
  6
CONTINUOUS
 62
     5
 10
157.33806374071241
 20
-82.393958908852255
 30
0.0
 11
143.67480396699489
 21
-76.310683722670092
 31
0.0
  0
LINE
  8
DETAIL
  6
CONTINUOUS
 62
     5
 10
154.01018757411981
 20
-81.198446138446798
 30
0.0
 11
154.1779782583242
 21
-80.98699820398906
 31
0.0
  0
LINE
  8
DETAIL
  6
CONTINUOUS
 62
     5
 10
142.56468757273751
 20
-78.804045967514412
 30
0.0
 11
143.7845956982641
 21
-76.064087456763446
 31
0.0
  0
LINE
  8
DETAIL
  6
CONTINUOUS
 62
     5
 10
93.329421934433185
 20
-59.750891179968221
 30
0.0
 11
91.776778778417679
 21
-59.059609908849318
 31
0.0
  0
LINE
  8
DETAIL
  6
CONTINUOUS
 62
     5
 10
89.53324551031119
 20
-58.717343861821973
 30
0.0
 11
90.984805451082138
 21
-59.363619985854712
 31
0.0
  0
LINE
  8
DETAIL
  6
CONTINUOUS
 62
     5
 10
139.92477648818411
 20
-79.817412893864002
 30
0.0
 11
93.085440309367868
 21
-60.298882882138507
 31
0.0
  0
LINE
  8
DETAIL
  6
CONTINUOUS
 62
     5
 10
93.085440309367868
 20
-60.298882882138507
 30
0.0
 11
93.329421934433185
 21
-59.750891179968221
 31
0.0
  0
LINE
  8
DETAIL
  6
CONTINUOUS
 62
     5
 10
139.9247764812859
 20
-79.817412891164167
 30
0.0
 11
142.56468757273751
 21
-78.804045967514412
 31
0.0
  0
ARC
  8
DETAIL
  6
CONTINUOUS
 62
     5
 10
157.08932029791441
 20
88.743755825111748
 30
0.0
 40
0.269933218874832
 50
231.566877757236
 51
336.00000000001688
  0
ARC
  8
DETAIL
  6
CONTINUOUS
 62
     5
 10
157.22827200944269
 20
89.055846478992407
 30
0.0
 40
0.2699332188751239
 50
336.00000000001688
 51
65.999999999952607
  0
ARC
  8
DETAIL
  6
CONTINUOUS
 62
     5
 10
157.22827200944269
 20
89.055846478992407
 30
0.0
 40
0.5398664377502519
 50
336.00000000001688
 51
65.999999999988148
  0
ARC
  8
DETAIL
  6
CONTINUOUS
 62
     5
 10
157.08932029791441
 20
88.743755825111748
 30
0.0
 40
0.539866437749992
 50
231.56687775720289
 51
336.00000000001688
  0
LINE
  8
DETAIL
  6
CONTINUOUS
 62
     5
 10
154.1779782583242
 20
90.709403449762249
 30
0.0
 11
156.92152961370991
 21
88.532307890653556
 31
0.0
  0
LINE
  8
DETAIL
  6
CONTINUOUS
 62
     5
 10
156.75373892960559
 20
88.320859956295863
 30
0.0
 11
154.01018757411981
 21
90.497955515304511
 31
0.0
  0
LINE
  8
DETAIL
  6
CONTINUOUS
 62
     5
 10
157.721464541356
 20
88.836263016353769
 30
0.0
 11
157.58251282982761
 21
88.524172362472655
 31
0.0
  0
LINE
  8
DETAIL
  6
CONTINUOUS
 62
     5
 10
157.3359165639209
 20
88.633964093842224
 30
0.0
 11
157.47486827534951
 21
88.946054747622838
 31
0.0
  0
LINE
  8
DETAIL
  6
CONTINUOUS
 62
     5
 10
157.4478554719816
 20
89.54903901090529
 30
0.0
 11
157.33806374071241
 21
89.302442744899054
 31
0.0
  0
LINE
  8
DETAIL
  6
CONTINUOUS
 62
     5
 10
89.53324551031119
 20
118.45088546152689
 30
0.0
 11
157.4478554719816
 21
89.54903901090529
 31
0.0
  0
LINE
  8
DETAIL
  6
CONTINUOUS
 62
     5
 10
157.33806374071241
 20
89.302442744899054
 30
0.0
 11
143.67480396699489
 21
95.385717931080762
 31
0.0
  0
LINE
  8
DETAIL
  6
CONTINUOUS
 62
     5
 10
154.01018757411981
 20
90.497955515304511
 30
0.0
 11
154.1779782583242
 21
90.709403449762249
 31
0.0
  0
LINE
  8
DETAIL
  6
CONTINUOUS
 62
     5
 10
142.56468757273751
 20
92.892355686236442
 30
0.0
 11
143.7845956982641
 21
95.632314196987863
 31
0.0
  0
LINE
  8
DETAIL
  6
CONTINUOUS
 62
     5
 10
93.329421934433185
 20
111.9455104737831
 30
0.0
 11
91.776778778417679
 21
112.636791744902
 31
0.0
  0
LINE
  8
DETAIL
  6
CONTINUOUS
 62
     5
 10
139.92477648818411
 20
91.878988759887307
 30
0.0
 11
93.085440309367868
 21
111.39751877161279
 31
0.0
  0
LINE
  8
DETAIL
  6
CONTINUOUS
 62
     5
 10
93.085440309367868
 20
111.39751877161279
 30
0.0
 11
93.329421934433185
 21
111.9455104737831
 31
0.0
  0
LINE
  8
DETAIL
  6
CONTINUOUS
 62
     5
 10
139.9247764812859
 20
91.878988762587142
 30
0.0
 11
142.56468757273751
 21
92.892355686236442
 31
0.0
  0
ARC
  8
DETAIL
  6
CONTINUOUS
 62
     5
 10
91.654787965784863
 20
112.3627958938168
 30
0.0
 40
0.299925798750068
 50
65.999999999974108
 51
156.00000000000239
  0
ARC
  8
DETAIL
  6
CONTINUOUS
 62
     5
 10
91.106796263614797
 20
112.6067775189817
 30
0.0
 40
0.299925798749976
 50
246.00000000001691
 51
336.00000000000239
  0
LINE
  8
DETAIL
  6
CONTINUOUS
 62
     5
 10
89.53324551031119
 20
112.97905779192931
 30
0.0
 11
90.984805451082138
 21
112.3327816678966
 31
0.0
  0
LINE
  8
DETAIL
  6
CONTINUOUS
 62
     5
 10
0.0053945834361002
 20
-149.1072257960441
 30
0.0
 11
89.533245510310962
 21
-149.1072257960441
 31
0.0
  0
LINE
  8
DETAIL
  6
CONTINUOUS
 62
     5
 10
-69.136061304557643
 20
161.48262606702249
 30
0.0
 11
-69.136061304557643
 21
-178.1911320516347
 31
0.0
  0
LINE
  8
DETAIL
  6
CONTINUOUS
 62
     5
 10
0.0000000000001137
 20
-194.2841028455878
 30
0.0
 11
0.0000000000001137
 21
-142.18896727636411
 31
0.0
  0
LINE
  8
DETAIL
  6
CONTINUOUS
 62
     5
 10
-0.4444941146889505
 20
-170.35207352946739
 30
0.0
 11
-40.642743250015428
 21
-170.35207352946739
 31
0.0
  0
ARC
  8
DETAIL
  6
CONTINUOUS
 62
     5
 10
-73.103354528058617
 20
-182.35586034189049
 30
0.0
 40
3.422107986123117
 50
105.0000609784971
 51
243.99665089030859
  0
LINE
  8
DETAIL
  6
CONTINUOUS
 62
     5
 10
-44.294084503937938
 20
-172.46018848014319
 30
0.0
 11
-73.989048229196328
 21
-179.05039375649861
 31
0.0
  0
LINE
  8
DETAIL
  6
CONTINUOUS
 62
     5
 10
-39.160925456453242
 20
-169.49654614699099
 30
0.0
 11
-44.294086898070653
 21
-172.46016042778959
 31
0.0
  0
ARC
  8
DETAIL
  6
CONTINUOUS
 62
     5
 10
-39.367899890404367
 20
-169.06310141391711
 30
0.0
 40
25.6658098959238
 50
243.99665089030859
 51
270.0
  0
LINE
  8
DETAIL
  6
CONTINUOUS
 62
     5
 10
-50.620403337216203
 20
-192.13067532863221
 30
0.0
 11
-74.603682826099202
 21
-185.431513026434
 31
0.0
  0
LINE
  8
DETAIL
  6
CONTINUOUS
 62
     5
 10
-0.4444941146889505
 20
-169.49654653293649
 30
0.0
 11
-39.160922869915339
 21
-169.49654653293649
 31
0.0
  0
LINE
  8
DETAIL
  6
CONTINUOUS
 62
     5
 10
-0.4444941146889505
 20
-194.72893741845249
 30
0.0
 11
-39.367899890404367
 21
-194.72893741845249
 31
0.0
  0
LINE
  8
DETAIL
  6
CONTINUOUS
 62
     5
 10
33.300750822366133
 20
140.72107106270599
 30
0.0
 11
33.300750822366133
 21
147.62829291409389
 31
0.0
  0
LINE
  8
DETAIL
  6
CONTINUOUS
 62
     5
 10
32.04493612655267
 20
148.8839168590371
 30
0.0
 11
33.300660758865888
 21
147.62819222672351
 31
0.0
  0
LINE
  8
DETAIL
  6
CONTINUOUS
 62
     5
 10
32.044892021205442
 20
148.884151715255
 30
0.0
 11
29.533174418883849
 21
148.884151715255
 31
0.0
  0
LINE
  8
DETAIL
  6
CONTINUOUS
 62
     5
 10
33.300750822366133
 20
147.62829291409389
 30
0.0
 11
29.533174418883849
 21
147.62829291409389
 31
0.0
  0
LINE
  8
DETAIL
  6
CONTINUOUS
 62
     5
 10
27.02145681656225
 20
148.884151715255
 30
0.0
 11
29.533174418883849
 21
148.884151715255
 31
0.0
  0
LINE
  8
DETAIL
  6
CONTINUOUS
 62
     5
 10
27.02141428785114
 20
148.8841065619122
 30
0.0
 11
25.765689655537809
 21
147.62838192959859
 31
0.0
  0
LINE
  8
DETAIL
  6
CONTINUOUS
 62
     5
 10
25.765598015401679
 20
147.62829291409389
 30
0.0
 11
29.533174418883849
 21
147.62829291409389
 31
0.0
  0
LINE
  8
DETAIL
  6
CONTINUOUS
 62
     5
 10
25.765598015401679
 20
140.72107106270599
 30
0.0
 11
25.765598015401679
 21
147.62829291409389
 31
0.0
  0
LINE
  8
DETAIL
  6
CONTINUOUS
 62
     5
 10
29.533174418883849
 20
135.63288895052941
 30
0.0
 11
29.533174418883849
 21
159.60035465440711
 31
0.0
  0
LINE
  8
DETAIL
  6
CONTINUOUS
 62
     5
 10
89.533245510310962
 20
140.72107106270599
 30
0.0
 11
0.0000000000001137
 21
140.72107106270599
 31
0.0
  0
LINE
  8
DETAIL
  6
CONTINUOUS
 62
     5
 10
60.940319362810897
 20
-149.1072257960441
 30
0.0
 11
61.040294629061009
 21
-149.1072257960441
 31
0.0
  0
LINE
  8
DETAIL
  6
CONTINUOUS
 62
     5
 10
72.105767346899256
 20
-127.0727348186701
 30
0.0
 11
72.105767346899256
 21
119.0863951154497
 31
0.0
  0
LINE
  8
DETAIL
  6
CONTINUOUS
 62
     5
 10
86.200064058949579
 20
119.0863951154497
 30
0.0
 11
86.200064058949579
 21
-127.0727348186701
 31
0.0
  0
LINE
  8
DETAIL
  6
CONTINUOUS
 62
     5
 10
80.294190398143087
 20
116.45029063805799
 30
0.0
 11
78.136227097186293
 21
114.2923342493937
 31
0.0
  0
LINE
  8
DETAIL
  6
CONTINUOUS
 62
     5
 10
78.136230553332325
 20
116.4502940942039
 30
0.0
 11
80.294186941997395
 21
114.2923307932474
 31
0.0
  0
CIRCLE
  8
DETAIL
  6
CONTINUOUS
 62
     5
 10
79.21520874766486
 20
115.3713124437259
 30
0.0
 40
3.41512836803778
  0
CIRCLE
  8
DETAIL
  6
CONTINUOUS
 62
     5
 10
79.21520874766486
 20
30.023049782475031
 30
0.0
 40
3.41512836803778
  0
LINE
  8
DETAIL
  6
CONTINUOUS
 62
     5
 10
80.294190398143087
 20
31.10202797680768
 30
0.0
 11
78.136227097186293
 21
28.944071588143292
 31
0.0
  0
LINE
  8
DETAIL
  6
CONTINUOUS
 62
     5
 10
78.136230553332325
 20
31.10203143295394
 30
0.0
 11
80.294186941997395
 21
28.944068131997032
 31
0.0
  0
CIRCLE
  8
DETAIL
  6
CONTINUOUS
 62
     5
 10
79.21520874766486
 20
-56.325089210024998
 30
0.0
 40
3.41512836803778
  0
LINE
  8
DETAIL
  6
CONTINUOUS
 62
     5
 10
80.294190398143087
 20
-55.246111015692797
 30
0.0
 11
78.136227097186293
 21
-57.404067404357647
 31
0.0
  0
LINE
  8
DETAIL
  6
CONTINUOUS
 62
     5
 10
78.136230553332325
 20
-55.246107559546999
 30
0.0
 11
80.294186941997395
 21
-57.404070860503452
 31
0.0
  0
LINE
  8
DETAIL
  6
CONTINUOUS
 62
     5
 10
-73.149559428080352
 20
-159.9146495796399
 30
0.0
 11
-67.385663533497222
 21
-159.9146495796399
 31
0.0
  0
ARC
  8
DETAIL
  6
CONTINUOUS
 62
     5
 10
-73.149559428080352
 20
-160.5990711768641
 30
0.0
 40
0.6844215972245924
 50
90.0
 51
134.99999999998161
  0
LINE
  8
DETAIL
  6
CONTINUOUS
 62
     5
 10
-75.799174680987335
 20
-162.2807681245954
 30
0.0
 11
-76.283133833574993
 21
-161.79680897200711
 31
0.0
  0
LINE
  8
DETAIL
  6
CONTINUOUS
 62
     5
 10
-75.799174680987335
 20
-162.2807681245954
 30
0.0
 11
-73.633518580668124
 21
-160.11511202427619
 31
0.0
  0
LINE
  8
DETAIL
  6
CONTINUOUS
 62
     5
 10
-76.283133833574993
 20
-161.79680897200711
 30
0.0
 11
-74.117477733256237
 21
-159.63115287168779
 31
0.0
  0
ARC
  8
DETAIL
  6
CONTINUOUS
 62
     5
 10
-73.149559428080352
 20
-160.5990711768641
 30
0.0
 40
1.3688431944492969
 50
90.0
 51
134.99999999999079
  0
LINE
  8
DETAIL
  6
CONTINUOUS
 62
     5
 10
-73.149559428080352
 20
-159.2302279824153
 30
0.0
 11
-67.385663533497222
 21
-159.2302279824153
 31
0.0
  0
CIRCLE
  8
ARRANGE
  6
CONTINUOUS
 62
     1
 10
0.0
 20
0.0
 30
0.0
 40
40.0
  0
POINT
  8
ARRANGE
  6
CONTINUOUS
 62
     1
 10
0.0
 20
0.0
 30
0.0
 39
50.0
  0
CIRCLE
  8
FIX
  6
CONTINUOUS
 62
    11
 39
57.8125
 10
0.0000000000001137
 20
153.30692263333091
 30
0.0
 40
5.78125
  0
CIRCLE
  8
FIX
  6
CONTINUOUS
 62
    11
 39
57.8125
 10
0.0000000000001137
 20
-161.6930773666692
 30
0.0
 40
5.78125
  0
LINE
  8
BASIS
  6
DASHDOT
 62
     6
 39
57.8125
 10
-10.04432689220971
 20
153.30692263333091
 30
0.0
 11
10.04432689220994
 21
153.30692263333091
 31
0.0
  0
LINE
  8
NOTE
  6
CONTINUOUS
 62
     4
 10
1.9989096050235839
 20
-168.591540055492
 30
0.0
 11
0.0000000000001137
 21
-161.6930773666692
 31
0.0
  0
LINE
  8
NOTE
  6
CONTINUOUS
 62
     4
 10
0.0000000000001137
 20
-161.6930773666692
 30
0.0
 11
5.1803453389520087
 21
-166.66785869325369
 31
0.0
  0
LINE
  8
NOTE
  6
CONTINUOUS
 62
     4
 10
0.0000000000001137
 20
-161.6930773666692
 30
0.0
 11
7.1792549439754794
 21
-173.5663213820765
 31
0.0
  0
LINE
  8
NOTE
  6
CONTINUOUS
 62
     4
 10
7.1792549439754794
 20
-173.5663213820765
 30
0.0
 11
95.040924312936909
 21
-318.50542624575752
 31
0.0
  0
LINE
  8
NOTE
  6
CONTINUOUS
 62
     4
 10
95.040924312936909
 20
-318.50542624575752
 30
0.0
 11
480.7531761600369
 21
-318.50542624575752
 31
0.0
  0
TEXT
  8
NOTE
  6
CONTINUOUS
 62
     4
 10
115.9332984973277
 20
-289.55452432747973
 30
0.0
 40
64.0
  1
4-φ5×8
 41
0.9
  0
LINE
  8
BASIS
  6
DASHDOT
 62
     6
 39
50.0
 10
170.47118079852149
 20
0.0
 30
0.0
 11
-91.799672610906214
 21
0.0
 31
0.0
  0
ARC
  8
OUTLINE
  6
CONTINUOUS
 62
     3
 10
-0.4444941146889505
 20
-194.2841028455878
 30
0.0
 40
0.4444941146890643
 50
270.0
 51
0.0
  0
LINE
  8
OUTLINE
  6
CONTINUOUS
 62
     3
 10
0.0
 20
-149.1072257960441
 30
0.0
 11
0.0
 21
-194.2841028455878
 31
0.0
  0
ARC
  8
OUTLINE
  6
CONTINUOUS
 62
     3
 10
-0.4444941146889505
 20
172.50608011131271
 30
0.0
 40
0.4444941146890643
 50
0.0
 51
90.0
  0
LINE
  8
OUTLINE
  6
CONTINUOUS
 62
     3
 10
0.0
 20
172.50608011131271
 30
0.0
 11
0.0
 21
140.72107106270599
 31
0.0
  0
ARC
  8
OUTLINE
  6
CONTINUOUS
 62
     3
 10
-38.224810143561399
 20
171.56068701040661
 30
0.0
 40
0.8889882293781486
 50
90.999996406012627
 51
180.0
  0
ARC
  8
OUTLINE
  6
CONTINUOUS
 62
     3
 10
-66.171986451462772
 20
167.75489302172949
 30
0.0
 40
4.0004470322020236
 50
93.999999999996504
 51
180.0
  0
LINE
  8
OUTLINE
  6
CONTINUOUS
 62
     3
 10
-44.447737151859663
 20
173.0394730489393
 30
0.0
 11
-39.113798372939527
 21
173.0394730489393
 31
0.0
  0
LINE
  8
OUTLINE
  6
CONTINUOUS
 62
     3
 10
-38.240325127602773
 20
172.44954303781199
 30
0.0
 11
-0.4444941146889505
 21
173.0394730489393
 31
0.0
  0
LINE
  8
OUTLINE
  6
CONTINUOUS
 62
     3
 10
-66.451043529963954
 20
171.74559516605041
 30
0.0
 11
-44.447897072307804
 21
173.03946120868301
 31
0.0
  0
LINE
  8
OUTLINE
  6
CONTINUOUS
 62
     3
 10
-69.136061304557643
 20
161.48262606702249
 30
0.0
 11
-70.17243348366469
 21
161.48262606702249
 31
0.0
  0
LINE
  8
OUTLINE
  6
CONTINUOUS
 62
     3
 10
-70.17243348366469
 20
161.48262606702249
 30
0.0
 11
-70.17243348366469
 21
167.75489302172949
 31
0.0
  0
LINE
  8
OUTLINE
  6
CONTINUOUS
 62
     3
 10
89.533245510310962
 20
-148.65297982880159
 30
0.0
 11
89.533245510310962
 21
140.72107106270599
 31
0.0
  0
LINE
  8
OUTLINE
  6
CONTINUOUS
 62
     3
 10
89.533245510310962
 20
-148.657337097919
 30
0.0
 11
89.533245510310962
 21
-149.1072257960441
 31
0.0
  0
LINE
  8
OUTLINE
  6
CONTINUOUS
 62
     3
 10
0.0
 20
-149.1072257960441
 30
0.0
 11
89.533245510310962
 21
-149.1072257960441
 31
0.0
  0
LINE
  8
OUTLINE
  6
CONTINUOUS
 62
     3
 10
-69.136061304557643
 20
161.48262606702249
 30
0.0
 11
-69.136061304557643
 21
-177.97337004524769
 31
0.0
  0
ARC
  8
OUTLINE
  6
CONTINUOUS
 62
     3
 10
-73.103354528058446
 20
-182.35586034189049
 30
0.0
 40
3.422107986123117
 50
105.0000609784971
 51
243.9966508903014
  0
LINE
  8
OUTLINE
  6
CONTINUOUS
 62
     3
 10
-69.136061304557643
 20
-177.97337004524769
 30
0.0
 11
-73.989048229196328
 21
-179.05039375649861
 31
0.0
  0
ARC
  8
OUTLINE
  6
CONTINUOUS
 62
     3
 10
-39.36789989040426
 20
-169.06310141391711
 30
0.0
 40
25.6658098959238
 50
243.9966508903014
 51
270.0
  0
LINE
  8
OUTLINE
  6
CONTINUOUS
 62
     3
 10
-50.620403337216203
 20
-192.13067532863221
 30
0.0
 11
-74.603682826099089
 21
-185.431513026434
 31
0.0
  0
LINE
  8
OUTLINE
  6
CONTINUOUS
 62
     3
 10
-0.4444941146889505
 20
-194.72893741845249
 30
0.0
 11
-39.36789989040426
 21
-194.72893741845249
 31
0.0
  0
LINE
  8
OUTLINE
  6
CONTINUOUS
 62
     3
 10
89.533245510310962
 20
140.72107106270599
 30
0.0
 11
0.0
 21
140.72107106270599
 31
0.0
  0
LINE
  8
OUTLINE
  6
CONTINUOUS
 62
     3
 10
60.940319362810897
 20
-149.1072257960441
 30
0.0
 11
61.040294629061009
 21
-149.1072257960441
 31
0.0
  0
LINE
  8
SIZE
  6
CONTINUOUS
 62
    30
 10
19.555505885311049
 20
173.0394730489393
 30
0.0
 11
724.56428819439702
 21
173.03947304893899
 31
0.0
  0
LINE
  8
SIZE
  6
CONTINUOUS
 62
    30
 10
19.555505885311049
 20
-194.72893741845249
 30
0.0
 11
724.56428819439702
 21
-194.72893741845269
 31
0.0
  0
LINE
  8
SIZE
  6
CONTINUOUS
 62
    30
 10
704.5642881943968
 20
161.03947304893899
 30
0.0
 11
704.5642881943968
 21
-182.72893741845269
 31
0.0
  0
CIRCLE
  8
SIZE
  6
CONTINUOUS
 62
    30
 10
704.5642881943968
 20
173.03947304893899
 30
0.0
 40
6.0
  0
LINE
  8
SIZE
  6
CONTINUOUS
 62
    30
 10
704.5642881943968
 20
173.03947304893899
 30
0.0
 11
704.5642881943968
 21
161.03947304893899
 31
0.0
  0
CIRCLE
  8
SIZE
  6
CONTINUOUS
 62
    30
 10
704.5642881943968
 20
-194.72893741845269
 30
0.0
 40
6.0
  0
LINE
  8
SIZE
  6
CONTINUOUS
 62
    30
 10
704.5642881943968
 20
-194.72893741845269
 30
0.0
 11
704.5642881943968
 21
-182.72893741845269
 31
0.0
  0
TEXT
  8
SIZE
  6
CONTINUOUS
 62
    30
 10
679.56428819439691
 20
-85.40187504189943
 30
0.0
 40
64.0
  1
368
 50
90.0
 41
0.9
 72
     1
 11
679.56428819439691
 21
-11.344732184756589
 31
0.0
  0
LINE
  8
SIZE
  6
CONTINUOUS
 62
    30
 10
109.533245510311
 20
140.72107106270599
 30
0.0
 11
435.87205998727228
 21
140.7210710627059
 31
0.0
  0
LINE
  8
SIZE
  6
CONTINUOUS
 62
    30
 10
109.533245510311
 20
-149.1072257960441
 30
0.0
 11
435.87205998727222
 21
-149.10722579604419
 31
0.0
  0
LINE
  8
SIZE
  6
CONTINUOUS
 62
    30
 10
415.87205998727228
 20
128.7210710627059
 30
0.0
 11
415.87205998727222
 21
-137.10722579604419
 31
0.0
  0
CIRCLE
  8
SIZE
  6
CONTINUOUS
 62
    30
 10
415.87205998727228
 20
140.7210710627059
 30
0.0
 40
6.0
  0
LINE
  8
SIZE
  6
CONTINUOUS
 62
    30
 10
415.87205998727228
 20
140.7210710627059
 30
0.0
 11
415.87205998727228
 21
128.7210710627059
 31
0.0
  0
CIRCLE
  8
SIZE
  6
CONTINUOUS
 62
    30
 10
415.87205998727222
 20
-149.10722579604419
 30
0.0
 40
6.0
  0
LINE
  8
SIZE
  6
CONTINUOUS
 62
    30
 10
415.87205998727222
 20
-149.10722579604419
 30
0.0
 11
415.87205998727222
 21
-137.10722579604419
 31
0.0
  0
TEXT
  8
SIZE
  6
CONTINUOUS
 62
    30
 10
390.87205998727222
 20
-114.7302202238119
 30
0.0
 40
64.0
  1
□290
 50
90.0
 41
0.9
 72
     1
 11
390.87205998727222
 21
-4.1930773666690584
 31
0.0
  0
LINE
  8
SIZE
  6
CONTINUOUS
 62
    30
 10
-70.17243348366469
 20
187.75489302172949
 30
0.0
 11
-70.17243348366469
 21
241.23792115940569
 31
0.0
  0
LINE
  8
SIZE
  6
CONTINUOUS
 62
    30
 10
-39.113798372939527
 20
193.0394730489393
 30
0.0
 11
-39.113798372939527
 21
241.23792115940569
 31
0.0
  0
LINE
  8
SIZE
  6
CONTINUOUS
 62
    30
 10
-27.113798372939531
 20
221.23792115940569
 30
0.0
 11
-15.113798372939531
 21
221.23792115940569
 31
0.0
  0
LINE
  8
SIZE
  6
CONTINUOUS
 62
    30
 10
-82.17243348366469
 20
221.23792115940569
 30
0.0
 11
-225.0867191979504
 21
221.23792115940569
 31
0.0
  0
LINE
  8
SIZE
  6
CONTINUOUS
 62
    30
 10
-39.113798372939527
 20
221.23792115940569
 30
0.0
 11
-70.17243348366469
 21
221.23792115940569
 31
0.0
  0
CIRCLE
  8
SIZE
  6
CONTINUOUS
 62
    30
 10
-39.113798372939527
 20
221.23792115940569
 30
0.0
 40
6.0
  0
LINE
  8
SIZE
  6
CONTINUOUS
 62
    30
 10
-39.113798372939527
 20
221.23792115940569
 30
0.0
 11
-27.113798372939531
 21
221.23792115940569
 31
0.0
  0
CIRCLE
  8
SIZE
  6
CONTINUOUS
 62
    30
 10
-70.17243348366469
 20
221.23792115940569
 30
0.0
 40
6.0
  0
LINE
  8
SIZE
  6
CONTINUOUS
 62
    30
 10
-70.17243348366469
 20
221.23792115940569
 30
0.0
 11
-82.17243348366469
 21
221.23792115940569
 31
0.0
  0
TEXT
  8
SIZE
  6
CONTINUOUS
 62
    30
 10
-200.0867191979504
 20
246.23792115940569
 30
0.0
 40
64.0
  1
31
 41
0.9
 72
     1
 11
-165.8010049122361
 21
246.23792115940569
 31
0.0
  0
LINE
  8
SIZE
  6
CONTINUOUS
 62
    30
 10
-70.17243348366469
 20
187.75489302172949
 30
0.0
 11
-70.17243348366469
 21
379.82562810445012
 31
0.0
  0
LINE
  8
SIZE
  6
CONTINUOUS
 62
    30
 10
0.0000000000001137
 20
192.15931027307849
 30
0.0
 11
0.0000000000001137
 21
379.82562810445012
 31
0.0
  0
LINE
  8
SIZE
  6
CONTINUOUS
 62
    30
 10
12.00000000000011
 20
359.82562810445012
 30
0.0
 11
24.00000000000011
 21
359.82562810445012
 31
0.0
  0
LINE
  8
SIZE
  6
CONTINUOUS
 62
    30
 10
-82.17243348366469
 20
359.82562810445012
 30
0.0
 11
-237.4295763408077
 21
359.82562810445012
 31
0.0
  0
LINE
  8
SIZE
  6
CONTINUOUS
 62
    30
 10
0.0000000000001137
 20
359.82562810445012
 30
0.0
 11
-70.17243348366469
 21
359.82562810445012
 31
0.0
  0
CIRCLE
  8
SIZE
  6
CONTINUOUS
 62
    30
 10
0.0000000000001137
 20
359.82562810445012
 30
0.0
 40
6.0
  0
LINE
  8
SIZE
  6
CONTINUOUS
 62
    30
 10
0.0000000000001137
 20
359.82562810445012
 30
0.0
 11
12.00000000000011
 21
359.82562810445012
 31
0.0
  0
CIRCLE
  8
SIZE
  6
CONTINUOUS
 62
    30
 10
-70.17243348366469
 20
359.82562810445012
 30
0.0
 40
6.0
  0
LINE
  8
SIZE
  6
CONTINUOUS
 62
    30
 10
-70.17243348366469
 20
359.82562810445012
 30
0.0
 11
-82.17243348366469
 21
359.82562810445012
 31
0.0
  0
TEXT
  8
SIZE
  6
CONTINUOUS
 62
    30
 10
-212.4295763408075
 20
384.82562810445012
 30
0.0
 40
64.0
  1
70
 41
0.9
 72
     1
 11
-165.8010049122361
 21
384.82562810445012
 31
0.0
  0
LINE
  8
SIZE
  6
CONTINUOUS
 62
    30
 10
0.0000000000001137
 20
192.15931027307849
 30
0.0
 11
0.0000000000001137
 21
261.19539552841343
 31
0.0
  0
LINE
  8
SIZE
  6
CONTINUOUS
 62
    30
 10
29.533174418883849
 20
179.60035465440711
 30
0.0
 11
29.533174418883849
 21
261.19539552841343
 31
0.0
  0
LINE
  8
SIZE
  6
CONTINUOUS
 62
    30
 10
-11.99999999999989
 20
241.1953955284134
 30
0.0
 11
-23.99999999999989
 21
241.1953955284134
 31
0.0
  0
LINE
  8
SIZE
  6
CONTINUOUS
 62
    30
 10
41.533174418883853
 20
241.1953955284134
 30
0.0
 11
299.04620946065643
 21
241.1953955284134
 31
0.0
  0
LINE
  8
SIZE
  6
CONTINUOUS
 62
    30
 10
0.0000000000001137
 20
241.1953955284134
 30
0.0
 11
29.533174418883849
 21
241.1953955284134
 31
0.0
  0
CIRCLE
  8
SIZE
  6
CONTINUOUS
 62
    30
 10
0.0000000000001137
 20
241.1953955284134
 30
0.0
 40
6.0
  0
LINE
  8
SIZE
  6
CONTINUOUS
 62
    30
 10
0.0000000000001137
 20
241.1953955284134
 30
0.0
 11
-11.99999999999989
 21
241.1953955284134
 31
0.0
  0
CIRCLE
  8
SIZE
  6
CONTINUOUS
 62
    30
 10
29.533174418883849
 20
241.1953955284134
 30
0.0
 40
6.0
  0
LINE
  8
SIZE
  6
CONTINUOUS
 62
    30
 10
29.533174418883849
 20
241.1953955284134
 30
0.0
 11
41.533174418883853
 21
241.1953955284134
 31
0.0
  0
TEXT
  8
SIZE
  6
CONTINUOUS
 62
    30
 10
180.7890666035137
 20
266.19539552841343
 30
0.0
 40
64.0
  1
30
 41
0.9
 72
     1
 11
227.41763803208519
 21
266.19539552841343
 31
0.0
  0
LINE
  8
SIZE
  6
CONTINUOUS
 62
    30
 10
0.0000000000001137
 20
192.15931027307849
 30
0.0
 11
0.0000000000001137
 21
379.82562810445012
 31
0.0
  0
LINE
  8
SIZE
  6
CONTINUOUS
 62
    30
 10
89.533245510310962
 20
160.72107106270599
 30
0.0
 11
89.533245510310962
 21
379.82562810445012
 31
0.0
  0
LINE
  8
SIZE
  6
CONTINUOUS
 62
    30
 10
-11.99999999999989
 20
359.82562810445012
 30
0.0
 11
-23.99999999999989
 21
359.82562810445012
 31
0.0
  0
LINE
  8
SIZE
  6
CONTINUOUS
 62
    30
 10
101.533245510311
 20
359.82562810445012
 30
0.0
 11
113.533245510311
 21
359.82562810445012
 31
0.0
  0
LINE
  8
SIZE
  6
CONTINUOUS
 62
    30
 10
0.0000000000001137
 20
359.82562810445012
 30
0.0
 11
89.533245510310962
 21
359.82562810445012
 31
0.0
  0
CIRCLE
  8
SIZE
  6
CONTINUOUS
 62
    30
 10
0.0000000000001137
 20
359.82562810445012
 30
0.0
 40
6.0
  0
LINE
  8
SIZE
  6
CONTINUOUS
 62
    30
 10
0.0000000000001137
 20
359.82562810445012
 30
0.0
 11
-11.99999999999989
 21
359.82562810445012
 31
0.0
  0
CIRCLE
  8
SIZE
  6
CONTINUOUS
 62
    30
 10
89.533245510310962
 20
359.82562810445012
 30
0.0
 40
6.0
  0
LINE
  8
SIZE
  6
CONTINUOUS
 62
    30
 10
89.533245510310962
 20
359.82562810445012
 30
0.0
 11
101.533245510311
 21
359.82562810445012
 31
0.0
  0
TEXT
  8
SIZE
  6
CONTINUOUS
 62
    30
 10
-1.8619486734158881
 20
384.82562810445012
 30
0.0
 40
64.0
  1
90
 41
0.9
 72
     1
 11
44.766622755155538
 21
384.82562810445012
 31
0.0
  0
LINE
  8
SIZE
  6
CONTINUOUS
 62
    30
 10
89.533245510310962
 20
160.72107106270599
 30
0.0
 11
89.533245510310962
 21
379.82562810445012
 31
0.0
  0
LINE
  8
SIZE
  6
CONTINUOUS
 62
    30
 10
157.7214645413832
 20
108.83626301639271
 30
0.0
 11
157.7214645413832
 21
379.82562810445012
 31
0.0
  0
LINE
  8
SIZE
  6
CONTINUOUS
 62
    30
 10
77.533245510310962
 20
359.82562810445012
 30
0.0
 11
65.533245510310962
 21
359.82562810445012
 31
0.0
  0
LINE
  8
SIZE
  6
CONTINUOUS
 62
    30
 10
169.7214645413832
 20
359.82562810445012
 30
0.0
 11
324.97860739852598
 21
359.82562810445012
 31
0.0
  0
LINE
  8
SIZE
  6
CONTINUOUS
 62
    30
 10
89.533245510310962
 20
359.82562810445012
 30
0.0
 11
157.7214645413832
 21
359.82562810445012
 31
0.0
  0
CIRCLE
  8
SIZE
  6
CONTINUOUS
 62
    30
 10
89.533245510310962
 20
359.82562810445012
 30
0.0
 40
6.0
  0
LINE
  8
SIZE
  6
CONTINUOUS
 62
    30
 10
89.533245510310962
 20
359.82562810445012
 30
0.0
 11
77.533245510310962
 21
359.82562810445012
 31
0.0
  0
CIRCLE
  8
SIZE
  6
CONTINUOUS
 62
    30
 10
157.7214645413832
 20
359.82562810445012
 30
0.0
 40
6.0
  0
LINE
  8
SIZE
  6
CONTINUOUS
 62
    30
 10
157.7214645413832
 20
359.82562810445012
 30
0.0
 11
169.7214645413832
 21
359.82562810445012
 31
0.0
  0
TEXT
  8
SIZE
  6
CONTINUOUS
 62
    30
 10
206.7214645413832
 20
384.82562810445012
 30
0.0
 40
64.0
  1
68
 41
0.9
 72
     1
 11
253.35003596995469
 21
384.82562810445012
 31
0.0
  0
ARC
  8
DETAIL
  6
CONTINUOUS
 62
     5
 39
50.0
 10
79.152915702924417
 20
117.8918383523077
 30
0.0
 40
7.1476755530869074
 50
9.6207144331106687
 51
170.37928556688931
  0
ARC
  8
DETAIL
  6
CONTINUOUS
 62
     5
 39
50.0
 10
79.152915702924417
 20
-125.960591052266
 30
0.0
 40
7.1343649828824676
 50
188.968153623315
 51
351.031846376685
  0
LINE
  8
SIZE
  6
CONTINUOUS
 62
    30
 10
0.0000000000001137
 20
-236.75630705149601
 30
0.0
 11
0.0000000000001137
 21
-333.94485386508592
 31
0.0
  0
LINE
  8
SIZE
  6
CONTINUOUS
 62
    30
 10
-76.525462514181584
 20
-202.35586034189049
 30
0.0
 11
-76.52546251418164
 21
-333.94485386508592
 31
0.0
  0
LINE
  8
SIZE
  6
CONTINUOUS
 62
    30
 10
-11.99999999999989
 20
-313.94485386508592
 30
0.0
 11
-64.52546251418164
 21
-313.94485386508592
 31
0.0
  0
LINE
  8
SIZE
  6
CONTINUOUS
 62
    30
 10
-76.52546251418164
 20
-313.94485386508592
 30
0.0
 11
-314.06831965703873
 21
-313.94485386508592
 31
0.0
  0
CIRCLE
  8
SIZE
  6
CONTINUOUS
 62
    30
 10
0.0000000000001137
 20
-313.94485386508592
 30
0.0
 40
6.0
  0
LINE
  8
SIZE
  6
CONTINUOUS
 62
    30
 10
0.0000000000001137
 20
-313.94485386508592
 30
0.0
 11
-11.99999999999989
 21
-313.94485386508592
 31
0.0
  0
CIRCLE
  8
SIZE
  6
CONTINUOUS
 62
    30
 10
-76.52546251418164
 20
-313.94485386508592
 30
0.0
 40
6.0
  0
LINE
  8
SIZE
  6
CONTINUOUS
 62
    30
 10
-76.52546251418164
 20
-313.94485386508592
 30
0.0
 11
-64.52546251418164
 21
-313.94485386508592
 31
0.0
  0
TEXT
  8
SIZE
  6
CONTINUOUS
 62
    30
 10
-289.06831965703878
 20
-288.94485386508592
 30
0.0
 40
64.0
  1
76.5
 41
0.9
 72
     1
 11
-201.29689108561021
 21
-288.94485386508592
 31
0.0
  0
LINE
  8
SIZE
  6
CONTINUOUS
 62
    30
 10
-20.444494114688951
 20
173.0394730489393
 30
0.0
 11
-175.8145658505494
 21
173.0394730489393
 31
0.0
  0
LINE
  8
SIZE
  6
CONTINUOUS
 62
    30
 10
-111.7996726109062
 20
0.0
 30
0.0
 11
-175.8145658505496
 21
0.0
 31
0.0
  0
LINE
  8
SIZE
  6
CONTINUOUS
 62
    30
 10
-155.8145658505494
 20
161.0394730489393
 30
0.0
 11
-155.81456585054951
 21
12.0
 31
0.0
  0
CIRCLE
  8
SIZE
  6
CONTINUOUS
 62
    30
 10
-155.8145658505494
 20
173.0394730489393
 30
0.0
 40
6.0
  0
LINE
  8
SIZE
  6
CONTINUOUS
 62
    30
 10
-155.8145658505494
 20
173.0394730489393
 30
0.0
 11
-155.8145658505494
 21
161.0394730489393
 31
0.0
  0
CIRCLE
  8
SIZE
  6
CONTINUOUS
 62
    30
 10
-155.81456585054951
 20
0.0
 30
0.0
 40
6.0
  0
LINE
  8
SIZE
  6
CONTINUOUS
 62
    30
 10
-155.81456585054951
 20
0.0
 30
0.0
 11
-155.81456585054951
 21
12.0
 31
0.0
  0
TEXT
  8
SIZE
  6
CONTINUOUS
 62
    30
 10
-180.8145658505496
 20
17.94830795304102
 30
0.0
 40
64.0
  1
173
 50
90.0
 41
0.9
 72
     1
 11
-180.8145658505496
 21
86.519736524469579
 31
0.0
  0
LINE
  8
SIZE
  6
CONTINUOUS
 62
    30
 10
30.044326892209941
 20
153.30692263333091
 30
0.0
 11
570.93275081724562
 21
153.3069226333308
 31
0.0
  0
LINE
  8
SIZE
  6
CONTINUOUS
 62
    30
 10
33.3436727527519
 20
-161.6930773666692
 30
0.0
 11
570.93275081724562
 21
-161.69307736666931
 31
0.0
  0
LINE
  8
SIZE
  6
CONTINUOUS
 62
    30
 10
550.93275081724562
 20
141.3069226333308
 30
0.0
 11
550.93275081724562
 21
-149.69307736666931
 31
0.0
  0
CIRCLE
  8
SIZE
  6
CONTINUOUS
 62
    30
 10
550.93275081724562
 20
153.3069226333308
 30
0.0
 40
6.0
  0
LINE
  8
SIZE
  6
CONTINUOUS
 62
    30
 10
550.93275081724562
 20
153.3069226333308
 30
0.0
 11
550.93275081724562
 21
141.3069226333308
 31
0.0
  0
CIRCLE
  8
SIZE
  6
CONTINUOUS
 62
    30
 10
550.93275081724562
 20
-161.69307736666931
 30
0.0
 40
6.0
  0
LINE
  8
SIZE
  6
CONTINUOUS
 62
    30
 10
550.93275081724562
 20
-161.69307736666931
 30
0.0
 11
550.93275081724562
 21
-149.69307736666931
 31
0.0
  0
TEXT
  8
SIZE
  6
CONTINUOUS
 62
    30
 10
525.93275081724562
 20
-72.764505938097741
 30
0.0
 40
64.0
  1
315
 50
90.0
 41
0.9
 72
     1
 11
525.93275081724562
 21
-4.1930773666691721
 31
0.0
  0
LINE
  8
OUTLINE
  6
CONTINUOUS
 62
     3
 39
50.0
 10
-39.113798372939527
 20
173.0394730489393
 30
0.0
 11
-39.113798372939527
 21
171.56068701040661
 31
0.0
  0
LINE
  8
BASIS
  6
DASHDOT
 62
     6
 39
50.0
 10
0.0000000000001137
 20
163.35127263333089
 30
0.0
 11
0.0000000000001137
 21
143.2625726333309
 31
0.0
  0
LINE
  8
BASIS
  6
DASHDOT
 62
     6
 39
57.8125
 10
-10.04432689220971
 20
-161.6930773666692
 30
0.0
 11
10.04432689220994
 21
-161.6930773666692
 31
0.0
  0
LINE
  8
BASIS
  6
DASHDOT
 62
     6
 39
50.0
 10
0.0000000000001137
 20
-151.64872736666919
 30
0.0
 11
0.0000000000001137
 21
-171.73742736666921
 31
0.0
  0
ENDSEC
  0
EOF
