  0
SECTION
  2
HEADER
  9
$ACADVER
  1
AC1009
  9
$DWGCODEPAGE
  3
dos932
  9
$INSBASE
 10
0.0
 20
0.0
 30
0.0
  9
$EXTMIN
 10
-756.85646309536435
 20
-324.35128678229188
 30
0.0
  9
$EXTMAX
 10
973.62752291009406
 20
491.85528737714571
 30
0.0
  9
$LIMMIN
 10
-2970.0
 20
-2100.0
  9
$LIMMAX
 10
2970.0
 20
2100.0
  9
$ORTHOMODE
 70
     1
  9
$REGENMODE
 70
     1
  9
$FILLMODE
 70
     1
  9
$QTEXTMODE
 70
     0
  9
$MIRRTEXT
 70
     0
  9
$LTSCALE
 40
20.0
  9
$ATTMODE
 70
     1
  9
$TEXTSIZE
 40
64.0
  9
$TRACEWID
 40
0.05
  9
$TEXTSTYLE
  7
STANDARD
  9
$CLAYER
  8
NOTE
  9
$CELTYPE
  6
CONTINUOUS
  9
$CECOLOR
 62
     7
  9
$DIMSCALE
 40
1.0
  9
$DIMASZ
 40
12.0
  9
$DIMEXO
 40
20.0
  9
$DIMDLI
 40
200.0
  9
$DIMRND
 40
0.0
  9
$DIMDLE
 40
0.0
  9
$DIMEXE
 40
20.0
  9
$DIMTP
 40
0.0
  9
$DIMTM
 40
0.0
  9
$DIMTXT
 40
64.0
  9
$DIMCEN
 40
0.09
  9
$DIMTSZ
 40
0.0
  9
$DIMTOL
 70
     0
  9
$DIMLIM
 70
     0
  9
$DIMTIH
 70
     0
  9
$DIMTOH
 70
     0
  9
$DIMSE1
 70
     0
  9
$DIMSE2
 70
     0
  9
$DIMTAD
 70
     1
  9
$DIMZIN
 70
     8
  9
$DIMBLK
  1

  9
$DIMASO
 70
     1
  9
$DIMSHO
 70
     0
  9
$DIMPOST
  1

  9
$DIMAPOST
  1

  9
$DIMALT
 70
     0
  9
$DIMALTD
 70
     2
  9
$DIMALTF
 40
25.399999999999999
  9
$DIMLFAC
 40
1.0
  9
$DIMTOFL
 70
     1
  9
$DIMTVP
 40
0.0
  9
$DIMTIX
 70
     1
  9
$DIMSOXD
 70
     0
  9
$DIMSAH
 70
     0
  9
$DIMBLK1
  1

  9
$DIMBLK2
  1

  9
$DIMSTYLE
  2
STANDARD
  9
$DIMCLRD
 70
     7
  9
$DIMCLRE
 70
     7
  9
$DIMCLRT
 70
     7
  9
$DIMTFAC
 40
1.0
  9
$DIMGAP
 40
25.0
  9
$LUNITS
 70
     2
  9
$LUPREC
 70
     4
  9
$SKETCHINC
 40
0.1
  9
$FILLETRAD
 40
3.0
  9
$AUNITS
 70
     1
  9
$AUPREC
 70
     3
  9
$MENU
  1
ACAD
  9
$ELEVATION
 40
0.0
  9
$PELEVATION
 40
0.0
  9
$THICKNESS
 40
50.0
  9
$LIMCHECK
 70
     0
  9
$CHAMFERA
 40
0.0
  9
$CHAMFERB
 40
0.0
  9
$SKPOLY
 70
     0
  9
$TDCREATE
 40
2453019.62301037
  9
$TDUPDATE
 40
2459017.510797222
  9
$TDINDWG
 40
1.7156823148
  9
$TDUSRTIMER
 40
1.7156823148
  9
$USRTIMER
 70
     1
  9
$ANGBASE
 50
0.0
  9
$ANGDIR
 70
     0
  9
$PDMODE
 70
     3
  9
$PDSIZE
 40
-2.0
  9
$PLINEWID
 40
0.0
  9
$SPLFRAME
 70
     0
  9
$SPLINETYPE
 70
     6
  9
$SPLINESEGS
 70
     8
  9
$SURFTAB1
 70
     6
  9
$SURFTAB2
 70
     6
  9
$SURFTYPE
 70
     6
  9
$SURFU
 70
     6
  9
$SURFV
 70
     6
  9
$UCSNAME
  2

  9
$UCSORG
 10
0.0
 20
0.0
 30
0.0
  9
$UCSXDIR
 10
1.0
 20
0.0
 30
0.0
  9
$UCSYDIR
 10
0.0
 20
1.0
 30
0.0
  9
$PUCSNAME
  2

  9
$PUCSORG
 10
0.0
 20
0.0
 30
0.0
  9
$PUCSXDIR
 10
1.0
 20
0.0
 30
0.0
  9
$PUCSYDIR
 10
0.0
 20
1.0
 30
0.0
  9
$USERI1
 70
     0
  9
$USERI2
 70
     0
  9
$USERI3
 70
     0
  9
$USERI4
 70
     0
  9
$USERI5
 70
     0
  9
$USERR1
 40
20.0
  9
$USERR2
 40
0.0
  9
$USERR3
 40
0.0
  9
$USERR4
 40
0.0
  9
$USERR5
 40
0.0
  9
$WORLDVIEW
 70
     1
  9
$SHADEDGE
 70
     3
  9
$SHADEDIF
 70
    70
  9
$TILEMODE
 70
     1
  9
$MAXACTVP
 70
    48
  9
$PINSBASE
 10
0.0
 20
0.0
 30
0.0
  9
$PLIMCHECK
 70
     0
  9
$PEXTMIN
 10
-100000000000000000000.0
 20
-100000000000000000000.0
 30
-100000000000000000000.0
  9
$PEXTMAX
 10
100000000000000000000.0
 20
100000000000000000000.0
 30
100000000000000000000.0
  9
$PLIMMIN
 10
0.0
 20
0.0
  9
$PLIMMAX
 10
12.0
 20
9.0
  9
$UNITMODE
 70
     0
  9
$VISRETAIN
 70
     0
  9
$PLINEGEN
 70
     0
  9
$PSLTSCALE
 70
     0
  9
$TREEDEPTH
 70
  3020
  9
$ATTDIA
 70
     0
  9
$ATTREQ
 70
     1
  9
$BLIPMODE
 70
     1
  9
$COORDS
 70
     1
  9
$DRAGMODE
 70
     2
  9
$OSMODE
 70
     0
  9
$HANDLING
 70
     0
  9
$HANDSEED
  5
12185
  0
ENDSEC
  0
SECTION
  2
TABLES
  0
TABLE
  2
LTYPE
 70
     2
  0
LTYPE
  2
CONTINUOUS
 70
     0
  3
実線
 72
    65
 73
     0
 40
0.0
  0
LTYPE
  2
DASHDOT
 70
     0
  3
____ _ ____ _ ____ _ ____ _ ____ _ ____ _ ____
 72
    65
 73
     4
 40
5.5
 49
4.0
 49
-0.6
 49
0.3
 49
-0.6
  0
ENDTAB
  0
TABLE
  2
LAYER
 70
    12
  0
LAYER
  2
0
 70
     0
 62
     7
  6
CONTINUOUS
  0
LAYER
  2
BASIS
 70
     0
 62
     6
  6
DASHDOT
  0
LAYER
  2
OUTLINE
 70
     0
 62
     3
  6
CONTINUOUS
  0
LAYER
  2
DETAIL
 70
     0
 62
     5
  6
CONTINUOUS
  0
LAYER
  2
SIZE
 70
     0
 62
    30
  6
CONTINUOUS
  0
LAYER
  2
ARRANGE
 70
     0
 62
     1
  6
CONTINUOUS
  0
LAYER
  2
ETC
 70
     0
 62
    61
  6
CONTINUOUS
  0
LAYER
  2
FIX
 70
     0
 62
    11
  6
CONTINUOUS
  0
LAYER
  2
NOTE
 70
     0
 62
     4
  6
CONTINUOUS
  0
LAYER
  2
DEFPOINTS
 70
    64
 62
     7
  6
CONTINUOUS
  0
LAYER
  2
SERVICESPACE
 70
    64
 62
     2
  6
DASHDOT
  0
LAYER
  2
SYMBOLLINE
 70
    64
 62
    15
  6
CONTINUOUS
  0
ENDTAB
  0
TABLE
  2
STYLE
 70
     1
  0
STYLE
  2
STANDARD
 70
     0
 40
64.0
 41
0.9
 50
0.0
 71
     0
 42
64.0
  3
SIMPLEX.shx
  4
BIGFONT.shx
  0
ENDTAB
  0
TABLE
  2
APPID
 70
    17
  0
APPID
  2
ACAD
 70
     0
  0
APPID
  2
AUTOCAD_POSTSCRIPT_FIGURE
 70
     0
  0
APPID
  2
ACAD_EXEMPT_FROM_CAD_STANDARDS
 70
     0
  0
APPID
  2
ACAD_PSEXT
 70
     0
  0
APPID
  2
ACAUTHENVIRON
 70
     0
  0
APPID
  2
GENIUS_GENOENT_13
 70
     0
  0
APPID
  2
GENIUS_GENCFG_13
 70
     0
  0
APPID
  2
GENIUS_GENCFG0_13
 70
     0
  0
APPID
  2
GENIUS_GENCFG1_13
 70
     0
  0
APPID
  2
GENIUS_GENCFG2_13
 70
     0
  0
APPID
  2
GENIUS_GENCFG3_13
 70
     0
  0
APPID
  2
GENIUS_GENCFG4_13
 70
     0
  0
APPID
  2
GENIUS_GEVCFG0_13
 70
     0
  0
APPID
  2
CONTENTBLOCKICON
 70
     0
  0
APPID
  2
CONTENTBLOCKDESCRIPTION
 70
     0
  0
APPID
  2
ACAD_NAV_VCDISPLAY
 70
     0
  0
APPID
  2
ACAD_MLEADERVER
 70
     0
  0
ENDTAB
  0
TABLE
  2
DIMSTYLE
 70
     1
  0
DIMSTYLE
  2
STANDARD
 70
     0
  3

  4

  5
_ORIGIN
  6

  7

 40
1.0
 41
12.0
 42
20.0
 43
200.0
 44
20.0
 45
0.0
 46
0.0
 47
0.0
 48
0.0
140
64.0
141
0.09
142
0.0
143
25.399999999999999
144
1.0
145
0.0
146
1.0
147
25.0
 71
     0
 72
     0
 73
     0
 74
     0
 75
     0
 76
     0
 77
     1
 78
     8
170
     0
171
     2
172
     1
173
     0
174
     1
175
     0
176
     7
177
     7
178
     7
  0
ENDTAB
  0
TABLE
  2
VIEW
 70
     1
  0
VIEW
  2
ALL
 70
     0
 40
4282.6198079999986
 10
0.0
 20
41.309904000000003
 41
5940.0
 11
0.0
 21
0.0
 31
1.0
 12
0.0
 22
0.0
 32
0.0
 42
50.0
 43
0.0
 44
0.0
 50
0.0
 71
     0
  0
ENDTAB
  0
TABLE
  2
UCS
 70
     0
  0
ENDTAB
  0
TABLE
  2
VPORT
 70
     1
  0
VPORT
  2
*ACTIVE
 70
     0
 10
0.0
 20
0.0
 11
1.0
 21
1.0
 12
108.3855299073649
 22
83.752000297426889
 13
0.0
 23
0.0
 14
1.0
 24
1.0
 15
0.0
 25
0.0
 16
0.0
 26
0.0
 36
1.0
 17
0.0
 27
0.0
 37
0.0
 40
777.51340834891698
 41
1.988684582743989
 42
50.0
 43
0.0
 44
0.0
 50
0.0
 51
0.0
 71
     0
 72
  1000
 73
     1
 74
     3
 75
     0
 76
     0
 77
     0
 78
     0
  0
ENDTAB
  0
ENDSEC
  0
SECTION
  2
BLOCKS
  0
BLOCK
  8
0
  2
_ORIGIN
 70
     0
 10
0.0
 20
0.0
 30
0.0
  3
_ORIGIN
  1
_ORIGIN
  0
CIRCLE
  8
0
  6
CONTINUOUS
 62
     7
 10
0.0
 20
0.0
 30
0.0
 40
0.5
  0
LINE
  8
0
  6
CONTINUOUS
 62
     7
 10
0.0
 20
0.0
 30
0.0
 11
-1.0
 21
0.0
 31
0.0
  0
ENDBLK
  8
0
  0
ENDSEC
  0
SECTION
  2
ENTITIES
  0
POINT
  8
ARRANGE
  6
CONTINUOUS
 62
     1
 10
0.0
 20
0.0
 30
0.0
  0
CIRCLE
  8
ARRANGE
  6
CONTINUOUS
 62
     1
 10
0.0
 20
0.0
 30
0.0
 40
40.0
  0
LINE
  8
BASIS
  6
DASHDOT
 62
     6
 10
-163.3239748302716
 20
0.0
 30
0.0
 11
82.38198415179636
 21
0.0
 31
0.0
  0
LINE
  8
BASIS
  6
DASHDOT
 62
     6
 10
0.0
 20
178.47133807499989
 30
0.0
 11
0.0
 21
138.21656087499991
 31
0.0
  0
LINE
  8
BASIS
  6
DASHDOT
 62
     6
 10
-20.127388600000021
 20
157.3439494749999
 30
0.0
 11
29.1273885999999
 21
157.3439494749999
 31
0.0
  0
LINE
  8
BASIS
  6
DASHDOT
 62
     6
 10
0.0
 20
-138.21656087500011
 30
0.0
 11
0.0
 21
-178.47133807500009
 31
0.0
  0
LINE
  8
BASIS
  6
DASHDOT
 62
     6
 10
-20.127388600000021
 20
-157.3439494750001
 30
0.0
 11
29.1273885999999
 21
-157.3439494750001
 31
0.0
  0
LINE
  8
NOTE
  6
CONTINUOUS
 62
     4
 10
-29.26937355908683
 20
-184.97999185594961
 30
0.0
 11
0.0
 21
-157.34394947499999
 31
0.0
  0
LINE
  8
NOTE
  6
CONTINUOUS
 62
     4
 10
0.0
 20
-157.34394947499999
 30
0.0
 11
-11.529999357830659
 21
-195.91215154932229
 31
0.0
  0
LINE
  8
NOTE
  6
CONTINUOUS
 62
     4
 10
-101.77549717009541
 20
-324.35128678229188
 30
0.0
 11
0.0
 21
-157.34394947499999
 31
0.0
  0
LINE
  8
SIZE
  6
CONTINUOUS
 62
    30
 10
-183.3239748302716
 20
0.0
 30
0.0
 11
-333.2626641138213
 21
0.0000000000000568
 31
0.0
  0
LINE
  8
SIZE
  6
CONTINUOUS
 62
    30
 10
20.07417596432742
 20
-191.00000000000011
 30
0.0
 11
-333.26266411382147
 21
-191.0
 31
0.0
  0
LINE
  8
SIZE
  6
CONTINUOUS
 62
    30
 10
-313.2626641138213
 20
-11.99999999999994
 30
0.0
 11
-313.26266411382147
 21
-179.0
 31
0.0
  0
CIRCLE
  8
SIZE
  6
CONTINUOUS
 62
    30
 10
-313.2626641138213
 20
0.0000000000000568
 30
0.0
 40
6.0
  0
LINE
  8
SIZE
  6
CONTINUOUS
 62
    30
 10
-313.2626641138213
 20
0.0000000000000568
 30
0.0
 11
-313.2626641138213
 21
-11.99999999999994
 31
0.0
  0
CIRCLE
  8
SIZE
  6
CONTINUOUS
 62
    30
 10
-313.26266411382147
 20
-191.0
 30
0.0
 40
6.0
  0
LINE
  8
SIZE
  6
CONTINUOUS
 62
    30
 10
-313.26266411382147
 20
-191.0
 30
0.0
 11
-313.26266411382147
 21
-179.0
 31
0.0
  0
TEXT
  8
SIZE
  6
CONTINUOUS
 62
    30
 10
-338.2626641138213
 20
-130.47153014721991
 30
0.0
 40
64.0
  1
191
 50
90.0
 41
0.9
 72
     1
 11
-338.2626641138213
 21
-74.242958718648424
 31
0.0
  0
LINE
  8
SIZE
  6
CONTINUOUS
 62
    30
 10
-40.127388600000018
 20
157.3439494749999
 30
0.0
 11
-575.15610516197012
 21
157.34394947499999
 31
0.0
  0
LINE
  8
SIZE
  6
CONTINUOUS
 62
    30
 10
-40.127388600000018
 20
-157.3439494750001
 30
0.0
 11
-575.15610516197012
 21
-157.34394947499999
 31
0.0
  0
LINE
  8
SIZE
  6
CONTINUOUS
 62
    30
 10
-555.15610516197012
 20
145.34394947499999
 30
0.0
 11
-555.15610516197012
 21
-145.34394947499999
 31
0.0
  0
CIRCLE
  8
SIZE
  6
CONTINUOUS
 62
    30
 10
-555.15610516197012
 20
157.34394947499999
 30
0.0
 40
6.0
  0
LINE
  8
SIZE
  6
CONTINUOUS
 62
    30
 10
-555.15610516197012
 20
157.34394947499999
 30
0.0
 11
-555.15610516197012
 21
145.34394947499999
 31
0.0
  0
CIRCLE
  8
SIZE
  6
CONTINUOUS
 62
    30
 10
-555.15610516197012
 20
-157.34394947499999
 30
0.0
 40
6.0
  0
LINE
  8
SIZE
  6
CONTINUOUS
 62
    30
 10
-555.15610516197012
 20
-157.34394947499999
 30
0.0
 11
-555.15610516197012
 21
-145.34394947499999
 31
0.0
  0
TEXT
  8
SIZE
  6
CONTINUOUS
 62
    30
 10
-580.15610516197012
 20
-61.750228742683831
 30
0.0
 40
64.0
  1
315
 50
90.0
 41
0.9
 72
     1
 11
-580.15610516197012
 21
6.8211998287447386
 31
0.0
  0
LINE
  8
SIZE
  6
CONTINUOUS
 62
    30
 10
-109.9999999999998
 20
144.94999999999999
 30
0.0
 11
-447.33741292924151
 21
144.94999999999999
 31
0.0
  0
LINE
  8
SIZE
  6
CONTINUOUS
 62
    30
 10
-109.9999999999998
 20
-144.9500000000001
 30
0.0
 11
-447.33741292924162
 21
-144.94999999999999
 31
0.0
  0
LINE
  8
SIZE
  6
CONTINUOUS
 62
    30
 10
-427.33741292924151
 20
132.94999999999999
 30
0.0
 11
-427.33741292924162
 21
-132.94999999999999
 31
0.0
  0
CIRCLE
  8
SIZE
  6
CONTINUOUS
 62
    30
 10
-427.33741292924151
 20
144.94999999999999
 30
0.0
 40
6.0
  0
LINE
  8
SIZE
  6
CONTINUOUS
 62
    30
 10
-427.33741292924151
 20
144.94999999999999
 30
0.0
 11
-427.33741292924151
 21
132.94999999999999
 31
0.0
  0
CIRCLE
  8
SIZE
  6
CONTINUOUS
 62
    30
 10
-427.33741292924162
 20
-144.94999999999999
 30
0.0
 40
6.0
  0
LINE
  8
SIZE
  6
CONTINUOUS
 62
    30
 10
-427.33741292924162
 20
-144.94999999999999
 30
0.0
 11
-427.33741292924162
 21
-132.94999999999999
 31
0.0
  0
TEXT
  8
SIZE
  6
CONTINUOUS
 62
    30
 10
-452.33741292924151
 20
-107.8378512346662
 30
0.0
 40
64.0
  1
□290
 50
90.0
 41
0.9
 72
     1
 11
-452.33741292924151
 21
2.699291622476665
 31
0.0
  0
LINE
  8
SIZE
  6
CONTINUOUS
 62
    30
 10
0.0
 20
195.0
 30
0.0
 11
0.0
 21
380.787166912884
 31
0.0
  0
LINE
  8
SIZE
  6
CONTINUOUS
 62
    30
 10
62.5
 20
186.96416912239371
 30
0.0
 11
62.5
 21
380.787166912884
 31
0.0
  0
LINE
  8
SIZE
  6
CONTINUOUS
 62
    30
 10
-12.0
 20
360.787166912884
 30
0.0
 11
-24.0
 21
360.787166912884
 31
0.0
  0
LINE
  8
SIZE
  6
CONTINUOUS
 62
    30
 10
74.5
 20
360.787166912884
 30
0.0
 11
312.45550516958588
 21
360.787166912884
 31
0.0
  0
LINE
  8
SIZE
  6
CONTINUOUS
 62
    30
 10
0.0
 20
360.787166912884
 30
0.0
 11
62.5
 21
360.787166912884
 31
0.0
  0
CIRCLE
  8
SIZE
  6
CONTINUOUS
 62
    30
 10
0.0
 20
360.787166912884
 30
0.0
 40
6.0
  0
LINE
  8
SIZE
  6
CONTINUOUS
 62
    30
 10
0.0
 20
360.787166912884
 30
0.0
 11
-12.0
 21
360.787166912884
 31
0.0
  0
CIRCLE
  8
SIZE
  6
CONTINUOUS
 62
    30
 10
62.5
 20
360.787166912884
 30
0.0
 40
6.0
  0
LINE
  8
SIZE
  6
CONTINUOUS
 62
    30
 10
62.5
 20
360.787166912884
 30
0.0
 11
74.5
 21
360.787166912884
 31
0.0
  0
TEXT
  8
SIZE
  6
CONTINUOUS
 62
    30
 10
111.9126480267288
 20
385.787166912884
 30
0.0
 40
64.0
  1
62.5
 41
0.9
 72
     1
 11
199.68407659815739
 21
385.787166912884
 31
0.0
  0
LINE
  8
SIZE
  6
CONTINUOUS
 62
    30
 10
-30.0
 20
168.2500000000006
 30
0.0
 11
-30.0
 21
246.5644677101109
 31
0.0
  0
LINE
  8
SIZE
  6
CONTINUOUS
 62
    30
 10
0.0
 20
195.0
 30
0.0
 11
0.0
 21
246.5644677101109
 31
0.0
  0
LINE
  8
SIZE
  6
CONTINUOUS
 62
    30
 10
-42.0
 20
226.5644677101109
 30
0.0
 11
-54.0
 21
226.5644677101109
 31
0.0
  0
LINE
  8
SIZE
  6
CONTINUOUS
 62
    30
 10
12.0
 20
226.5644677101109
 30
0.0
 11
205.68384892471519
 21
226.5644677101109
 31
0.0
  0
LINE
  8
SIZE
  6
CONTINUOUS
 62
    30
 10
-30.0
 20
226.5644677101109
 30
0.0
 11
0.0
 21
226.5644677101109
 31
0.0
  0
CIRCLE
  8
SIZE
  6
CONTINUOUS
 62
    30
 10
-30.0
 20
226.5644677101109
 30
0.0
 40
6.0
  0
LINE
  8
SIZE
  6
CONTINUOUS
 62
    30
 10
-30.0
 20
226.5644677101109
 30
0.0
 11
-42.0
 21
226.5644677101109
 31
0.0
  0
CIRCLE
  8
SIZE
  6
CONTINUOUS
 62
    30
 10
0.0
 20
226.5644677101109
 30
0.0
 40
6.0
  0
LINE
  8
SIZE
  6
CONTINUOUS
 62
    30
 10
0.0
 20
226.5644677101109
 30
0.0
 11
12.0
 21
226.5644677101109
 31
0.0
  0
TEXT
  8
SIZE
  6
CONTINUOUS
 62
    30
 10
87.426706067572425
 20
251.5644677101109
 30
0.0
 40
64.0
  1
30
 41
0.9
 72
     1
 11
134.05527749614379
 21
251.5644677101109
 31
0.0
  0
LINE
  8
SIZE
  6
CONTINUOUS
 62
    30
 10
0.0
 20
195.0
 30
0.0
 11
0.0
 21
380.787166912884
 31
0.0
  0
LINE
  8
SIZE
  6
CONTINUOUS
 62
    30
 10
-89.999999999999773
 20
164.94999999999999
 30
0.0
 11
-89.999999999999773
 21
380.787166912884
 31
0.0
  0
LINE
  8
SIZE
  6
CONTINUOUS
 62
    30
 10
-12.0
 20
360.787166912884
 30
0.0
 11
-77.999999999999773
 21
360.787166912884
 31
0.0
  0
CIRCLE
  8
SIZE
  6
CONTINUOUS
 62
    30
 10
0.0
 20
360.787166912884
 30
0.0
 40
6.0
  0
LINE
  8
SIZE
  6
CONTINUOUS
 62
    30
 10
0.0
 20
360.787166912884
 30
0.0
 11
-12.0
 21
360.787166912884
 31
0.0
  0
CIRCLE
  8
SIZE
  6
CONTINUOUS
 62
    30
 10
-89.999999999999773
 20
360.787166912884
 30
0.0
 40
6.0
  0
LINE
  8
SIZE
  6
CONTINUOUS
 62
    30
 10
-89.999999999999773
 20
360.787166912884
 30
0.0
 11
-77.999999999999773
 21
360.787166912884
 31
0.0
  0
TEXT
  8
SIZE
  6
CONTINUOUS
 62
    30
 10
-91.62857142857132
 20
385.787166912884
 30
0.0
 40
64.0
  1
90
 41
0.9
 72
     1
 11
-44.999999999999893
 21
385.787166912884
 31
0.0
  0
LINE
  8
SIZE
  6
CONTINUOUS
 62
    30
 10
66.794358684653162
 20
-200.0604869078141
 30
0.0
 11
66.794358684653162
 21
-323.55279754065378
 31
0.0
  0
LINE
  8
SIZE
  6
CONTINUOUS
 62
    30
 10
0.0
 20
-200.10000000000011
 30
0.0
 11
0.0
 21
-323.55279754065378
 31
0.0
  0
LINE
  8
SIZE
  6
CONTINUOUS
 62
    30
 10
-12.0
 20
-303.55279754065378
 30
0.0
 11
-24.0
 21
-303.55279754065378
 31
0.0
  0
LINE
  8
SIZE
  6
CONTINUOUS
 62
    30
 10
78.794358684653162
 20
-303.55279754065378
 30
0.0
 11
234.05150154179611
 21
-303.55279754065378
 31
0.0
  0
LINE
  8
SIZE
  6
CONTINUOUS
 62
    30
 10
0.0
 20
-303.55279754065378
 30
0.0
 11
66.794358684653162
 21
-303.55279754065378
 31
0.0
  0
CIRCLE
  8
SIZE
  6
CONTINUOUS
 62
    30
 10
0.0
 20
-303.55279754065378
 30
0.0
 40
6.0
  0
LINE
  8
SIZE
  6
CONTINUOUS
 62
    30
 10
0.0
 20
-303.55279754065378
 30
0.0
 11
-12.0
 21
-303.55279754065378
 31
0.0
  0
CIRCLE
  8
SIZE
  6
CONTINUOUS
 62
    30
 10
66.794358684653162
 20
-303.55279754065378
 30
0.0
 40
6.0
  0
LINE
  8
SIZE
  6
CONTINUOUS
 62
    30
 10
66.794358684653162
 20
-303.55279754065378
 30
0.0
 11
78.794358684653162
 21
-303.55279754065378
 31
0.0
  0
TEXT
  8
SIZE
  6
CONTINUOUS
 62
    30
 10
115.7943586846533
 20
-278.55279754065378
 30
0.0
 40
64.0
  1
67
 41
0.9
 72
     1
 11
162.42293011322479
 21
-278.55279754065378
 31
0.0
  0
LINE
  8
SIZE
  6
CONTINUOUS
 62
    30
 10
-20.0
 20
175.0
 30
0.0
 11
-687.85646309536412
 21
175.0000000000002
 31
0.0
  0
LINE
  8
SIZE
  6
CONTINUOUS
 62
    30
 10
20.07417596432742
 20
-191.00000000000011
 30
0.0
 11
-687.85646309536412
 21
-190.99999999999989
 31
0.0
  0
LINE
  8
SIZE
  6
CONTINUOUS
 62
    30
 10
-667.85646309536412
 20
163.0000000000002
 30
0.0
 11
-667.85646309536412
 21
-178.99999999999989
 31
0.0
  0
CIRCLE
  8
SIZE
  6
CONTINUOUS
 62
    30
 10
-667.85646309536412
 20
175.0000000000002
 30
0.0
 40
6.0
  0
LINE
  8
SIZE
  6
CONTINUOUS
 62
    30
 10
-667.85646309536412
 20
175.0000000000002
 30
0.0
 11
-667.85646309536412
 21
163.0000000000002
 31
0.0
  0
CIRCLE
  8
SIZE
  6
CONTINUOUS
 62
    30
 10
-667.85646309536412
 20
-190.99999999999989
 30
0.0
 40
6.0
  0
LINE
  8
SIZE
  6
CONTINUOUS
 62
    30
 10
-667.85646309536412
 20
-190.99999999999989
 30
0.0
 11
-667.85646309536412
 21
-178.99999999999989
 31
0.0
  0
TEXT
  8
SIZE
  6
CONTINUOUS
 62
    30
 10
-692.85646309536412
 20
-80.68571428571417
 30
0.0
 40
64.0
  1
366
 50
90.0
 41
0.9
 72
     1
 11
-692.85646309536412
 21
-7.9999999999998863
 31
0.0
  0
ARC
  8
OUTLINE
  6
CONTINUOUS
 62
     3
 10
-0.4500000000000455
 20
145.40000000000001
 30
0.0
 40
0.450000000000044
 50
270.0
 51
0.0
  0
ARC
  8
OUTLINE
  6
CONTINUOUS
 62
     3
 10
-0.4500000000000455
 20
-145.40000000000001
 30
0.0
 40
0.449999999999988
 50
0.0
 51
90.0
  0
LINE
  8
OUTLINE
  6
CONTINUOUS
 62
     3
 10
-89.999999999999773
 20
144.94999999999999
 30
0.0
 11
-33.0
 21
144.94999999999999
 31
0.0
  0
LINE
  8
OUTLINE
  6
CONTINUOUS
 62
     3
 10
-27.0
 20
144.94999999999999
 30
0.0
 11
-0.4500000000000455
 21
144.94999999999999
 31
0.0
  0
LINE
  8
OUTLINE
  6
CONTINUOUS
 62
     3
 10
-74.758845726900063
 20
144.94999999999999
 30
0.0
 11
-73.2461628896001
 21
144.94999999999999
 31
0.0
  0
LINE
  8
OUTLINE
  6
CONTINUOUS
 62
     3
 10
-89.999999999999773
 20
-144.9500000000001
 30
0.0
 11
-89.999999999999773
 21
144.94999999999999
 31
0.0
  0
LINE
  8
OUTLINE
  6
CONTINUOUS
 62
     3
 10
-89.999999999999773
 20
-144.9500000000001
 30
0.0
 11
-0.4500000000000455
 21
-144.9500000000001
 31
0.0
  0
LINE
  8
OUTLINE
  6
CONTINUOUS
 62
     3
 10
-74.758845726900063
 20
144.94999999999999
 30
0.0
 11
-73.2461628896001
 21
144.94999999999999
 31
0.0
  0
ARC
  8
OUTLINE
  6
CONTINUOUS
 62
     3
 10
12.971067811866311
 20
-186.0000000000002
 30
0.0
 40
5.0
 50
225.0000000000081
 51
270.0
  0
LINE
  8
OUTLINE
  6
CONTINUOUS
 62
     3
 10
9.4355339059334256
 20
-189.53553390593311
 30
0.0
 11
0.0
 21
-180.10000000000019
 31
0.0
  0
ARC
  8
OUTLINE
  6
CONTINUOUS
 62
     3
 10
40.074175964327416
 20
-181.0000000000002
 30
0.0
 40
9.9999999999999556
 50
270.0
 51
291.80140948635568
  0
ARC
  8
OUTLINE
  6
CONTINUOUS
 62
     3
 10
64.0
 20
-178.96890111571929
 30
0.0
 40
3.0
 50
291.80140948635568
 51
0.0
  0
LINE
  8
OUTLINE
  6
CONTINUOUS
 62
     3
 10
65.114172029062502
 20
-181.75433118837509
 30
0.0
 11
43.788082727868641
 21
-190.2847669088525
 31
0.0
  0
LINE
  8
OUTLINE
  6
CONTINUOUS
 62
     3
 10
67.0
 20
-176.0000000000002
 30
0.0
 11
67.0
 21
-178.96890111571929
 31
0.0
  0
LINE
  8
OUTLINE
  6
CONTINUOUS
 62
     3
 10
0.0
 20
-180.10000000000011
 30
0.0
 11
0.0
 21
-179.00000000000011
 31
0.0
  0
LINE
  8
OUTLINE
  6
CONTINUOUS
 62
     3
 10
12.971067811866311
 20
-191.0000000000002
 30
0.0
 11
40.074175964327416
 21
-191.0000000000002
 31
0.0
  0
LINE
  8
OUTLINE
  6
CONTINUOUS
 62
     3
 10
0.3000000000001819
 20
-179.00000000000011
 30
0.0
 11
0.3000000000001819
 21
-175.00000000000011
 31
0.0
  0
LINE
  8
OUTLINE
  6
CONTINUOUS
 62
     3
 10
0.0
 20
-179.00000000000011
 30
0.0
 11
0.3000000000001819
 21
-179.00000000000011
 31
0.0
  0
LINE
  8
OUTLINE
  6
CONTINUOUS
 62
     3
 10
0.0
 20
-174.0000000000002
 30
0.0
 11
0.0
 21
-158.0000000000002
 31
0.0
  0
LINE
  8
OUTLINE
  6
CONTINUOUS
 62
     3
 10
0.0
 20
175.0
 30
0.0
 11
0.5999999999999091
 21
175.0
 31
0.0
  0
LINE
  8
OUTLINE
  6
CONTINUOUS
 62
     3
 10
0.0
 20
175.0
 30
0.0
 11
0.0
 21
145.40000000000001
 31
0.0
  0
LINE
  8
OUTLINE
  6
CONTINUOUS
 62
     3
 10
0.0
 20
-175.00000000000011
 30
0.0
 11
0.3000000000001819
 21
-175.00000000000011
 31
0.0
  0
LINE
  8
OUTLINE
  6
CONTINUOUS
 62
     3
 10
3.0
 20
172.14040820577361
 30
0.0
 11
3.0
 21
172.69999999999999
 31
0.0
  0
LINE
  8
OUTLINE
  6
CONTINUOUS
 62
     3
 10
3.0
 20
172.69999999999999
 30
0.0
 11
29.539440530882981
 21
172.69999999999999
 31
0.0
  0
LINE
  8
OUTLINE
  6
CONTINUOUS
 62
     3
 10
62.5
 20
157.69999999999999
 30
0.0
 11
62.5
 21
166.96416912239391
 31
0.0
  0
LINE
  8
OUTLINE
  6
CONTINUOUS
 62
     3
 10
30.458609773053471
 20
172.6576667901796
 30
0.0
 11
59.775750772651463
 21
169.95146915944761
 31
0.0
  0
LINE
  8
OUTLINE
  6
CONTINUOUS
 62
     3
 10
62.5
 20
157.69999999999999
 30
0.0
 11
60.099999999999909
 21
156.96153846153859
 31
0.0
  0
ARC
  8
OUTLINE
  6
CONTINUOUS
 62
     3
 10
59.5
 20
166.96416912239391
 30
0.0
 40
2.99999999999996
 50
0.0
 51
84.726104042637459
  0
ARC
  8
OUTLINE
  6
CONTINUOUS
 62
     3
 10
29.539440530882981
 20
162.69999999999999
 30
0.0
 40
10.0
 50
84.72610404265059
 51
90.0
  0
ARC
  8
OUTLINE
  6
CONTINUOUS
 62
     3
 10
2.5999999999999091
 20
174.10000000000011
 30
0.0
 40
2.0
 50
184.49999115670519
 51
281.53695903281817
  0
LINE
  8
OUTLINE
  6
CONTINUOUS
 62
     3
 10
60.099999999999909
 20
-172.2702702702704
 30
0.0
 11
60.099999999999909
 21
156.96153846153859
 31
0.0
  0
LINE
  8
OUTLINE
  6
CONTINUOUS
 62
     3
 10
-28.0
 20
149.2500000000006
 30
0.0
 11
-30.0
 21
149.2500000000006
 31
0.0
  0
LINE
  8
OUTLINE
  6
CONTINUOUS
 62
     3
 10
-27.0
 20
144.94999999999999
 30
0.0
 11
-27.0
 21
148.2500000000006
 31
0.0
  0
LINE
  8
OUTLINE
  6
CONTINUOUS
 62
     3
 10
-27.999966135754221
 20
149.24996404584499
 30
0.0
 11
-27.000072970095061
 21
148.2500708801858
 31
0.0
  0
LINE
  8
OUTLINE
  6
CONTINUOUS
 62
     3
 10
-32.0
 20
149.2500000000006
 30
0.0
 11
-30.0
 21
149.2500000000006
 31
0.0
  0
LINE
  8
OUTLINE
  6
CONTINUOUS
 62
     3
 10
-33.0
 20
144.94999999999999
 30
0.0
 11
-33.0
 21
148.2500000000006
 31
0.0
  0
LINE
  8
OUTLINE
  6
CONTINUOUS
 62
     3
 10
-32.000035119670429
 20
149.24981299154251
 30
0.0
 11
-32.999928285329588
 21
148.24991982588341
 31
0.0
  0
LINE
  8
OUTLINE
  6
CONTINUOUS
 62
     3
 10
0.5999999999999091
 20
173.943082116282
 30
0.0
 11
0.5999999999999091
 21
175.0
 31
0.0
  0
LINE
  8
OUTLINE
  6
CONTINUOUS
 62
     3
 10
0.0
 20
-145.40000000000001
 30
0.0
 11
0.0
 21
-175.00000000000011
 31
0.0
  0
LINE
  8
OUTLINE
  6
CONTINUOUS
 62
     3
 10
60.099999999999909
 20
-172.2702702702704
 30
0.0
 11
67.0
 21
-176.0000000000002
 31
0.0
  0
LINE
  8
DETAIL
  6
CONTINUOUS
 62
     5
 10
-30.0
 20
144.94999999999999
 30
0.0
 11
-30.0
 21
148.2500000000006
 31
0.0
  0
ARC
  8
DETAIL
  6
CONTINUOUS
 62
     5
 10
-0.4500000000000455
 20
145.40000000000001
 30
0.0
 40
0.450000000000044
 50
270.0
 51
0.0
  0
ARC
  8
DETAIL
  6
CONTINUOUS
 62
     5
 10
-0.4500000000000455
 20
-145.40000000000001
 30
0.0
 40
0.449999999999988
 50
0.0
 51
90.0
  0
LINE
  8
DETAIL
  6
CONTINUOUS
 62
     5
 10
-89.999999999999773
 20
144.94999999999999
 30
0.0
 11
-0.4500000000000455
 21
144.94999999999999
 31
0.0
  0
LINE
  8
DETAIL
  6
CONTINUOUS
 62
     5
 10
-74.758845726900063
 20
144.94999999999999
 30
0.0
 11
-73.2461628896001
 21
144.94999999999999
 31
0.0
  0
LINE
  8
DETAIL
  6
CONTINUOUS
 62
     5
 10
-71.745271952200483
 20
-69.080444995999983
 30
0.0
 11
-71.798929968200127
 21
-69.065114134299961
 31
0.0
  0
LINE
  8
DETAIL
  6
CONTINUOUS
 62
     5
 10
-89.999999999999773
 20
-144.94999999999999
 30
0.0
 11
-89.999999999999773
 21
144.94999999999999
 31
0.0
  0
LINE
  8
DETAIL
  6
CONTINUOUS
 62
     5
 10
0.0
 20
-144.94999999999999
 30
0.0
 11
0.0
 21
165.09999999999999
 31
0.0
  0
LINE
  8
DETAIL
  6
CONTINUOUS
 62
     5
 10
0.0
 20
144.6217246054
 30
0.0
 11
0.0
 21
144.0
 31
0.0
  0
LINE
  8
DETAIL
  6
CONTINUOUS
 62
     5
 10
-89.999999999999773
 20
-144.94999999999999
 30
0.0
 11
-0.4500000000000455
 21
-144.94999999999999
 31
0.0
  0
LINE
  8
DETAIL
  6
CONTINUOUS
 62
     5
 10
-74.758845726900063
 20
144.94999999999999
 30
0.0
 11
-73.2461628896001
 21
144.94999999999999
 31
0.0
  0
LINE
  8
DETAIL
  6
CONTINUOUS
 62
     5
 10
-81.150788833699835
 20
129.74616288959999
 30
0.0
 11
-78.84921116629971
 21
129.74616288959999
 31
0.0
  0
LINE
  8
DETAIL
  6
CONTINUOUS
 62
     5
 10
-86.788944558500361
 20
-124.1080071649
 30
0.0
 11
-86.788944558500361
 21
124.1080071649
 31
0.0
  0
LINE
  8
DETAIL
  6
CONTINUOUS
 62
     5
 10
-73.211055441600138
 20
-97.341408139100054
 30
0.0
 11
-73.211055441600138
 21
-124.1080071649
 31
0.0
  0
LINE
  8
DETAIL
  6
CONTINUOUS
 62
     5
 10
-73.211055441600138
 20
124.1080071649
 30
0.0
 11
-73.211055441600138
 21
-124.5808014999008
 31
0.0
  0
LINE
  8
DETAIL
  6
CONTINUOUS
 62
     5
 10
-78.84921116629971
 20
-129.74616288959999
 30
0.0
 11
-81.150788833699835
 21
-129.74616288959999
 31
0.0
  0
LINE
  8
DETAIL
  6
CONTINUOUS
 62
     5
 10
0.0
 20
-129.90722897407429
 30
0.0
 11
0.0
 21
123.0427710259256
 31
0.0
  0
LINE
  8
DETAIL
  6
CONTINUOUS
 62
     5
 10
-73.211055441600138
 20
-124.1080071649
 30
0.0
 11
-73.21173245929549
 21
-124.18685302732619
 31
0.0
  0
LINE
  8
DETAIL
  6
CONTINUOUS
 62
     5
 10
-73.21173245929549
 20
-124.18685302732619
 30
0.0
 11
-73.213039539837837
 21
-124.2656911465884
 31
0.0
  0
LINE
  8
DETAIL
  6
CONTINUOUS
 62
     5
 10
-73.213039539837837
 20
-124.2656911465884
 30
0.0
 11
-73.213039539837837
 21
-124.2656911465884
 31
0.0
  0
LINE
  8
DETAIL
  6
CONTINUOUS
 62
     5
 10
-73.213039539837837
 20
-124.2656911465884
 30
0.0
 11
-73.215474921569694
 21
-124.3445159729841
 31
0.0
  0
LINE
  8
DETAIL
  6
CONTINUOUS
 62
     5
 10
-73.215474921569694
 20
-124.3445159729841
 30
0.0
 11
-73.219009544804749
 21
-124.4233307306549
 31
0.0
  0
LINE
  8
DETAIL
  6
CONTINUOUS
 62
     5
 10
-73.219009544804749
 20
-124.4233307306549
 30
0.0
 11
-73.219009544804749
 21
-124.4233307306549
 31
0.0
  0
LINE
  8
DETAIL
  6
CONTINUOUS
 62
     5
 10
-73.219009544804749
 20
-124.4233307306549
 30
0.0
 11
-73.223515232678665
 21
-124.502122060912
 31
0.0
  0
LINE
  8
DETAIL
  6
CONTINUOUS
 62
     5
 10
-73.223515232678665
 20
-124.502122060912
 30
0.0
 11
-73.228994637639289
 21
-124.5808014999008
 31
0.0
  0
LINE
  8
DETAIL
  6
CONTINUOUS
 62
     5
 10
-73.228994637639289
 20
-124.5808014999008
 30
0.0
 11
-73.228994637639289
 21
-124.5808014999008
 31
0.0
  0
LINE
  8
DETAIL
  6
CONTINUOUS
 62
     5
 10
-73.228994637639289
 20
-124.5808014999008
 30
0.0
 11
-73.235484114657083
 21
-124.6593347191796
 31
0.0
  0
LINE
  8
DETAIL
  6
CONTINUOUS
 62
     5
 10
-73.235484114657083
 20
-124.6593347191796
 30
0.0
 11
-73.243023999480783
 21
-124.7379790371274
 31
0.0
  0
LINE
  8
DETAIL
  6
CONTINUOUS
 62
     5
 10
-73.243023999480783
 20
-124.7379790371274
 30
0.0
 11
-73.243023999480783
 21
-124.7379790371274
 31
0.0
  0
LINE
  8
DETAIL
  6
CONTINUOUS
 62
     5
 10
-73.243023999480783
 20
-124.7379790371274
 30
0.0
 11
-73.251618934947032
 21
-124.8167918132996
 31
0.0
  0
LINE
  8
DETAIL
  6
CONTINUOUS
 62
     5
 10
-73.251618934947032
 20
-124.8167918132996
 30
0.0
 11
-73.261126811468557
 21
-124.89473892513639
 31
0.0
  0
LINE
  8
DETAIL
  6
CONTINUOUS
 62
     5
 10
-73.261126811468557
 20
-124.89473892513639
 30
0.0
 11
-73.261126811468557
 21
-124.89473892513639
 31
0.0
  0
LINE
  8
DETAIL
  6
CONTINUOUS
 62
     5
 10
-73.261126811468557
 20
-124.89473892513639
 30
0.0
 11
-73.271423046568771
 21
-124.9709444747086
 31
0.0
  0
LINE
  8
DETAIL
  6
CONTINUOUS
 62
     5
 10
-73.271423046568771
 20
-124.9709444747086
 30
0.0
 11
-73.282599918634105
 21
-125.0462569447254
 31
0.0
  0
LINE
  8
DETAIL
  6
CONTINUOUS
 62
     5
 10
-73.282599918634105
 20
-125.0462569447254
 30
0.0
 11
-73.282599918634105
 21
-125.0462569447254
 31
0.0
  0
LINE
  8
DETAIL
  6
CONTINUOUS
 62
     5
 10
-73.282599918634105
 20
-125.0462569447254
 30
0.0
 11
-73.294774209482739
 21
-125.1216861359401
 31
0.0
  0
LINE
  8
DETAIL
  6
CONTINUOUS
 62
     5
 10
-73.294774209482739
 20
-125.1216861359401
 30
0.0
 11
-73.30794385380409
 21
-125.1971627406444
 31
0.0
  0
LINE
  8
DETAIL
  6
CONTINUOUS
 62
     5
 10
-73.30794385380409
 20
-125.1971627406444
 30
0.0
 11
-73.30794385380409
 21
-125.1971627406444
 31
0.0
  0
LINE
  8
DETAIL
  6
CONTINUOUS
 62
     5
 10
-73.30794385380409
 20
-125.1971627406444
 30
0.0
 11
-73.322080626988964
 21
-125.2724041871508
 31
0.0
  0
LINE
  8
DETAIL
  6
CONTINUOUS
 62
     5
 10
-73.322080626988964
 20
-125.2724041871508
 30
0.0
 11
-73.337170514381569
 21
-125.3473539563149
 31
0.0
  0
LINE
  8
DETAIL
  6
CONTINUOUS
 62
     5
 10
-73.337170514381569
 20
-125.3473539563149
 30
0.0
 11
-73.337170514381569
 21
-125.3473539563149
 31
0.0
  0
LINE
  8
DETAIL
  6
CONTINUOUS
 62
     5
 10
-73.337170514381569
 20
-125.3473539563149
 30
0.0
 11
-73.353218555646208
 21
-125.42205576670069
 31
0.0
  0
LINE
  8
DETAIL
  6
CONTINUOUS
 62
     5
 10
-73.353218555646208
 20
-125.42205576670069
 30
0.0
 11
-73.370291797772325
 21
-125.4967282351586
 31
0.0
  0
LINE
  8
DETAIL
  6
CONTINUOUS
 62
     5
 10
-73.370291797772325
 20
-125.4967282351586
 30
0.0
 11
-73.370291797772325
 21
-125.4967282351586
 31
0.0
  0
LINE
  8
DETAIL
  6
CONTINUOUS
 62
     5
 10
-73.370291797772325
 20
-125.4967282351586
 30
0.0
 11
-73.388407229768063
 21
-125.5714022916877
 31
0.0
  0
LINE
  8
DETAIL
  6
CONTINUOUS
 62
     5
 10
-73.388407229768063
 20
-125.5714022916877
 30
0.0
 11
-73.407319601378504
 21
-125.64518322059681
 31
0.0
  0
LINE
  8
DETAIL
  6
CONTINUOUS
 62
     5
 10
-73.407319601378504
 20
-125.64518322059681
 30
0.0
 11
-73.407319601378504
 21
-125.64518322059681
 31
0.0
  0
LINE
  8
DETAIL
  6
CONTINUOUS
 62
     5
 10
-73.407319601378504
 20
-125.64518322059681
 30
0.0
 11
-73.426816021554941
 21
-125.71731767939561
 31
0.0
  0
LINE
  8
DETAIL
  6
CONTINUOUS
 62
     5
 10
-73.426816021554941
 20
-125.71731767939561
 30
0.0
 11
-73.447075275328416
 21
-125.7885434640922
 31
0.0
  0
LINE
  8
DETAIL
  6
CONTINUOUS
 62
     5
 10
-73.447075275328416
 20
-125.7885434640922
 30
0.0
 11
-73.447075275328416
 21
-125.7885434640922
 31
0.0
  0
LINE
  8
DETAIL
  6
CONTINUOUS
 62
     5
 10
-73.447075275328416
 20
-125.7885434640922
 30
0.0
 11
-73.46831648585453
 21
-125.85973615853641
 31
0.0
  0
LINE
  8
DETAIL
  6
CONTINUOUS
 62
     5
 10
-73.46831648585453
 20
-125.85973615853641
 30
0.0
 11
-73.490528452702847
 21
-125.9308313594493
 31
0.0
  0
LINE
  8
DETAIL
  6
CONTINUOUS
 62
     5
 10
-73.490528452702847
 20
-125.9308313594493
 30
0.0
 11
-73.490528452702847
 21
-125.9308313594493
 31
0.0
  0
LINE
  8
DETAIL
  6
CONTINUOUS
 62
     5
 10
-73.490528452702847
 20
-125.9308313594493
 30
0.0
 11
-73.513652751439622
 21
-126.001580752838
 31
0.0
  0
LINE
  8
DETAIL
  6
CONTINUOUS
 62
     5
 10
-73.513652751439622
 20
-126.001580752838
 30
0.0
 11
-73.537672385213909
 21
-126.0719403689842
 31
0.0
  0
LINE
  8
DETAIL
  6
CONTINUOUS
 62
     5
 10
-73.537672385213909
 20
-126.0719403689842
 30
0.0
 11
-73.537672385213909
 21
-126.0719403689842
 31
0.0
  0
LINE
  8
DETAIL
  6
CONTINUOUS
 62
     5
 10
-73.537672385213909
 20
-126.0719403689842
 30
0.0
 11
-73.562596867384173
 21
-126.14194797674629
 31
0.0
  0
LINE
  8
DETAIL
  6
CONTINUOUS
 62
     5
 10
-73.562596867384173
 20
-126.14194797674629
 30
0.0
 11
-73.588500324573715
 21
-126.2117639550131
 31
0.0
  0
LINE
  8
DETAIL
  6
CONTINUOUS
 62
     5
 10
-73.588500324573715
 20
-126.2117639550131
 30
0.0
 11
-73.588500324573715
 21
-126.2117639550131
 31
0.0
  0
LINE
  8
DETAIL
  6
CONTINUOUS
 62
     5
 10
-73.588500324573715
 20
-126.2117639550131
 30
0.0
 11
-73.615398066563216
 21
-126.281405639082
 31
0.0
  0
LINE
  8
DETAIL
  6
CONTINUOUS
 62
     5
 10
-73.615398066563216
 20
-126.281405639082
 30
0.0
 11
-73.643005522495287
 21
-126.3501955798521
 31
0.0
  0
LINE
  8
DETAIL
  6
CONTINUOUS
 62
     5
 10
-73.643005522495287
 20
-126.3501955798521
 30
0.0
 11
-73.643005522495287
 21
-126.3501955798521
 31
0.0
  0
LINE
  8
DETAIL
  6
CONTINUOUS
 62
     5
 10
-73.643005522495287
 20
-126.3501955798521
 30
0.0
 11
-73.671077970651595
 21
-126.41756418330969
 31
0.0
  0
LINE
  8
DETAIL
  6
CONTINUOUS
 62
     5
 10
-73.671077970651595
 20
-126.41756418330969
 30
0.0
 11
-73.699829966494462
 21
-126.48406806018841
 31
0.0
  0
LINE
  8
DETAIL
  6
CONTINUOUS
 62
     5
 10
-73.699829966494462
 20
-126.48406806018841
 30
0.0
 11
-73.699829966494462
 21
-126.48406806018841
 31
0.0
  0
LINE
  8
DETAIL
  6
CONTINUOUS
 62
     5
 10
-73.699829966494462
 20
-126.48406806018841
 30
0.0
 11
-73.729521538023619
 21
-126.5503672332906
 31
0.0
  0
LINE
  8
DETAIL
  6
CONTINUOUS
 62
     5
 10
-73.729521538023619
 20
-126.5503672332906
 30
0.0
 11
-73.760135326196405
 21
-126.6164091689477
 31
0.0
  0
LINE
  8
DETAIL
  6
CONTINUOUS
 62
     5
 10
-73.760135326196405
 20
-126.6164091689477
 30
0.0
 11
-73.760135326196405
 21
-126.6164091689477
 31
0.0
  0
LINE
  8
DETAIL
  6
CONTINUOUS
 62
     5
 10
-73.760135326196405
 20
-126.6164091689477
 30
0.0
 11
-73.791598678905643
 21
-126.6820032930416
 31
0.0
  0
LINE
  8
DETAIL
  6
CONTINUOUS
 62
     5
 10
-73.791598678905643
 20
-126.6820032930416
 30
0.0
 11
-73.823895158819823
 21
-126.74711942612841
 31
0.0
  0
LINE
  8
DETAIL
  6
CONTINUOUS
 62
     5
 10
-73.823895158819823
 20
-126.74711942612841
 30
0.0
 11
-73.823895158819823
 21
-126.74711942612841
 31
0.0
  0
LINE
  8
DETAIL
  6
CONTINUOUS
 62
     5
 10
-73.823895158819823
 20
-126.74711942612841
 30
0.0
 11
-73.857035514285599
 21
-126.8117852318763
 31
0.0
  0
LINE
  8
DETAIL
  6
CONTINUOUS
 62
     5
 10
-73.857035514285599
 20
-126.8117852318763
 30
0.0
 11
-73.891083021581608
 21
-126.87609935172929
 31
0.0
  0
LINE
  8
DETAIL
  6
CONTINUOUS
 62
     5
 10
-73.891083021581608
 20
-126.87609935172929
 30
0.0
 11
-73.891083021581608
 21
-126.87609935172929
 31
0.0
  0
LINE
  8
DETAIL
  6
CONTINUOUS
 62
     5
 10
-73.891083021581608
 20
-126.87609935172929
 30
0.0
 11
-73.926047507343696
 21
-126.9400670951312
 31
0.0
  0
LINE
  8
DETAIL
  6
CONTINUOUS
 62
     5
 10
-73.926047507343696
 20
-126.9400670951312
 30
0.0
 11
-73.961672471701377
 21
-127.00324946574899
 31
0.0
  0
LINE
  8
DETAIL
  6
CONTINUOUS
 62
     5
 10
-73.961672471701377
 20
-127.00324946574899
 30
0.0
 11
-73.961672471701377
 21
-127.00324946574899
 31
0.0
  0
LINE
  8
DETAIL
  6
CONTINUOUS
 62
     5
 10
-73.961672471701377
 20
-127.00324946574899
 30
0.0
 11
-73.997738325178034
 21
-127.0652777559002
 31
0.0
  0
LINE
  8
DETAIL
  6
CONTINUOUS
 62
     5
 10
-73.997738325178034
 20
-127.0652777559002
 30
0.0
 11
-74.034439446376155
 21
-127.12650871828011
 31
0.0
  0
LINE
  8
DETAIL
  6
CONTINUOUS
 62
     5
 10
-74.034439446376155
 20
-127.12650871828011
 30
0.0
 11
-74.034439446376155
 21
-127.12650871828011
 31
0.0
  0
LINE
  8
DETAIL
  6
CONTINUOUS
 62
     5
 10
-74.034439446376155
 20
-127.12650871828011
 30
0.0
 11
-74.072010150810684
 21
-127.1873650938151
 31
0.0
  0
LINE
  8
DETAIL
  6
CONTINUOUS
 62
     5
 10
-74.072010150810684
 20
-127.1873650938151
 30
0.0
 11
-74.110430533566387
 21
-127.2478081159788
 31
0.0
  0
LINE
  8
DETAIL
  6
CONTINUOUS
 62
     5
 10
-74.110430533566387
 20
-127.2478081159788
 30
0.0
 11
-74.110430533566387
 21
-127.2478081159788
 31
0.0
  0
LINE
  8
DETAIL
  6
CONTINUOUS
 62
     5
 10
-74.110430533566387
 20
-127.2478081159788
 30
0.0
 11
-74.149631381876816
 21
-127.30771102994851
 31
0.0
  0
LINE
  8
DETAIL
  6
CONTINUOUS
 62
     5
 10
-74.149631381876816
 20
-127.30771102994851
 30
0.0
 11
-74.18960047199721
 21
-127.367056635167
 31
0.0
  0
LINE
  8
DETAIL
  6
CONTINUOUS
 62
     5
 10
-74.18960047199721
 20
-127.367056635167
 30
0.0
 11
-74.18960047199721
 21
-127.367056635167
 31
0.0
  0
LINE
  8
DETAIL
  6
CONTINUOUS
 62
     5
 10
-74.18960047199721
 20
-127.367056635167
 30
0.0
 11
-74.230346393523632
 21
-127.4258609422411
 31
0.0
  0
LINE
  8
DETAIL
  6
CONTINUOUS
 62
     5
 10
-74.230346393523632
 20
-127.4258609422411
 30
0.0
 11
-74.271904000393761
 21
-127.4841632521666
 31
0.0
  0
LINE
  8
DETAIL
  6
CONTINUOUS
 62
     5
 10
-74.271904000393761
 20
-127.4841632521666
 30
0.0
 11
-74.271904000393761
 21
-127.4841632521666
 31
0.0
  0
LINE
  8
DETAIL
  6
CONTINUOUS
 62
     5
 10
-74.271904000393761
 20
-127.4841632521666
 30
0.0
 11
-74.314274201033868
 21
-127.5419580095809
 31
0.0
  0
LINE
  8
DETAIL
  6
CONTINUOUS
 62
     5
 10
-74.314274201033868
 20
-127.5419580095809
 30
0.0
 11
-74.357295857482086
 21
-127.59903694329959
 31
0.0
  0
LINE
  8
DETAIL
  6
CONTINUOUS
 62
     5
 10
-74.357295857482086
 20
-127.59903694329959
 30
0.0
 11
-74.357295857482086
 21
-127.59903694329959
 31
0.0
  0
LINE
  8
DETAIL
  6
CONTINUOUS
 62
     5
 10
-74.357295857482086
 20
-127.59903694329959
 30
0.0
 11
-74.400831169015646
 21
-127.65522522887041
 31
0.0
  0
LINE
  8
DETAIL
  6
CONTINUOUS
 62
     5
 10
-74.400831169015646
 20
-127.65522522887041
 30
0.0
 11
-74.444997730259956
 21
-127.7106845445921
 31
0.0
  0
LINE
  8
DETAIL
  6
CONTINUOUS
 62
     5
 10
-74.444997730259956
 20
-127.7106845445921
 30
0.0
 11
-74.444997730259956
 21
-127.7106845445921
 31
0.0
  0
LINE
  8
DETAIL
  6
CONTINUOUS
 62
     5
 10
-74.444997730259956
 20
-127.7106845445921
 30
0.0
 11
-74.489936977846355
 21
-127.7656066844394
 31
0.0
  0
LINE
  8
DETAIL
  6
CONTINUOUS
 62
     5
 10
-74.489936977846355
 20
-127.7656066844394
 30
0.0
 11
-74.535630321084
 21
-127.81996740234101
 31
0.0
  0
LINE
  8
DETAIL
  6
CONTINUOUS
 62
     5
 10
-74.535630321084
 20
-127.81996740234101
 30
0.0
 11
-74.535630321084
 21
-127.81996740234101
 31
0.0
  0
LINE
  8
DETAIL
  6
CONTINUOUS
 62
     5
 10
-74.535630321084
 20
-127.81996740234101
 30
0.0
 11
-74.582029858984924
 21
-127.873702892735
 31
0.0
  0
LINE
  8
DETAIL
  6
CONTINUOUS
 62
     5
 10
-74.582029858984924
 20
-127.873702892735
 30
0.0
 11
-74.629130476690761
 21
-127.926807152142
 31
0.0
  0
LINE
  8
DETAIL
  6
CONTINUOUS
 62
     5
 10
-74.629130476690761
 20
-127.926807152142
 30
0.0
 11
-74.629130476690761
 21
-127.926807152142
 31
0.0
  0
LINE
  8
DETAIL
  6
CONTINUOUS
 62
     5
 10
-74.629130476690761
 20
-127.926807152142
 30
0.0
 11
-74.676934976578309
 21
-127.9792848355322
 31
0.0
  0
LINE
  8
DETAIL
  6
CONTINUOUS
 62
     5
 10
-74.676934976578309
 20
-127.9792848355322
 30
0.0
 11
-74.725435043818607
 21
-128.03112542959121
 31
0.0
  0
LINE
  8
DETAIL
  6
CONTINUOUS
 62
     5
 10
-74.725435043818607
 20
-128.03112542959121
 30
0.0
 11
-74.725435043818607
 21
-128.03112542959121
 31
0.0
  0
LINE
  8
DETAIL
  6
CONTINUOUS
 62
     5
 10
-74.725435043818607
 20
-128.03112542959121
 30
0.0
 11
-74.774620004954159
 21
-128.08231534669719
 31
0.0
  0
LINE
  8
DETAIL
  6
CONTINUOUS
 62
     5
 10
-74.774620004954159
 20
-128.08231534669719
 30
0.0
 11
-74.824480869205445
 21
-128.13284387028429
 31
0.0
  0
LINE
  8
DETAIL
  6
CONTINUOUS
 62
     5
 10
-74.824480869205445
 20
-128.13284387028429
 30
0.0
 11
-74.824480869205445
 21
-128.13284387028429
 31
0.0
  0
LINE
  8
DETAIL
  6
CONTINUOUS
 62
     5
 10
-74.824480869205445
 20
-128.13284387028429
 30
0.0
 11
-74.875009248418792
 21
-128.1827016737262
 31
0.0
  0
LINE
  8
DETAIL
  6
CONTINUOUS
 62
     5
 10
-74.875009248418792
 20
-128.1827016737262
 30
0.0
 11
-74.926197482261841
 21
-128.23188211910099
 31
0.0
  0
LINE
  8
DETAIL
  6
CONTINUOUS
 62
     5
 10
-74.926197482261841
 20
-128.23188211910099
 30
0.0
 11
-74.926197482261841
 21
-128.23188211910099
 31
0.0
  0
LINE
  8
DETAIL
  6
CONTINUOUS
 62
     5
 10
-74.926197482261841
 20
-128.23188211910099
 30
0.0
 11
-74.978036840329878
 21
-128.28037826962171
 31
0.0
  0
LINE
  8
DETAIL
  6
CONTINUOUS
 62
     5
 10
-74.978036840329878
 20
-128.28037826962171
 30
0.0
 11
-75.030513584101527
 21
-128.3281793043376
 31
0.0
  0
LINE
  8
DETAIL
  6
CONTINUOUS
 62
     5
 10
-75.030513584101527
 20
-128.3281793043376
 30
0.0
 11
-75.030513584101527
 21
-128.3281793043376
 31
0.0
  0
LINE
  8
DETAIL
  6
CONTINUOUS
 62
     5
 10
-75.030513584101527
 20
-128.3281793043376
 30
0.0
 11
-75.083616665579257
 21
-128.37527636334531
 31
0.0
  0
LINE
  8
DETAIL
  6
CONTINUOUS
 62
     5
 10
-75.083616665579257
 20
-128.37527636334531
 30
0.0
 11
-75.137350806980749
 21
-128.42167231509589
 31
0.0
  0
LINE
  8
DETAIL
  6
CONTINUOUS
 62
     5
 10
-75.137350806980749
 20
-128.42167231509589
 30
0.0
 11
-75.137350806980749
 21
-128.42167231509589
 31
0.0
  0
LINE
  8
DETAIL
  6
CONTINUOUS
 62
     5
 10
-75.137350806980749
 20
-128.42167231509589
 30
0.0
 11
-75.191710154890757
 21
-128.46736220281559
 31
0.0
  0
LINE
  8
DETAIL
  6
CONTINUOUS
 62
     5
 10
-75.191710154890757
 20
-128.46736220281559
 30
0.0
 11
-75.246630783156206
 21
-128.5122980404781
 31
0.0
  0
LINE
  8
DETAIL
  6
CONTINUOUS
 62
     5
 10
-75.246630783156206
 20
-128.5122980404781
 30
0.0
 11
-75.246630783156206
 21
-128.5122980404781
 31
0.0
  0
LINE
  8
DETAIL
  6
CONTINUOUS
 62
     5
 10
-75.246630783156206
 20
-128.5122980404781
 30
0.0
 11
-75.302088377625068
 21
-128.55646118190799
 31
0.0
  0
LINE
  8
DETAIL
  6
CONTINUOUS
 62
     5
 10
-75.302088377625068
 20
-128.55646118190799
 30
0.0
 11
-75.358275144884601
 21
-128.59999336958629
 31
0.0
  0
LINE
  8
DETAIL
  6
CONTINUOUS
 62
     5
 10
-75.358275144884601
 20
-128.59999336958629
 30
0.0
 11
-75.358275144884601
 21
-128.59999336958629
 31
0.0
  0
LINE
  8
DETAIL
  6
CONTINUOUS
 62
     5
 10
-75.358275144884601
 20
-128.59999336958629
 30
0.0
 11
-75.415353123393288
 21
-128.6430124614611
 31
0.0
  0
LINE
  8
DETAIL
  6
CONTINUOUS
 62
     5
 10
-75.415353123393288
 20
-128.6430124614611
 30
0.0
 11
-75.473147158355232
 21
-128.6853803886971
 31
0.0
  0
LINE
  8
DETAIL
  6
CONTINUOUS
 62
     5
 10
-75.473147158355232
 20
-128.6853803886971
 30
0.0
 11
-75.473147158355232
 21
-128.6853803886971
 31
0.0
  0
LINE
  8
DETAIL
  6
CONTINUOUS
 62
     5
 10
-75.473147158355232
 20
-128.6853803886971
 30
0.0
 11
-75.531448579925609
 21
-128.72693569397771
 31
0.0
  0
LINE
  8
DETAIL
  6
CONTINUOUS
 62
     5
 10
-75.531448579925609
 20
-128.72693569397771
 30
0.0
 11
-75.590251851321
 21
-128.7676792928481
 31
0.0
  0
LINE
  8
DETAIL
  6
CONTINUOUS
 62
     5
 10
-75.590251851321
 20
-128.7676792928481
 30
0.0
 11
-75.590251851321
 21
-128.7676792928481
 31
0.0
  0
LINE
  8
DETAIL
  6
CONTINUOUS
 62
     5
 10
-75.590251851321
 20
-128.7676792928481
 30
0.0
 11
-75.649596383216135
 21
-128.8076461140752
 31
0.0
  0
LINE
  8
DETAIL
  6
CONTINUOUS
 62
     5
 10
-75.649596383216135
 20
-128.8076461140752
 30
0.0
 11
-75.709498243051485
 21
-128.84684476644929
 31
0.0
  0
LINE
  8
DETAIL
  6
CONTINUOUS
 62
     5
 10
-75.709498243051485
 20
-128.84684476644929
 30
0.0
 11
-75.709498243051485
 21
-128.84684476644929
 31
0.0
  0
LINE
  8
DETAIL
  6
CONTINUOUS
 62
     5
 10
-75.709498243051485
 20
-128.84684476644929
 30
0.0
 11
-75.769940222428204
 21
-128.885263005528
 31
0.0
  0
LINE
  8
DETAIL
  6
CONTINUOUS
 62
     5
 10
-75.769940222428204
 20
-128.885263005528
 30
0.0
 11
-75.830795352817177
 21
-128.92283149391051
 31
0.0
  0
LINE
  8
DETAIL
  6
CONTINUOUS
 62
     5
 10
-75.830795352817177
 20
-128.92283149391051
 30
0.0
 11
-75.830795352817177
 21
-128.92283149391051
 31
0.0
  0
LINE
  8
DETAIL
  6
CONTINUOUS
 62
     5
 10
-75.830795352817177
 20
-128.92283149391051
 30
0.0
 11
-75.892024821595669
 21
-128.9595302939083
 31
0.0
  0
LINE
  8
DETAIL
  6
CONTINUOUS
 62
     5
 10
-75.892024821595669
 20
-128.9595302939083
 30
0.0
 11
-75.95405219988811
 21
-128.99559415964151
 31
0.0
  0
LINE
  8
DETAIL
  6
CONTINUOUS
 62
     5
 10
-75.95405219988811
 20
-128.99559415964151
 30
0.0
 11
-75.95405219988811
 21
-128.99559415964151
 31
0.0
  0
LINE
  8
DETAIL
  6
CONTINUOUS
 62
     5
 10
-75.95405219988811
 20
-128.99559415964151
 30
0.0
 11
-76.017234942857158
 21
-129.0312178353814
 31
0.0
  0
LINE
  8
DETAIL
  6
CONTINUOUS
 62
     5
 10
-76.017234942857158
 20
-129.0312178353814
 30
0.0
 11
-76.081203658068944
 21
-129.06618133419661
 31
0.0
  0
LINE
  8
DETAIL
  6
CONTINUOUS
 62
     5
 10
-76.081203658068944
 20
-129.06618133419661
 30
0.0
 11
-76.081203658068944
 21
-129.06618133419661
 31
0.0
  0
LINE
  8
DETAIL
  6
CONTINUOUS
 62
     5
 10
-76.081203658068944
 20
-129.06618133419661
 30
0.0
 11
-76.145518534213124
 21
-129.10022769399771
 31
0.0
  0
LINE
  8
DETAIL
  6
CONTINUOUS
 62
     5
 10
-76.145518534213124
 20
-129.10022769399771
 30
0.0
 11
-76.210184932056791
 21
-129.13336678326729
 31
0.0
  0
LINE
  8
DETAIL
  6
CONTINUOUS
 62
     5
 10
-76.210184932056791
 20
-129.13336678326729
 30
0.0
 11
-76.210184932056791
 21
-129.13336678326729
 31
0.0
  0
LINE
  8
DETAIL
  6
CONTINUOUS
 62
     5
 10
-76.210184932056791
 20
-129.13336678326729
 30
0.0
 11
-76.275301705176275
 21
-129.16566201302791
 31
0.0
  0
LINE
  8
DETAIL
  6
CONTINUOUS
 62
     5
 10
-76.275301705176275
 20
-129.16566201302791
 30
0.0
 11
-76.340896506291529
 21
-129.19712413388999
 31
0.0
  0
LINE
  8
DETAIL
  6
CONTINUOUS
 62
     5
 10
-76.340896506291529
 20
-129.19712413388999
 30
0.0
 11
-76.340896506291529
 21
-129.19712413388999
 31
0.0
  0
LINE
  8
DETAIL
  6
CONTINUOUS
 62
     5
 10
-76.340896506291529
 20
-129.19712413388999
 30
0.0
 11
-76.406939095744292
 21
-129.22773668413029
 31
0.0
  0
LINE
  8
DETAIL
  6
CONTINUOUS
 62
     5
 10
-76.406939095744292
 20
-129.22773668413029
 30
0.0
 11
-76.47323886521076
 21
-129.25742701310071
 31
0.0
  0
LINE
  8
DETAIL
  6
CONTINUOUS
 62
     5
 10
-76.47323886521076
 20
-129.25742701310071
 30
0.0
 11
-76.47323886521076
 21
-129.25742701310071
 31
0.0
  0
LINE
  8
DETAIL
  6
CONTINUOUS
 62
     5
 10
-76.47323886521076
 20
-129.25742701310071
 30
0.0
 11
-76.539743283080838
 21
-129.28617777694981
 31
0.0
  0
LINE
  8
DETAIL
  6
CONTINUOUS
 62
     5
 10
-76.539743283080838
 20
-129.28617777694981
 30
0.0
 11
-76.607112493254817
 21
-129.31424904793539
 31
0.0
  0
LINE
  8
DETAIL
  6
CONTINUOUS
 62
     5
 10
-76.607112493254817
 20
-129.31424904793539
 30
0.0
 11
-76.607112493254817
 21
-129.31424904793539
 31
0.0
  0
LINE
  8
DETAIL
  6
CONTINUOUS
 62
     5
 10
-76.607112493254817
 20
-129.31424904793539
 30
0.0
 11
-76.675903205646591
 21
-129.34185541518181
 31
0.0
  0
LINE
  8
DETAIL
  6
CONTINUOUS
 62
     5
 10
-76.675903205646591
 20
-129.34185541518181
 30
0.0
 11
-76.745545718695894
 21
-129.36875211916831
 31
0.0
  0
LINE
  8
DETAIL
  6
CONTINUOUS
 62
     5
 10
-76.745545718695894
 20
-129.36875211916831
 30
0.0
 11
-76.745545718695894
 21
-129.36875211916831
 31
0.0
  0
LINE
  8
DETAIL
  6
CONTINUOUS
 62
     5
 10
-76.745545718695894
 20
-129.36875211916831
 30
0.0
 11
-76.81536246131077
 21
-129.39465454467509
 31
0.0
  0
LINE
  8
DETAIL
  6
CONTINUOUS
 62
     5
 10
-76.81536246131077
 20
-129.39465454467509
 30
0.0
 11
-76.885370795735298
 21
-129.41957800232839
 31
0.0
  0
LINE
  8
DETAIL
  6
CONTINUOUS
 62
     5
 10
-76.885370795735298
 20
-129.41957800232839
 30
0.0
 11
-76.885370795735298
 21
-129.41957800232839
 31
0.0
  0
LINE
  8
DETAIL
  6
CONTINUOUS
 62
     5
 10
-76.885370795735298
 20
-129.41957800232839
 30
0.0
 11
-76.955731140942817
 21
-129.44359662408911
 31
0.0
  0
LINE
  8
DETAIL
  6
CONTINUOUS
 62
     5
 10
-76.955731140942817
 20
-129.44359662408911
 30
0.0
 11
-77.026481209487201
 21
-129.46671990140851
 31
0.0
  0
LINE
  8
DETAIL
  6
CONTINUOUS
 62
     5
 10
-77.026481209487201
 20
-129.46671990140851
 30
0.0
 11
-77.026481209487201
 21
-129.46671990140851
 31
0.0
  0
LINE
  8
DETAIL
  6
CONTINUOUS
 62
     5
 10
-77.026481209487201
 20
-129.46671990140851
 30
0.0
 11
-77.097577010402347
 21
-129.48893082465861
 31
0.0
  0
LINE
  8
DETAIL
  6
CONTINUOUS
 62
     5
 10
-77.097577010402347
 20
-129.48893082465861
 30
0.0
 11
-77.168770445064411
 21
-129.5101710204018
 31
0.0
  0
LINE
  8
DETAIL
  6
CONTINUOUS
 62
     5
 10
-77.168770445064411
 20
-129.5101710204018
 30
0.0
 11
-77.168770445064411
 21
-129.5101710204018
 31
0.0
  0
LINE
  8
DETAIL
  6
CONTINUOUS
 62
     5
 10
-77.168770445064411
 20
-129.5101710204018
 30
0.0
 11
-77.239997172197263
 21
-129.5304292981848
 31
0.0
  0
LINE
  8
DETAIL
  6
CONTINUOUS
 62
     5
 10
-77.239997172197263
 20
-129.5304292981848
 30
0.0
 11
-77.312131987579733
 21
-129.54992456330109
 31
0.0
  0
LINE
  8
DETAIL
  6
CONTINUOUS
 62
     5
 10
-77.312131987579733
 20
-129.54992456330109
 30
0.0
 11
-77.312131987579733
 21
-129.54992456330109
 31
0.0
  0
LINE
  8
DETAIL
  6
CONTINUOUS
 62
     5
 10
-77.312131987579733
 20
-129.54992456330109
 30
0.0
 11
-77.385912016656107
 21
-129.56883542139749
 31
0.0
  0
LINE
  8
DETAIL
  6
CONTINUOUS
 62
     5
 10
-77.385912016656107
 20
-129.56883542139749
 30
0.0
 11
-77.46058456647711
 21
-129.5869491837864
 31
0.0
  0
LINE
  8
DETAIL
  6
CONTINUOUS
 62
     5
 10
-77.46058456647711
 20
-129.5869491837864
 30
0.0
 11
-77.46058456647711
 21
-129.5869491837864
 31
0.0
  0
LINE
  8
DETAIL
  6
CONTINUOUS
 62
     5
 10
-77.46058456647711
 20
-129.5869491837864
 30
0.0
 11
-77.535255704951055
 21
-129.60402083660409
 31
0.0
  0
LINE
  8
DETAIL
  6
CONTINUOUS
 62
     5
 10
-77.535255704951055
 20
-129.60402083660409
 30
0.0
 11
-77.609956361797003
 21
-129.62006735961589
 31
0.0
  0
LINE
  8
DETAIL
  6
CONTINUOUS
 62
     5
 10
-77.609956361797003
 20
-129.62006735961589
 30
0.0
 11
-77.609956361797003
 21
-129.62006735961589
 31
0.0
  0
LINE
  8
DETAIL
  6
CONTINUOUS
 62
     5
 10
-77.609956361797003
 20
-129.62006735961589
 30
0.0
 11
-77.684904957082153
 21
-129.63515573931801
 31
0.0
  0
LINE
  8
DETAIL
  6
CONTINUOUS
 62
     5
 10
-77.684904957082153
 20
-129.63515573931801
 30
0.0
 11
-77.760145010440965
 21
-129.6492909955048
 31
0.0
  0
LINE
  8
DETAIL
  6
CONTINUOUS
 62
     5
 10
-77.760145010440965
 20
-129.6492909955048
 30
0.0
 11
-77.760145010440965
 21
-129.6492909955048
 31
0.0
  0
LINE
  8
DETAIL
  6
CONTINUOUS
 62
     5
 10
-77.760145010440965
 20
-129.6492909955048
 30
0.0
 11
-77.835620001379084
 21
-129.6624591245901
 31
0.0
  0
LINE
  8
DETAIL
  6
CONTINUOUS
 62
     5
 10
-77.835620001379084
 20
-129.6624591245901
 30
0.0
 11
-77.911048149308726
 21
-129.67463199616819
 31
0.0
  0
LINE
  8
DETAIL
  6
CONTINUOUS
 62
     5
 10
-77.911048149308726
 20
-129.67463199616819
 30
0.0
 11
-77.911048149308726
 21
-129.67463199616819
 31
0.0
  0
LINE
  8
DETAIL
  6
CONTINUOUS
 62
     5
 10
-77.911048149308726
 20
-129.67463199616819
 30
0.0
 11
-77.986360343819683
 21
-129.68580756662351
 31
0.0
  0
LINE
  8
DETAIL
  6
CONTINUOUS
 62
     5
 10
-77.986360343819683
 20
-129.68580756662351
 30
0.0
 11
-78.062563415302748
 21
-129.69610226632119
 31
0.0
  0
LINE
  8
DETAIL
  6
CONTINUOUS
 62
     5
 10
-78.062563415302748
 20
-129.69610226632119
 30
0.0
 11
-78.062563415302748
 21
-129.69610226632119
 31
0.0
  0
LINE
  8
DETAIL
  6
CONTINUOUS
 62
     5
 10
-78.062563415302748
 20
-129.69610226632119
 30
0.0
 11
-78.140503337123846
 21
-129.70560809844019
 31
0.0
  0
LINE
  8
DETAIL
  6
CONTINUOUS
 62
     5
 10
-78.140503337123846
 20
-129.70560809844019
 30
0.0
 11
-78.219306713750257
 21
-129.71420088343311
 31
0.0
  0
LINE
  8
DETAIL
  6
CONTINUOUS
 62
     5
 10
-78.219306713750257
 20
-129.71420088343311
 30
0.0
 11
-78.219306713750257
 21
-129.71420088343311
 31
0.0
  0
LINE
  8
DETAIL
  6
CONTINUOUS
 62
     5
 10
-78.219306713750257
 20
-129.71420088343311
 30
0.0
 11
-78.297942385680471
 21
-129.72173896644341
 31
0.0
  0
LINE
  8
DETAIL
  6
CONTINUOUS
 62
     5
 10
-78.297942385680471
 20
-129.72173896644341
 30
0.0
 11
-78.376467506448307
 21
-129.7282269741028
 31
0.0
  0
LINE
  8
DETAIL
  6
CONTINUOUS
 62
     5
 10
-78.376467506448307
 20
-129.7282269741028
 30
0.0
 11
-78.376467506448307
 21
-129.7282269741028
 31
0.0
  0
LINE
  8
DETAIL
  6
CONTINUOUS
 62
     5
 10
-78.376467506448307
 20
-129.7282269741028
 30
0.0
 11
-78.455138608265088
 21
-129.73370513680999
 31
0.0
  0
LINE
  8
DETAIL
  6
CONTINUOUS
 62
     5
 10
-78.455138608265088
 20
-129.73370513680999
 30
0.0
 11
-78.533921425022754
 21
-129.73820981854411
 31
0.0
  0
LINE
  8
DETAIL
  6
CONTINUOUS
 62
     5
 10
-78.533921425022754
 20
-129.73820981854411
 30
0.0
 11
-78.533921425022754
 21
-129.73820981854411
 31
0.0
  0
LINE
  8
DETAIL
  6
CONTINUOUS
 62
     5
 10
-78.533921425022754
 20
-129.73820981854411
 30
0.0
 11
-78.612727711094749
 21
-129.74174371272659
 31
0.0
  0
LINE
  8
DETAIL
  6
CONTINUOUS
 62
     5
 10
-78.612727711094749
 20
-129.74174371272659
 30
0.0
 11
-78.691544101098543
 21
-129.74417869697169
 31
0.0
  0
LINE
  8
DETAIL
  6
CONTINUOUS
 62
     5
 10
-78.691544101098543
 20
-129.74417869697169
 30
0.0
 11
-78.691544101098543
 21
-129.74417869697169
 31
0.0
  0
LINE
  8
DETAIL
  6
CONTINUOUS
 62
     5
 10
-78.691544101098543
 20
-129.74417869697169
 30
0.0
 11
-78.770373769046955
 21
-129.74548572735449
 31
0.0
  0
LINE
  8
DETAIL
  6
CONTINUOUS
 62
     5
 10
-78.770373769046955
 20
-129.74548572735449
 30
0.0
 11
-78.84921116629971
 21
-129.74616288959999
 31
0.0
  0
LINE
  8
DETAIL
  6
CONTINUOUS
 62
     5
 10
-81.150788833699835
 20
-129.74616288959999
 30
0.0
 11
-81.22963469615047
 21
-129.74548587190489
 31
0.0
  0
LINE
  8
DETAIL
  6
CONTINUOUS
 62
     5
 10
-81.22963469615047
 20
-129.74548587190489
 30
0.0
 11
-81.308472815432424
 21
-129.7441787913622
 31
0.0
  0
LINE
  8
DETAIL
  6
CONTINUOUS
 62
     5
 10
-81.308472815432424
 20
-129.7441787913622
 30
0.0
 11
-81.308472815432424
 21
-129.7441787913622
 31
0.0
  0
LINE
  8
DETAIL
  6
CONTINUOUS
 62
     5
 10
-81.308472815432424
 20
-129.7441787913622
 30
0.0
 11
-81.387297641839041
 21
-129.74174340963069
 31
0.0
  0
LINE
  8
DETAIL
  6
CONTINUOUS
 62
     5
 10
-81.387297641839041
 20
-129.74174340963069
 30
0.0
 11
-81.466112399514941
 21
-129.7382087863964
 31
0.0
  0
LINE
  8
DETAIL
  6
CONTINUOUS
 62
     5
 10
-81.466112399514941
 20
-129.7382087863964
 30
0.0
 11
-81.466112399514941
 21
-129.7382087863964
 31
0.0
  0
LINE
  8
DETAIL
  6
CONTINUOUS
 62
     5
 10
-81.466112399514941
 20
-129.7382087863964
 30
0.0
 11
-81.544903729773296
 21
-129.73370309852359
 31
0.0
  0
LINE
  8
DETAIL
  6
CONTINUOUS
 62
     5
 10
-81.544903729773296
 20
-129.73370309852359
 30
0.0
 11
-81.623583168759751
 21
-129.7282236935645
 31
0.0
  0
LINE
  8
DETAIL
  6
CONTINUOUS
 62
     5
 10
-81.623583168759751
 20
-129.7282236935645
 30
0.0
 11
-81.623583168759751
 21
-129.7282236935645
 31
0.0
  0
LINE
  8
DETAIL
  6
CONTINUOUS
 62
     5
 10
-81.623583168759751
 20
-129.7282236935645
 30
0.0
 11
-81.70211638803471
 21
-129.7217342165487
 31
0.0
  0
LINE
  8
DETAIL
  6
CONTINUOUS
 62
     5
 10
-81.70211638803471
 20
-129.7217342165487
 30
0.0
 11
-81.7807607059774
 21
-129.71419433172809
 31
0.0
  0
LINE
  8
DETAIL
  6
CONTINUOUS
 62
     5
 10
-81.7807607059774
 20
-129.71419433172809
 30
0.0
 11
-81.7807607059774
 21
-129.71419433172809
 31
0.0
  0
LINE
  8
DETAIL
  6
CONTINUOUS
 62
     5
 10
-81.7807607059774
 20
-129.71419433172809
 30
0.0
 11
-81.859573482144697
 21
-129.70559939626591
 31
0.0
  0
LINE
  8
DETAIL
  6
CONTINUOUS
 62
     5
 10
-81.859573482144697
 20
-129.70559939626591
 30
0.0
 11
-81.937520593978434
 21
-129.69609151974899
 31
0.0
  0
LINE
  8
DETAIL
  6
CONTINUOUS
 62
     5
 10
-81.937520593978434
 20
-129.69609151974899
 30
0.0
 11
-81.937520593978434
 21
-129.69609151974899
 31
0.0
  0
LINE
  8
DETAIL
  6
CONTINUOUS
 62
     5
 10
-81.937520593978434
 20
-129.69609151974899
 30
0.0
 11
-82.013726143549093
 21
-129.68579528465429
 31
0.0
  0
LINE
  8
DETAIL
  6
CONTINUOUS
 62
     5
 10
-82.013726143549093
 20
-129.68579528465429
 30
0.0
 11
-82.0890386135668
 21
-129.67461841259549
 31
0.0
  0
LINE
  8
DETAIL
  6
CONTINUOUS
 62
     5
 10
-82.0890386135668
 20
-129.67461841259549
 30
0.0
 11
-82.0890386135668
 21
-129.67461841259549
 31
0.0
  0
LINE
  8
DETAIL
  6
CONTINUOUS
 62
     5
 10
-82.0890386135668
 20
-129.67461841259549
 30
0.0
 11
-82.164467804784181
 21
-129.662444121753
 31
0.0
  0
LINE
  8
DETAIL
  6
CONTINUOUS
 62
     5
 10
-82.164467804784181
 20
-129.662444121753
 30
0.0
 11
-82.239944409492409
 21
-129.64927447743869
 31
0.0
  0
LINE
  8
DETAIL
  6
CONTINUOUS
 62
     5
 10
-82.239944409492409
 20
-129.64927447743869
 30
0.0
 11
-82.239944409492409
 21
-129.64927447743869
 31
0.0
  0
LINE
  8
DETAIL
  6
CONTINUOUS
 62
     5
 10
-82.239944409492409
 20
-129.64927447743869
 30
0.0
 11
-82.315185856002927
 21
-129.6351377042599
 31
0.0
  0
LINE
  8
DETAIL
  6
CONTINUOUS
 62
     5
 10
-82.315185856002927
 20
-129.6351377042599
 30
0.0
 11
-82.390135625171524
 21
-129.6200478168727
 31
0.0
  0
LINE
  8
DETAIL
  6
CONTINUOUS
 62
     5
 10
-82.390135625171524
 20
-129.6200478168727
 30
0.0
 11
-82.390135625171524
 21
-129.6200478168727
 31
0.0
  0
LINE
  8
DETAIL
  6
CONTINUOUS
 62
     5
 10
-82.390135625171524
 20
-129.6200478168727
 30
0.0
 11
-82.464837435561094
 21
-129.6039997756136
 31
0.0
  0
LINE
  8
DETAIL
  6
CONTINUOUS
 62
     5
 10
-82.464837435561094
 20
-129.6039997756136
 30
0.0
 11
-82.539509904022225
 21
-129.58692653349121
 31
0.0
  0
LINE
  8
DETAIL
  6
CONTINUOUS
 62
     5
 10
-82.539509904022225
 20
-129.58692653349121
 30
0.0
 11
-82.539509904022225
 21
-129.58692653349121
 31
0.0
  0
LINE
  8
DETAIL
  6
CONTINUOUS
 62
     5
 10
-82.539509904022225
 20
-129.58692653349121
 30
0.0
 11
-82.614183960553873
 21
-129.56881110149789
 31
0.0
  0
LINE
  8
DETAIL
  6
CONTINUOUS
 62
     5
 10
-82.614183960553873
 20
-129.56881110149789
 30
0.0
 11
-82.687964889463501
 21
-129.54989872988801
 31
0.0
  0
LINE
  8
DETAIL
  6
CONTINUOUS
 62
     5
 10
-82.687964889463501
 20
-129.54989872988801
 30
0.0
 11
-82.687964889463501
 21
-129.54989872988801
 31
0.0
  0
LINE
  8
DETAIL
  6
CONTINUOUS
 62
     5
 10
-82.687964889463501
 20
-129.54989872988801
 30
0.0
 11
-82.760099348261292
 21
-129.53040230971061
 31
0.0
  0
LINE
  8
DETAIL
  6
CONTINUOUS
 62
     5
 10
-82.760099348261292
 20
-129.53040230971061
 30
0.0
 11
-82.831325132955271
 21
-129.51014305593421
 31
0.0
  0
LINE
  8
DETAIL
  6
CONTINUOUS
 62
     5
 10
-82.831325132955271
 20
-129.51014305593421
 30
0.0
 11
-82.831325132955271
 21
-129.51014305593421
 31
0.0
  0
LINE
  8
DETAIL
  6
CONTINUOUS
 62
     5
 10
-82.831325132955271
 20
-129.51014305593421
 30
0.0
 11
-82.902517827395286
 21
-129.4889018454038
 31
0.0
  0
LINE
  8
DETAIL
  6
CONTINUOUS
 62
     5
 10
-82.902517827395286
 20
-129.4889018454038
 30
0.0
 11
-82.973613028303362
 21
-129.4666898785506
 31
0.0
  0
LINE
  8
DETAIL
  6
CONTINUOUS
 62
     5
 10
-82.973613028303362
 20
-129.4666898785506
 30
0.0
 11
-82.973613028303362
 21
-129.4666898785506
 31
0.0
  0
LINE
  8
DETAIL
  6
CONTINUOUS
 62
     5
 10
-82.973613028303362
 20
-129.4666898785506
 30
0.0
 11
-83.04436242168731
 21
-129.44356557980771
 31
0.0
  0
LINE
  8
DETAIL
  6
CONTINUOUS
 62
     5
 10
-83.04436242168731
 20
-129.44356557980771
 30
0.0
 11
-83.114722037828642
 21
-129.41954594602711
 31
0.0
  0
LINE
  8
DETAIL
  6
CONTINUOUS
 62
     5
 10
-83.114722037828642
 20
-129.41954594602711
 30
0.0
 11
-83.114722037828642
 21
-129.41954594602711
 31
0.0
  0
LINE
  8
DETAIL
  6
CONTINUOUS
 62
     5
 10
-83.114722037828642
 20
-129.41954594602711
 30
0.0
 11
-83.184729645586231
 21
-129.3946214638502
 31
0.0
  0
LINE
  8
DETAIL
  6
CONTINUOUS
 62
     5
 10
-83.184729645586231
 20
-129.3946214638502
 30
0.0
 11
-83.254545623849253
 21
-129.36871800665381
 31
0.0
  0
LINE
  8
DETAIL
  6
CONTINUOUS
 62
     5
 10
-83.254545623849253
 20
-129.36871800665381
 30
0.0
 11
-83.254545623849253
 21
-129.36871800665381
 31
0.0
  0
LINE
  8
DETAIL
  6
CONTINUOUS
 62
     5
 10
-83.254545623849253
 20
-129.36871800665381
 30
0.0
 11
-83.324187307916191
 21
-129.34182026465839
 31
0.0
  0
LINE
  8
DETAIL
  6
CONTINUOUS
 62
     5
 10
-83.324187307916191
 20
-129.34182026465839
 30
0.0
 11
-83.392977248685156
 21
-129.3142128087205
 31
0.0
  0
LINE
  8
DETAIL
  6
CONTINUOUS
 62
     5
 10
-83.392977248685156
 20
-129.3142128087205
 30
0.0
 11
-83.392977248685156
 21
-129.3142128087205
 31
0.0
  0
LINE
  8
DETAIL
  6
CONTINUOUS
 62
     5
 10
-83.392977248685156
 20
-129.3142128087205
 30
0.0
 11
-83.460345852143973
 21
-129.28614036056021
 31
0.0
  0
LINE
  8
DETAIL
  6
CONTINUOUS
 62
     5
 10
-83.460345852143973
 20
-129.28614036056021
 30
0.0
 11
-83.526849729025571
 21
-129.25738836471379
 31
0.0
  0
LINE
  8
DETAIL
  6
CONTINUOUS
 62
     5
 10
-83.526849729025571
 20
-129.25738836471379
 30
0.0
 11
-83.526849729025571
 21
-129.25738836471379
 31
0.0
  0
LINE
  8
DETAIL
  6
CONTINUOUS
 62
     5
 10
-83.526849729025571
 20
-129.25738836471379
 30
0.0
 11
-83.593148902131588
 21
-129.2276967931821
 31
0.0
  0
LINE
  8
DETAIL
  6
CONTINUOUS
 62
     5
 10
-83.593148902131588
 20
-129.2276967931821
 30
0.0
 11
-83.659190837792949
 21
-129.1970830050071
 31
0.0
  0
LINE
  8
DETAIL
  6
CONTINUOUS
 62
     5
 10
-83.659190837792949
 20
-129.1970830050071
 30
0.0
 11
-83.659190837792949
 21
-129.1970830050071
 31
0.0
  0
LINE
  8
DETAIL
  6
CONTINUOUS
 62
     5
 10
-83.659190837792949
 20
-129.1970830050071
 30
0.0
 11
-83.724784961892283
 21
-129.16561965229661
 31
0.0
  0
LINE
  8
DETAIL
  6
CONTINUOUS
 62
     5
 10
-83.724784961892283
 20
-129.16561965229661
 30
0.0
 11
-83.789901094983861
 21
-129.13332317238161
 31
0.0
  0
LINE
  8
DETAIL
  6
CONTINUOUS
 62
     5
 10
-83.789901094983861
 20
-129.13332317238161
 30
0.0
 11
-83.789901094983861
 21
-129.13332317238161
 31
0.0
  0
LINE
  8
DETAIL
  6
CONTINUOUS
 62
     5
 10
-83.789901094983861
 20
-129.13332317238161
 30
0.0
 11
-83.854566900736472
 21
-129.10018281691501
 31
0.0
  0
LINE
  8
DETAIL
  6
CONTINUOUS
 62
     5
 10
-83.854566900736472
 20
-129.10018281691501
 30
0.0
 11
-83.918881020593062
 21
-129.06613530961829
 31
0.0
  0
LINE
  8
DETAIL
  6
CONTINUOUS
 62
     5
 10
-83.918881020593062
 20
-129.06613530961829
 30
0.0
 11
-83.918881020593062
 21
-129.06613530961829
 31
0.0
  0
LINE
  8
DETAIL
  6
CONTINUOUS
 62
     5
 10
-83.918881020593062
 20
-129.06613530961829
 30
0.0
 11
-83.982848763997254
 21
-129.03117082385631
 31
0.0
  0
LINE
  8
DETAIL
  6
CONTINUOUS
 62
     5
 10
-83.982848763997254
 20
-129.03117082385631
 30
0.0
 11
-84.04603113461576
 21
-128.99554585949861
 31
0.0
  0
LINE
  8
DETAIL
  6
CONTINUOUS
 62
     5
 10
-84.04603113461576
 20
-128.99554585949861
 30
0.0
 11
-84.04603113461576
 21
-128.99554585949861
 31
0.0
  0
LINE
  8
DETAIL
  6
CONTINUOUS
 62
     5
 10
-84.04603113461576
 20
-128.99554585949861
 30
0.0
 11
-84.108059424766225
 21
-128.95948000602201
 31
0.0
  0
LINE
  8
DETAIL
  6
CONTINUOUS
 62
     5
 10
-84.108059424766225
 20
-128.95948000602201
 30
0.0
 11
-84.169290387143292
 21
-128.92277888482391
 31
0.0
  0
LINE
  8
DETAIL
  6
CONTINUOUS
 62
     5
 10
-84.169290387143292
 20
-128.92277888482391
 30
0.0
 11
-84.169290387143292
 21
-128.92277888482391
 31
0.0
  0
LINE
  8
DETAIL
  6
CONTINUOUS
 62
     5
 10
-84.169290387143292
 20
-128.92277888482391
 30
0.0
 11
-84.230146762673712
 21
-128.88520818038941
 31
0.0
  0
LINE
  8
DETAIL
  6
CONTINUOUS
 62
     5
 10
-84.230146762673712
 20
-128.88520818038941
 30
0.0
 11
-84.290589784832036
 21
-128.84678779763391
 31
0.0
  0
LINE
  8
DETAIL
  6
CONTINUOUS
 62
     5
 10
-84.290589784832036
 20
-128.84678779763391
 30
0.0
 11
-84.290589784832036
 21
-128.84678779763391
 31
0.0
  0
LINE
  8
DETAIL
  6
CONTINUOUS
 62
     5
 10
-84.290589784832036
 20
-128.84678779763391
 30
0.0
 11
-84.350492698795961
 21
-128.80758694932351
 31
0.0
  0
LINE
  8
DETAIL
  6
CONTINUOUS
 62
     5
 10
-84.350492698795961
 20
-128.80758694932351
 30
0.0
 11
-84.409838304007963
 21
-128.76761785920331
 31
0.0
  0
LINE
  8
DETAIL
  6
CONTINUOUS
 62
     5
 10
-84.409838304007963
 20
-128.76761785920331
 30
0.0
 11
-84.409838304007963
 21
-128.76761785920331
 31
0.0
  0
LINE
  8
DETAIL
  6
CONTINUOUS
 62
     5
 10
-84.409838304007963
 20
-128.76761785920331
 30
0.0
 11
-84.468642611075666
 21
-128.72687193767669
 31
0.0
  0
LINE
  8
DETAIL
  6
CONTINUOUS
 62
     5
 10
-84.468642611075666
 20
-128.72687193767669
 30
0.0
 11
-84.526944920994765
 21
-128.68531433080651
 31
0.0
  0
LINE
  8
DETAIL
  6
CONTINUOUS
 62
     5
 10
-84.526944920994765
 20
-128.68531433080651
 30
0.0
 11
-84.526944920994765
 21
-128.68531433080651
 31
0.0
  0
LINE
  8
DETAIL
  6
CONTINUOUS
 62
     5
 10
-84.526944920994765
 20
-128.68531433080651
 30
0.0
 11
-84.584739678402912
 21
-128.64294413016631
 31
0.0
  0
LINE
  8
DETAIL
  6
CONTINUOUS
 62
     5
 10
-84.584739678402912
 20
-128.64294413016631
 30
0.0
 11
-84.64181861211614
 21
-128.59992247371801
 31
0.0
  0
LINE
  8
DETAIL
  6
CONTINUOUS
 62
     5
 10
-84.64181861211614
 20
-128.59992247371801
 30
0.0
 11
-84.64181861211614
 21
-128.59992247371801
 31
0.0
  0
LINE
  8
DETAIL
  6
CONTINUOUS
 62
     5
 10
-84.64181861211614
 20
-128.59992247371801
 30
0.0
 11
-84.698006897682262
 21
-128.55638716218431
 31
0.0
  0
LINE
  8
DETAIL
  6
CONTINUOUS
 62
     5
 10
-84.698006897682262
 20
-128.55638716218431
 30
0.0
 11
-84.753466213400543
 21
-128.51222060093991
 31
0.0
  0
LINE
  8
DETAIL
  6
CONTINUOUS
 62
     5
 10
-84.753466213400543
 20
-128.51222060093991
 30
0.0
 11
-84.753466213400543
 21
-128.51222060093991
 31
0.0
  0
LINE
  8
DETAIL
  6
CONTINUOUS
 62
     5
 10
-84.753466213400543
 20
-128.51222060093991
 30
0.0
 11
-84.808388353245618
 21
-128.46728135335351
 31
0.0
  0
LINE
  8
DETAIL
  6
CONTINUOUS
 62
     5
 10
-84.808388353245618
 20
-128.46728135335351
 30
0.0
 11
-84.862749071145799
 21
-128.4215880101161
 31
0.0
  0
LINE
  8
DETAIL
  6
CONTINUOUS
 62
     5
 10
-84.862749071145799
 20
-128.4215880101161
 30
0.0
 11
-84.862749071145799
 21
-128.4215880101161
 31
0.0
  0
LINE
  8
DETAIL
  6
CONTINUOUS
 62
     5
 10
-84.862749071145799
 20
-128.4215880101161
 30
0.0
 11
-84.916484561539619
 21
-128.37518847221551
 31
0.0
  0
LINE
  8
DETAIL
  6
CONTINUOUS
 62
     5
 10
-84.916484561539619
 20
-128.37518847221551
 30
0.0
 11
-84.96958882094691
 21
-128.32808785450911
 31
0.0
  0
LINE
  8
DETAIL
  6
CONTINUOUS
 62
     5
 10
-84.96958882094691
 20
-128.32808785450911
 30
0.0
 11
-84.96958882094691
 21
-128.32808785450911
 31
0.0
  0
LINE
  8
DETAIL
  6
CONTINUOUS
 62
     5
 10
-84.96958882094691
 20
-128.32808785450911
 30
0.0
 11
-85.022066504338682
 21
-128.28028335462179
 31
0.0
  0
LINE
  8
DETAIL
  6
CONTINUOUS
 62
     5
 10
-85.022066504338682
 20
-128.28028335462179
 30
0.0
 11
-85.073907098399786
 21
-128.23178328738129
 31
0.0
  0
LINE
  8
DETAIL
  6
CONTINUOUS
 62
     5
 10
-85.073907098399786
 20
-128.23178328738129
 30
0.0
 11
-85.073907098399786
 21
-128.23178328738129
 31
0.0
  0
LINE
  8
DETAIL
  6
CONTINUOUS
 62
     5
 10
-85.073907098399786
 20
-128.23178328738129
 30
0.0
 11
-85.125097015509937
 21
-128.18259832624571
 31
0.0
  0
LINE
  8
DETAIL
  6
CONTINUOUS
 62
     5
 10
-85.125097015509937
 20
-128.18259832624571
 30
0.0
 11
-85.175625539100793
 21
-128.13273746199459
 31
0.0
  0
LINE
  8
DETAIL
  6
CONTINUOUS
 62
     5
 10
-85.175625539100793
 20
-128.13273746199459
 30
0.0
 11
-85.175625539100793
 21
-128.13273746199459
 31
0.0
  0
LINE
  8
DETAIL
  6
CONTINUOUS
 62
     5
 10
-85.175625539100793
 20
-128.13273746199459
 30
0.0
 11
-85.225483342548387
 21
-128.0822090827817
 31
0.0
  0
LINE
  8
DETAIL
  6
CONTINUOUS
 62
     5
 10
-85.225483342548387
 20
-128.0822090827817
 30
0.0
 11
-85.27466378792974
 21
-128.0310208489386
 31
0.0
  0
LINE
  8
DETAIL
  6
CONTINUOUS
 62
     5
 10
-85.27466378792974
 20
-128.0310208489386
 30
0.0
 11
-85.27466378792974
 21
-128.0310208489386
 31
0.0
  0
LINE
  8
DETAIL
  6
CONTINUOUS
 62
     5
 10
-85.27466378792974
 20
-128.0310208489386
 30
0.0
 11
-85.323159938456911
 21
-127.9791814908706
 31
0.0
  0
LINE
  8
DETAIL
  6
CONTINUOUS
 62
     5
 10
-85.323159938456911
 20
-127.9791814908706
 30
0.0
 11
-85.370960973180217
 21
-127.9267047470988
 31
0.0
  0
LINE
  8
DETAIL
  6
CONTINUOUS
 62
     5
 10
-85.370960973180217
 20
-127.9267047470988
 30
0.0
 11
-85.370960973180217
 21
-127.9267047470988
 31
0.0
  0
LINE
  8
DETAIL
  6
CONTINUOUS
 62
     5
 10
-85.370960973180217
 20
-127.9267047470988
 30
0.0
 11
-85.418058032195631
 21
-127.8736016656208
 31
0.0
  0
LINE
  8
DETAIL
  6
CONTINUOUS
 62
     5
 10
-85.418058032195631
 20
-127.8736016656208
 30
0.0
 11
-85.46445398395349
 21
-127.8198675242194
 31
0.0
  0
LINE
  8
DETAIL
  6
CONTINUOUS
 62
     5
 10
-85.46445398395349
 20
-127.8198675242194
 30
0.0
 11
-85.46445398395349
 21
-127.8198675242194
 31
0.0
  0
LINE
  8
DETAIL
  6
CONTINUOUS
 62
     5
 10
-85.46445398395349
 20
-127.8198675242194
 30
0.0
 11
-85.510143871680384
 21
-127.7655081763094
 31
0.0
  0
LINE
  8
DETAIL
  6
CONTINUOUS
 62
     5
 10
-85.510143871680384
 20
-127.7655081763094
 30
0.0
 11
-85.555079709349911
 21
-127.7105875480438
 31
0.0
  0
LINE
  8
DETAIL
  6
CONTINUOUS
 62
     5
 10
-85.555079709349911
 20
-127.7105875480438
 30
0.0
 11
-85.555079709349911
 21
-127.7105875480438
 31
0.0
  0
LINE
  8
DETAIL
  6
CONTINUOUS
 62
     5
 10
-85.555079709349911
 20
-127.7105875480438
 30
0.0
 11
-85.599242850785913
 21
-127.6551299535752
 31
0.0
  0
LINE
  8
DETAIL
  6
CONTINUOUS
 62
     5
 10
-85.599242850785913
 20
-127.6551299535752
 30
0.0
 11
-85.642775038469836
 21
-127.59894318631591
 31
0.0
  0
LINE
  8
DETAIL
  6
CONTINUOUS
 62
     5
 10
-85.642775038469836
 20
-127.59894318631591
 30
0.0
 11
-85.642775038469836
 21
-127.59894318631591
 31
0.0
  0
LINE
  8
DETAIL
  6
CONTINUOUS
 62
     5
 10
-85.642775038469836
 20
-127.59894318631591
 30
0.0
 11
-85.685794130348995
 21
-127.54186520780679
 31
0.0
  0
LINE
  8
DETAIL
  6
CONTINUOUS
 62
     5
 10
-85.685794130348995
 20
-127.54186520780679
 30
0.0
 11
-85.728162057588406
 21
-127.48407117284491
 31
0.0
  0
LINE
  8
DETAIL
  6
CONTINUOUS
 62
     5
 10
-85.728162057588406
 20
-127.48407117284491
 30
0.0
 11
-85.728162057588406
 21
-127.48407117284491
 31
0.0
  0
LINE
  8
DETAIL
  6
CONTINUOUS
 62
     5
 10
-85.728162057588406
 20
-127.48407117284491
 30
0.0
 11
-85.769717362871916
 21
-127.425769751275
 31
0.0
  0
LINE
  8
DETAIL
  6
CONTINUOUS
 62
     5
 10
-85.769717362871916
 20
-127.425769751275
 30
0.0
 11
-85.810460961744639
 21
-127.36696647988011
 31
0.0
  0
LINE
  8
DETAIL
  6
CONTINUOUS
 62
     5
 10
-85.810460961744639
 20
-127.36696647988011
 30
0.0
 11
-85.810460961744639
 21
-127.36696647988011
 31
0.0
  0
LINE
  8
DETAIL
  6
CONTINUOUS
 62
     5
 10
-85.810460961744639
 20
-127.36696647988011
 30
0.0
 11
-85.850427782973384
 21
-127.30762194798611
 31
0.0
  0
LINE
  8
DETAIL
  6
CONTINUOUS
 62
     5
 10
-85.850427782973384
 20
-127.30762194798611
 30
0.0
 11
-85.889626435348646
 21
-127.24772008815209
 31
0.0
  0
LINE
  8
DETAIL
  6
CONTINUOUS
 62
     5
 10
-85.889626435348646
 20
-127.24772008815209
 30
0.0
 11
-85.889626435348646
 21
-127.24772008815209
 31
0.0
  0
LINE
  8
DETAIL
  6
CONTINUOUS
 62
     5
 10
-85.889626435348646
 20
-127.24772008815209
 30
0.0
 11
-85.928044674428065
 21
-127.1872781087777
 31
0.0
  0
LINE
  8
DETAIL
  6
CONTINUOUS
 62
     5
 10
-85.928044674428065
 20
-127.1872781087777
 30
0.0
 11
-85.965613162810541
 21
-127.1264229783912
 31
0.0
  0
LINE
  8
DETAIL
  6
CONTINUOUS
 62
     5
 10
-85.965613162810541
 20
-127.1264229783912
 30
0.0
 11
-85.965613162810541
 21
-127.1264229783912
 31
0.0
  0
LINE
  8
DETAIL
  6
CONTINUOUS
 62
     5
 10
-85.965613162810541
 20
-127.1264229783912
 30
0.0
 11
-86.00231196280879
 21
-127.06519350961619
 31
0.0
  0
LINE
  8
DETAIL
  6
CONTINUOUS
 62
     5
 10
-86.00231196280879
 20
-127.06519350961619
 30
0.0
 11
-86.038375828541348
 21
-127.0031661313282
 31
0.0
  0
LINE
  8
DETAIL
  6
CONTINUOUS
 62
     5
 10
-86.038375828541348
 20
-127.0031661313282
 30
0.0
 11
-86.038375828541348
 21
-127.0031661313282
 31
0.0
  0
LINE
  8
DETAIL
  6
CONTINUOUS
 62
     5
 10
-86.038375828541348
 20
-127.0031661313282
 30
0.0
 11
-86.073999504281574
 21
-126.93998338836479
 31
0.0
  0
LINE
  8
DETAIL
  6
CONTINUOUS
 62
     5
 10
-86.073999504281574
 20
-126.93998338836479
 30
0.0
 11
-86.108963003096278
 21
-126.87601467315871
 31
0.0
  0
LINE
  8
DETAIL
  6
CONTINUOUS
 62
     5
 10
-86.108963003096278
 20
-126.87601467315871
 30
0.0
 11
-86.108963003096278
 21
-126.87601467315871
 31
0.0
  0
LINE
  8
DETAIL
  6
CONTINUOUS
 62
     5
 10
-86.108963003096278
 20
-126.87601467315871
 30
0.0
 11
-86.143009362897601
 21
-126.81169979702121
 31
0.0
  0
LINE
  8
DETAIL
  6
CONTINUOUS
 62
     5
 10
-86.143009362897601
 20
-126.81169979702121
 30
0.0
 11
-86.176148452166444
 21
-126.74703339918381
 31
0.0
  0
LINE
  8
DETAIL
  6
CONTINUOUS
 62
     5
 10
-86.176148452166444
 20
-126.74703339918381
 30
0.0
 11
-86.176148452166444
 21
-126.74703339918381
 31
0.0
  0
LINE
  8
DETAIL
  6
CONTINUOUS
 62
     5
 10
-86.176148452166444
 20
-126.74703339918381
 30
0.0
 11
-86.208443681925928
 21
-126.6819166260713
 31
0.0
  0
LINE
  8
DETAIL
  6
CONTINUOUS
 62
     5
 10
-86.208443681925928
 20
-126.6819166260713
 30
0.0
 11
-86.239905802786552
 21
-126.616321824962
 31
0.0
  0
LINE
  8
DETAIL
  6
CONTINUOUS
 62
     5
 10
-86.239905802786552
 20
-126.616321824962
 30
0.0
 11
-86.239905802786552
 21
-126.616321824962
 31
0.0
  0
LINE
  8
DETAIL
  6
CONTINUOUS
 62
     5
 10
-86.239905802786552
 20
-126.616321824962
 30
0.0
 11
-86.270518353024954
 21
-126.55027923551459
 31
0.0
  0
LINE
  8
DETAIL
  6
CONTINUOUS
 62
     5
 10
-86.270518353024954
 20
-126.55027923551459
 30
0.0
 11
-86.300208681992672
 21
-126.48397946605191
 31
0.0
  0
LINE
  8
DETAIL
  6
CONTINUOUS
 62
     5
 10
-86.300208681992672
 20
-126.48397946605191
 30
0.0
 11
-86.300208681992672
 21
-126.48397946605191
 31
0.0
  0
LINE
  8
DETAIL
  6
CONTINUOUS
 62
     5
 10
-86.300208681992672
 20
-126.48397946605191
 30
0.0
 11
-86.328959445838336
 21
-126.417475048185
 31
0.0
  0
LINE
  8
DETAIL
  6
CONTINUOUS
 62
     5
 10
-86.328959445838336
 20
-126.417475048185
 30
0.0
 11
-86.357030716819054
 21
-126.3501058380117
 31
0.0
  0
LINE
  8
DETAIL
  6
CONTINUOUS
 62
     5
 10
-86.357030716819054
 20
-126.3501058380117
 30
0.0
 11
-86.357030716819054
 21
-126.3501058380117
 31
0.0
  0
LINE
  8
DETAIL
  6
CONTINUOUS
 62
     5
 10
-86.357030716819054
 20
-126.3501058380117
 30
0.0
 11
-86.384637084060387
 21
-126.2813151256198
 31
0.0
  0
LINE
  8
DETAIL
  6
CONTINUOUS
 62
     5
 10
-86.384637084060387
 20
-126.2813151256198
 30
0.0
 11
-86.41153378804097
 21
-126.2116726125679
 31
0.0
  0
LINE
  8
DETAIL
  6
CONTINUOUS
 62
     5
 10
-86.41153378804097
 20
-126.2116726125679
 30
0.0
 11
-86.41153378804097
 21
-126.2116726125679
 31
0.0
  0
LINE
  8
DETAIL
  6
CONTINUOUS
 62
     5
 10
-86.41153378804097
 20
-126.2116726125679
 30
0.0
 11
-86.437436213540877
 21
-126.141855869949
 31
0.0
  0
LINE
  8
DETAIL
  6
CONTINUOUS
 62
     5
 10
-86.437436213540877
 20
-126.141855869949
 30
0.0
 11
-86.462359671187869
 21
-126.0718475355194
 31
0.0
  0
LINE
  8
DETAIL
  6
CONTINUOUS
 62
     5
 10
-86.462359671187869
 20
-126.0718475355194
 30
0.0
 11
-86.462359671187869
 21
-126.0718475355194
 31
0.0
  0
LINE
  8
DETAIL
  6
CONTINUOUS
 62
     5
 10
-86.462359671187869
 20
-126.0718475355194
 30
0.0
 11
-86.486378292941708
 21
-126.00148719030599
 31
0.0
  0
LINE
  8
DETAIL
  6
CONTINUOUS
 62
     5
 10
-86.486378292941708
 20
-126.00148719030599
 30
0.0
 11
-86.509501570255225
 21
-125.9307371217552
 31
0.0
  0
LINE
  8
DETAIL
  6
CONTINUOUS
 62
     5
 10
-86.509501570255225
 20
-125.9307371217552
 30
0.0
 11
-86.509501570255225
 21
-125.9307371217552
 31
0.0
  0
LINE
  8
DETAIL
  6
CONTINUOUS
 62
     5
 10
-86.509501570255225
 20
-125.9307371217552
 30
0.0
 11
-86.531712493500208
 21
-125.8596413208334
 31
0.0
  0
LINE
  8
DETAIL
  6
CONTINUOUS
 62
     5
 10
-86.531712493500208
 20
-125.8596413208334
 30
0.0
 11
-86.552952689239419
 21
-125.7884478861648
 31
0.0
  0
LINE
  8
DETAIL
  6
CONTINUOUS
 62
     5
 10
-86.552952689239419
 20
-125.7884478861648
 30
0.0
 11
-86.552952689239419
 21
-125.7884478861648
 31
0.0
  0
LINE
  8
DETAIL
  6
CONTINUOUS
 62
     5
 10
-86.552952689239419
 20
-125.7884478861648
 30
0.0
 11
-86.573210967019577
 21
-125.7172211590256
 31
0.0
  0
LINE
  8
DETAIL
  6
CONTINUOUS
 62
     5
 10
-86.573210967019577
 20
-125.7172211590256
 30
0.0
 11
-86.592706232135015
 21
-125.6450863436374
 31
0.0
  0
LINE
  8
DETAIL
  6
CONTINUOUS
 62
     5
 10
-86.592706232135015
 20
-125.6450863436374
 30
0.0
 11
-86.592706232135015
 21
-125.6450863436374
 31
0.0
  0
LINE
  8
DETAIL
  6
CONTINUOUS
 62
     5
 10
-86.592706232135015
 20
-125.6450863436374
 30
0.0
 11
-86.611617090231675
 21
-125.57130631455659
 31
0.0
  0
LINE
  8
DETAIL
  6
CONTINUOUS
 62
     5
 10
-86.611617090231675
 20
-125.57130631455659
 30
0.0
 11
-86.629730852622515
 21
-125.4966337647315
 31
0.0
  0
LINE
  8
DETAIL
  6
CONTINUOUS
 62
     5
 10
-86.629730852622515
 20
-125.4966337647315
 30
0.0
 11
-86.629730852622515
 21
-125.4966337647315
 31
0.0
  0
LINE
  8
DETAIL
  6
CONTINUOUS
 62
     5
 10
-86.629730852622515
 20
-125.4966337647315
 30
0.0
 11
-86.646802505444384
 21
-125.4219626262549
 31
0.0
  0
LINE
  8
DETAIL
  6
CONTINUOUS
 62
     5
 10
-86.646802505444384
 20
-125.4219626262549
 30
0.0
 11
-86.662849028461324
 21
-125.3472619694065
 31
0.0
  0
LINE
  8
DETAIL
  6
CONTINUOUS
 62
     5
 10
-86.662849028461324
 20
-125.3472619694065
 30
0.0
 11
-86.662849028461324
 21
-125.3472619694065
 31
0.0
  0
LINE
  8
DETAIL
  6
CONTINUOUS
 62
     5
 10
-86.662849028461324
 20
-125.3472619694065
 30
0.0
 11
-86.677937408169328
 21
-125.2723133741202
 31
0.0
  0
LINE
  8
DETAIL
  6
CONTINUOUS
 62
     5
 10
-86.677937408169328
 20
-125.2723133741202
 30
0.0
 11
-86.69207266436274
 21
-125.1970733207604
 31
0.0
  0
LINE
  8
DETAIL
  6
CONTINUOUS
 62
     5
 10
-86.69207266436274
 20
-125.1970733207604
 30
0.0
 11
-86.69207266436274
 21
-125.1970733207604
 31
0.0
  0
LINE
  8
DETAIL
  6
CONTINUOUS
 62
     5
 10
-86.69207266436274
 20
-125.1970733207604
 30
0.0
 11
-86.705240793454777
 21
-125.1215983298215
 31
0.0
  0
LINE
  8
DETAIL
  6
CONTINUOUS
 62
     5
 10
-86.705240793454777
 20
-125.1215983298215
 30
0.0
 11
-86.717413665038976
 21
-125.0461701818914
 31
0.0
  0
LINE
  8
DETAIL
  6
CONTINUOUS
 62
     5
 10
-86.717413665038976
 20
-125.0461701818914
 30
0.0
 11
-86.717413665038976
 21
-125.0461701818914
 31
0.0
  0
LINE
  8
DETAIL
  6
CONTINUOUS
 62
     5
 10
-86.717413665038976
 20
-125.0461701818914
 30
0.0
 11
-86.728589235500522
 21
-124.9708579873806
 31
0.0
  0
LINE
  8
DETAIL
  6
CONTINUOUS
 62
     5
 10
-86.728589235500522
 20
-124.9708579873806
 30
0.0
 11
-86.738883935204058
 21
-124.8946549158977
 31
0.0
  0
LINE
  8
DETAIL
  6
CONTINUOUS
 62
     5
 10
-86.738883935204058
 20
-124.8946549158977
 30
0.0
 11
-86.738883935204058
 21
-124.8946549158977
 31
0.0
  0
LINE
  8
DETAIL
  6
CONTINUOUS
 62
     5
 10
-86.738883935204058
 20
-124.8946549158977
 30
0.0
 11
-86.748389767327353
 21
-124.81671499407631
 31
0.0
  0
LINE
  8
DETAIL
  6
CONTINUOUS
 62
     5
 10
-86.748389767327353
 20
-124.81671499407631
 30
0.0
 11
-86.756982552323961
 21
-124.7379116174501
 31
0.0
  0
LINE
  8
DETAIL
  6
CONTINUOUS
 62
     5
 10
-86.756982552323961
 20
-124.7379116174501
 30
0.0
 11
-86.756982552323961
 21
-124.7379116174501
 31
0.0
  0
LINE
  8
DETAIL
  6
CONTINUOUS
 62
     5
 10
-86.756982552323961
 20
-124.7379116174501
 30
0.0
 11
-86.764520635337249
 21
-124.6592759455195
 31
0.0
  0
LINE
  8
DETAIL
  6
CONTINUOUS
 62
     5
 10
-86.764520635337249
 20
-124.6592759455195
 30
0.0
 11
-86.771008642998595
 21
-124.5807508247517
 31
0.0
  0
LINE
  8
DETAIL
  6
CONTINUOUS
 62
     5
 10
-86.771008642998595
 20
-124.5807508247517
 30
0.0
 11
-86.771008642998595
 21
-124.5807508247517
 31
0.0
  0
LINE
  8
DETAIL
  6
CONTINUOUS
 62
     5
 10
-86.771008642998595
 20
-124.5807508247517
 30
0.0
 11
-86.776486805708146
 21
-124.50207972293499
 31
0.0
  0
LINE
  8
DETAIL
  6
CONTINUOUS
 62
     5
 10
-86.776486805708146
 20
-124.50207972293499
 30
0.0
 11
-86.780991487443089
 21
-124.4232969061773
 31
0.0
  0
LINE
  8
DETAIL
  6
CONTINUOUS
 62
     5
 10
-86.780991487443089
 20
-124.4232969061773
 30
0.0
 11
-86.780991487443089
 21
-124.4232969061773
 31
0.0
  0
LINE
  8
DETAIL
  6
CONTINUOUS
 62
     5
 10
-86.780991487443089
 20
-124.4232969061773
 30
0.0
 11
-86.784525381626054
 21
-124.34449062010511
 31
0.0
  0
LINE
  8
DETAIL
  6
CONTINUOUS
 62
     5
 10
-86.784525381626054
 20
-124.34449062010511
 30
0.0
 11
-86.786960365871664
 21
-124.26567423010179
 31
0.0
  0
LINE
  8
DETAIL
  6
CONTINUOUS
 62
     5
 10
-86.786960365871664
 20
-124.26567423010179
 30
0.0
 11
-86.786960365871664
 21
-124.26567423010179
 31
0.0
  0
LINE
  8
DETAIL
  6
CONTINUOUS
 62
     5
 10
-86.786960365871664
 20
-124.26567423010179
 30
0.0
 11
-86.788267396254696
 21
-124.1868445621531
 31
0.0
  0
LINE
  8
DETAIL
  6
CONTINUOUS
 62
     5
 10
-86.788267396254696
 20
-124.1868445621531
 30
0.0
 11
-86.788944558500361
 21
-124.1080071649
 31
0.0
  0
LINE
  8
DETAIL
  6
CONTINUOUS
 62
     5
 10
-86.788944558500361
 20
124.1080071649
 30
0.0
 11
-86.78826754080319
 21
124.1868530273242
 31
0.0
  0
LINE
  8
DETAIL
  6
CONTINUOUS
 62
     5
 10
-86.78826754080319
 20
124.1868530273242
 30
0.0
 11
-86.786960460256296
 21
124.26569114658319
 31
0.0
  0
LINE
  8
DETAIL
  6
CONTINUOUS
 62
     5
 10
-86.786960460256296
 20
124.26569114658319
 30
0.0
 11
-86.786960460256296
 21
124.26569114658319
 31
0.0
  0
LINE
  8
DETAIL
  6
CONTINUOUS
 62
     5
 10
-86.786960460256296
 20
124.26569114658319
 30
0.0
 11
-86.784525078519209
 21
124.3445159729731
 31
0.0
  0
LINE
  8
DETAIL
  6
CONTINUOUS
 62
     5
 10
-86.784525078519209
 20
124.3445159729731
 30
0.0
 11
-86.780990455277106
 21
124.42333073063659
 31
0.0
  0
LINE
  8
DETAIL
  6
CONTINUOUS
 62
     5
 10
-86.780990455277106
 20
124.42333073063659
 30
0.0
 11
-86.780990455277106
 21
124.42333073063659
 31
0.0
  0
LINE
  8
DETAIL
  6
CONTINUOUS
 62
     5
 10
-86.780990455277106
 20
124.42333073063659
 30
0.0
 11
-86.776484767395232
 21
124.5021220608859
 31
0.0
  0
LINE
  8
DETAIL
  6
CONTINUOUS
 62
     5
 10
-86.776484767395232
 20
124.5021220608859
 30
0.0
 11
-86.77100536242574
 21
124.5808014998662
 31
0.0
  0
LINE
  8
DETAIL
  6
CONTINUOUS
 62
     5
 10
-86.77100536242574
 20
124.5808014998662
 30
0.0
 11
-86.77100536242574
 21
124.5808014998662
 31
0.0
  0
LINE
  8
DETAIL
  6
CONTINUOUS
 62
     5
 10
-86.77100536242574
 20
124.5808014998662
 30
0.0
 11
-86.764515885399987
 21
124.65933471913721
 31
0.0
  0
LINE
  8
DETAIL
  6
CONTINUOUS
 62
     5
 10
-86.764515885399987
 20
124.65933471913721
 30
0.0
 11
-86.756976000569693
 21
124.73797903707801
 31
0.0
  0
LINE
  8
DETAIL
  6
CONTINUOUS
 62
     5
 10
-86.756976000569693
 20
124.73797903707801
 30
0.0
 11
-86.756976000569693
 21
124.73797903707801
 31
0.0
  0
LINE
  8
DETAIL
  6
CONTINUOUS
 62
     5
 10
-86.756976000569693
 20
124.73797903707801
 30
0.0
 11
-86.748381065098556
 21
124.81679181324481
 31
0.0
  0
LINE
  8
DETAIL
  6
CONTINUOUS
 62
     5
 10
-86.748381065098556
 20
124.81679181324481
 30
0.0
 11
-86.738873188573734
 21
124.8947389250779
 31
0.0
  0
LINE
  8
DETAIL
  6
CONTINUOUS
 62
     5
 10
-86.738873188573734
 20
124.8947389250779
 30
0.0
 11
-86.738873188573734
 21
124.8947389250779
 31
0.0
  0
LINE
  8
DETAIL
  6
CONTINUOUS
 62
     5
 10
-86.738873188573734
 20
124.8947389250779
 30
0.0
 11
-86.728576953472157
 21
124.9709444746492
 31
0.0
  0
LINE
  8
DETAIL
  6
CONTINUOUS
 62
     5
 10
-86.728576953472157
 20
124.9709444746492
 30
0.0
 11
-86.717400081408186
 21
125.04625694466699
 31
0.0
  0
LINE
  8
DETAIL
  6
CONTINUOUS
 62
     5
 10
-86.717400081408186
 20
125.04625694466699
 30
0.0
 11
-86.717400081408186
 21
125.04625694466699
 31
0.0
  0
LINE
  8
DETAIL
  6
CONTINUOUS
 62
     5
 10
-86.717400081408186
 20
125.04625694466699
 30
0.0
 11
-86.705225790561826
 21
125.1216861358845
 31
0.0
  0
LINE
  8
DETAIL
  6
CONTINUOUS
 62
     5
 10
-86.705225790561826
 20
125.1216861358845
 30
0.0
 11
-86.692056146245477
 21
125.1971627405931
 31
0.0
  0
LINE
  8
DETAIL
  6
CONTINUOUS
 62
     5
 10
-86.692056146245477
 20
125.1971627405931
 30
0.0
 11
-86.692056146245477
 21
125.1971627405931
 31
0.0
  0
LINE
  8
DETAIL
  6
CONTINUOUS
 62
     5
 10
-86.692056146245477
 20
125.1971627405931
 30
0.0
 11
-86.677919373065151
 21
125.2724041871047
 31
0.0
  0
LINE
  8
DETAIL
  6
CONTINUOUS
 62
     5
 10
-86.677919373065151
 20
125.2724041871047
 30
0.0
 11
-86.662829485678003
 21
125.3473539562749
 31
0.0
  0
LINE
  8
DETAIL
  6
CONTINUOUS
 62
     5
 10
-86.662829485678003
 20
125.3473539562749
 30
0.0
 11
-86.662829485678003
 21
125.3473539562749
 31
0.0
  0
LINE
  8
DETAIL
  6
CONTINUOUS
 62
     5
 10
-86.662829485678003
 20
125.3473539562749
 30
0.0
 11
-86.646781444419958
 21
125.422055766667
 31
0.0
  0
LINE
  8
DETAIL
  6
CONTINUOUS
 62
     5
 10
-86.646781444419958
 20
125.422055766667
 30
0.0
 11
-86.62970820229998
 21
125.4967282351312
 31
0.0
  0
LINE
  8
DETAIL
  6
CONTINUOUS
 62
     5
 10
-86.62970820229998
 20
125.4967282351312
 30
0.0
 11
-86.62970820229998
 21
125.4967282351312
 31
0.0
  0
LINE
  8
DETAIL
  6
CONTINUOUS
 62
     5
 10
-86.62970820229998
 20
125.4967282351312
 30
0.0
 11
-86.611592770310608
 21
125.5714022916665
 31
0.0
  0
LINE
  8
DETAIL
  6
CONTINUOUS
 62
     5
 10
-86.611592770310608
 20
125.5714022916665
 30
0.0
 11
-86.592680398705625
 21
125.6451832205809
 31
0.0
  0
LINE
  8
DETAIL
  6
CONTINUOUS
 62
     5
 10
-86.592680398705625
 20
125.6451832205809
 30
0.0
 11
-86.592680398705625
 21
125.6451832205809
 31
0.0
  0
LINE
  8
DETAIL
  6
CONTINUOUS
 62
     5
 10
-86.592680398705625
 20
125.6451832205809
 30
0.0
 11
-86.57318397853328
 21
125.7173176793839
 31
0.0
  0
LINE
  8
DETAIL
  6
CONTINUOUS
 62
     5
 10
-86.57318397853328
 20
125.7173176793839
 30
0.0
 11
-86.552924724762988
 21
125.7885434640839
 31
0.0
  0
LINE
  8
DETAIL
  6
CONTINUOUS
 62
     5
 10
-86.552924724762988
 20
125.7885434640839
 30
0.0
 11
-86.552924724762988
 21
125.7885434640839
 31
0.0
  0
LINE
  8
DETAIL
  6
CONTINUOUS
 62
     5
 10
-86.552924724762988
 20
125.7885434640839
 30
0.0
 11
-86.531683514239148
 21
125.85973615853079
 31
0.0
  0
LINE
  8
DETAIL
  6
CONTINUOUS
 62
     5
 10
-86.531683514239148
 20
125.85973615853079
 30
0.0
 11
-86.509471547393105
 21
125.9308313594458
 31
0.0
  0
LINE
  8
DETAIL
  6
CONTINUOUS
 62
     5
 10
-86.509471547393105
 20
125.9308313594458
 30
0.0
 11
-86.509471547393105
 21
125.9308313594458
 31
0.0
  0
LINE
  8
DETAIL
  6
CONTINUOUS
 62
     5
 10
-86.509471547393105
 20
125.9308313594458
 30
0.0
 11
-86.486347248656557
 21
126.00158075283591
 31
0.0
  0
LINE
  8
DETAIL
  6
CONTINUOUS
 62
     5
 10
-86.486347248656557
 20
126.00158075283591
 30
0.0
 11
-86.462327614882042
 21
126.07194036898321
 31
0.0
  0
LINE
  8
DETAIL
  6
CONTINUOUS
 62
     5
 10
-86.462327614882042
 20
126.07194036898321
 30
0.0
 11
-86.462327614882042
 21
126.07194036898321
 31
0.0
  0
LINE
  8
DETAIL
  6
CONTINUOUS
 62
     5
 10
-86.462327614882042
 20
126.07194036898321
 30
0.0
 11
-86.437403132709505
 21
126.1419479767459
 31
0.0
  0
LINE
  8
DETAIL
  6
CONTINUOUS
 62
     5
 10
-86.437403132709505
 20
126.1419479767459
 30
0.0
 11
-86.411499675517234
 21
126.211763955013
 31
0.0
  0
LINE
  8
DETAIL
  6
CONTINUOUS
 62
     5
 10
-86.411499675517234
 20
126.211763955013
 30
0.0
 11
-86.411499675517234
 21
126.211763955013
 31
0.0
  0
LINE
  8
DETAIL
  6
CONTINUOUS
 62
     5
 10
-86.411499675517234
 20
126.211763955013
 30
0.0
 11
-86.384601933524664
 21
126.281405639082
 31
0.0
  0
LINE
  8
DETAIL
  6
CONTINUOUS
 62
     5
 10
-86.384601933524664
 20
126.281405639082
 30
0.0
 11
-86.356994477587477
 21
126.350195579852
 31
0.0
  0
LINE
  8
DETAIL
  6
CONTINUOUS
 62
     5
 10
-86.356994477587477
 20
126.350195579852
 30
0.0
 11
-86.356994477587477
 21
126.350195579852
 31
0.0
  0
LINE
  8
DETAIL
  6
CONTINUOUS
 62
     5
 10
-86.356994477587477
 20
126.350195579852
 30
0.0
 11
-86.328922029426167
 21
126.41756418330969
 31
0.0
  0
LINE
  8
DETAIL
  6
CONTINUOUS
 62
     5
 10
-86.328922029426167
 20
126.41756418330969
 30
0.0
 11
-86.300170033576933
 21
126.48406806018841
 31
0.0
  0
LINE
  8
DETAIL
  6
CONTINUOUS
 62
     5
 10
-86.300170033576933
 20
126.48406806018841
 30
0.0
 11
-86.300170033576933
 21
126.48406806018841
 31
0.0
  0
LINE
  8
DETAIL
  6
CONTINUOUS
 62
     5
 10
-86.300170033576933
 20
126.48406806018841
 30
0.0
 11
-86.270478462040955
 21
126.5503672332908
 31
0.0
  0
LINE
  8
DETAIL
  6
CONTINUOUS
 62
     5
 10
-86.270478462040955
 20
126.5503672332908
 30
0.0
 11
-86.239864673860893
 21
126.6164091689477
 31
0.0
  0
LINE
  8
DETAIL
  6
CONTINUOUS
 62
     5
 10
-86.239864673860893
 20
126.6164091689477
 30
0.0
 11
-86.239864673860893
 21
126.6164091689477
 31
0.0
  0
LINE
  8
DETAIL
  6
CONTINUOUS
 62
     5
 10
-86.239864673860893
 20
126.6164091689477
 30
0.0
 11
-86.208401321144038
 21
126.6820032930417
 31
0.0
  0
LINE
  8
DETAIL
  6
CONTINUOUS
 62
     5
 10
-86.208401321144038
 20
126.6820032930417
 30
0.0
 11
-86.176104841222468
 21
126.74711942612851
 31
0.0
  0
LINE
  8
DETAIL
  6
CONTINUOUS
 62
     5
 10
-86.176104841222468
 20
126.74711942612851
 30
0.0
 11
-86.176104841222468
 21
126.74711942612851
 31
0.0
  0
LINE
  8
DETAIL
  6
CONTINUOUS
 62
     5
 10
-86.176104841222468
 20
126.74711942612851
 30
0.0
 11
-86.142964485749189
 21
126.8117852318763
 31
0.0
  0
LINE
  8
DETAIL
  6
CONTINUOUS
 62
     5
 10
-86.142964485749189
 20
126.8117852318763
 30
0.0
 11
-86.108916978446132
 21
126.87609935172929
 31
0.0
  0
LINE
  8
DETAIL
  6
CONTINUOUS
 62
     5
 10
-86.108916978446132
 20
126.87609935172929
 30
0.0
 11
-86.108916978446132
 21
126.87609935172929
 31
0.0
  0
LINE
  8
DETAIL
  6
CONTINUOUS
 62
     5
 10
-86.108916978446132
 20
126.87609935172929
 30
0.0
 11
-86.07395249267779
 21
126.9400670951312
 31
0.0
  0
LINE
  8
DETAIL
  6
CONTINUOUS
 62
     5
 10
-86.07395249267779
 20
126.9400670951312
 30
0.0
 11
-86.038327528314994
 21
127.00324946574899
 31
0.0
  0
LINE
  8
DETAIL
  6
CONTINUOUS
 62
     5
 10
-86.038327528314994
 20
127.00324946574899
 30
0.0
 11
-86.038327528314994
 21
127.00324946574899
 31
0.0
  0
LINE
  8
DETAIL
  6
CONTINUOUS
 62
     5
 10
-86.038327528314994
 20
127.00324946574899
 30
0.0
 11
-86.002261674834017
 21
127.0652777559003
 31
0.0
  0
LINE
  8
DETAIL
  6
CONTINUOUS
 62
     5
 10
-86.002261674834017
 20
127.0652777559003
 30
0.0
 11
-85.965560553632486
 21
127.12650871827999
 31
0.0
  0
LINE
  8
DETAIL
  6
CONTINUOUS
 62
     5
 10
-85.965560553632486
 20
127.12650871827999
 30
0.0
 11
-85.965560553632486
 21
127.12650871827999
 31
0.0
  0
LINE
  8
DETAIL
  6
CONTINUOUS
 62
     5
 10
-85.965560553632486
 20
127.12650871827999
 30
0.0
 11
-85.927989849195683
 21
127.18736509381451
 31
0.0
  0
LINE
  8
DETAIL
  6
CONTINUOUS
 62
     5
 10
-85.927989849195683
 20
127.18736509381451
 30
0.0
 11
-85.889569466438616
 21
127.2478081159778
 31
0.0
  0
LINE
  8
DETAIL
  6
CONTINUOUS
 62
     5
 10
-85.889569466438616
 20
127.2478081159778
 30
0.0
 11
-85.889569466438616
 21
127.2478081159778
 31
0.0
  0
LINE
  8
DETAIL
  6
CONTINUOUS
 62
     5
 10
-85.889569466438616
 20
127.2478081159778
 30
0.0
 11
-85.850368618127732
 21
127.3077110299464
 31
0.0
  0
LINE
  8
DETAIL
  6
CONTINUOUS
 62
     5
 10
-85.850368618127732
 20
127.3077110299464
 30
0.0
 11
-85.810399528007792
 21
127.36705663516339
 31
0.0
  0
LINE
  8
DETAIL
  6
CONTINUOUS
 62
     5
 10
-85.810399528007792
 20
127.36705663516339
 30
0.0
 11
-85.810399528007792
 21
127.36705663516339
 31
0.0
  0
LINE
  8
DETAIL
  6
CONTINUOUS
 62
     5
 10
-85.810399528007792
 20
127.36705663516339
 30
0.0
 11
-85.769653606482962
 21
127.4258609422353
 31
0.0
  0
LINE
  8
DETAIL
  6
CONTINUOUS
 62
     5
 10
-85.769653606482962
 20
127.4258609422353
 30
0.0
 11
-85.728095999615334
 21
127.4841632521579
 31
0.0
  0
LINE
  8
DETAIL
  6
CONTINUOUS
 62
     5
 10
-85.728095999615334
 20
127.4841632521579
 30
0.0
 11
-85.728095999615334
 21
127.4841632521579
 31
0.0
  0
LINE
  8
DETAIL
  6
CONTINUOUS
 62
     5
 10
-85.728095999615334
 20
127.4841632521579
 30
0.0
 11
-85.685725798978865
 21
127.5419580095687
 31
0.0
  0
LINE
  8
DETAIL
  6
CONTINUOUS
 62
     5
 10
-85.685725798978865
 20
127.5419580095687
 30
0.0
 11
-85.64270414253474
 21
127.5990369432827
 31
0.0
  0
LINE
  8
DETAIL
  6
CONTINUOUS
 62
     5
 10
-85.64270414253474
 20
127.5990369432827
 30
0.0
 11
-85.64270414253474
 21
127.5990369432827
 31
0.0
  0
LINE
  8
DETAIL
  6
CONTINUOUS
 62
     5
 10
-85.64270414253474
 20
127.5990369432827
 30
0.0
 11
-85.599168831006637
 21
127.6552252288479
 31
0.0
  0
LINE
  8
DETAIL
  6
CONTINUOUS
 62
     5
 10
-85.599168831006637
 20
127.6552252288479
 30
0.0
 11
-85.555002269768238
 21
127.71068454456361
 31
0.0
  0
LINE
  8
DETAIL
  6
CONTINUOUS
 62
     5
 10
-85.555002269768238
 20
127.71068454456361
 30
0.0
 11
-85.555002269768238
 21
127.71068454456361
 31
0.0
  0
LINE
  8
DETAIL
  6
CONTINUOUS
 62
     5
 10
-85.555002269768238
 20
127.71068454456361
 30
0.0
 11
-85.510063022188888
 21
127.7656066844045
 31
0.0
  0
LINE
  8
DETAIL
  6
CONTINUOUS
 62
     5
 10
-85.510063022188888
 20
127.7656066844045
 30
0.0
 11
-85.464369678958747
 21
127.8199674022993
 31
0.0
  0
LINE
  8
DETAIL
  6
CONTINUOUS
 62
     5
 10
-85.464369678958747
 20
127.8199674022993
 30
0.0
 11
-85.464369678958747
 21
127.8199674022993
 31
0.0
  0
LINE
  8
DETAIL
  6
CONTINUOUS
 62
     5
 10
-85.464369678958747
 20
127.8199674022993
 30
0.0
 11
-85.417970141066007
 21
127.87370289268711
 31
0.0
  0
LINE
  8
DETAIL
  6
CONTINUOUS
 62
     5
 10
-85.417970141066007
 20
127.87370289268711
 30
0.0
 11
-85.370869523366991
 21
127.926807152088
 31
0.0
  0
LINE
  8
DETAIL
  6
CONTINUOUS
 62
     5
 10
-85.370869523366991
 20
127.926807152088
 30
0.0
 11
-85.370869523366991
 21
127.926807152088
 31
0.0
  0
LINE
  8
DETAIL
  6
CONTINUOUS
 62
     5
 10
-85.370869523366991
 20
127.926807152088
 30
0.0
 11
-85.323065023486834
 21
127.97928483547319
 31
0.0
  0
LINE
  8
DETAIL
  6
CONTINUOUS
 62
     5
 10
-85.323065023486834
 20
127.97928483547319
 30
0.0
 11
-85.274564956252789
 21
128.0311254295278
 31
0.0
  0
LINE
  8
DETAIL
  6
CONTINUOUS
 62
     5
 10
-85.274564956252789
 20
128.0311254295278
 30
0.0
 11
-85.274564956252789
 21
128.0311254295278
 31
0.0
  0
LINE
  8
DETAIL
  6
CONTINUOUS
 62
     5
 10
-85.274564956252789
 20
128.0311254295278
 30
0.0
 11
-85.225379995123831
 21
128.0823153466315
 31
0.0
  0
LINE
  8
DETAIL
  6
CONTINUOUS
 62
     5
 10
-85.225379995123831
 20
128.0823153466315
 30
0.0
 11
-85.175519130878229
 21
128.13284387021761
 31
0.0
  0
LINE
  8
DETAIL
  6
CONTINUOUS
 62
     5
 10
-85.175519130878229
 20
128.13284387021761
 30
0.0
 11
-85.175519130878229
 21
128.13284387021761
 31
0.0
  0
LINE
  8
DETAIL
  6
CONTINUOUS
 62
     5
 10
-85.175519130878229
 20
128.13284387021761
 30
0.0
 11
-85.124990751669657
 21
128.18270167366049
 31
0.0
  0
LINE
  8
DETAIL
  6
CONTINUOUS
 62
     5
 10
-85.124990751669657
 20
128.18270167366049
 30
0.0
 11
-85.073802517830472
 21
128.23188211903789
 31
0.0
  0
LINE
  8
DETAIL
  6
CONTINUOUS
 62
     5
 10
-85.073802517830472
 20
128.23188211903789
 30
0.0
 11
-85.073802517830472
 21
128.23188211903789
 31
0.0
  0
LINE
  8
DETAIL
  6
CONTINUOUS
 62
     5
 10
-85.073802517830472
 20
128.23188211903789
 30
0.0
 11
-85.021963159765164
 21
128.28037826956259
 31
0.0
  0
LINE
  8
DETAIL
  6
CONTINUOUS
 62
     5
 10
-85.021963159765164
 20
128.28037826956259
 30
0.0
 11
-84.969486415995334
 21
128.32817930428359
 31
0.0
  0
LINE
  8
DETAIL
  6
CONTINUOUS
 62
     5
 10
-84.969486415995334
 20
128.32817930428359
 30
0.0
 11
-84.969486415995334
 21
128.32817930428359
 31
0.0
  0
LINE
  8
DETAIL
  6
CONTINUOUS
 62
     5
 10
-84.969486415995334
 20
128.32817930428359
 30
0.0
 11
-84.916383334518969
 21
128.3752763632973
 31
0.0
  0
LINE
  8
DETAIL
  6
CONTINUOUS
 62
     5
 10
-84.916383334518969
 20
128.3752763632973
 30
0.0
 11
-84.862649193117932
 21
128.42167231505439
 31
0.0
  0
LINE
  8
DETAIL
  6
CONTINUOUS
 62
     5
 10
-84.862649193117932
 20
128.42167231505439
 30
0.0
 11
-84.862649193117932
 21
128.42167231505439
 31
0.0
  0
LINE
  8
DETAIL
  6
CONTINUOUS
 62
     5
 10
-84.862649193117932
 20
128.42167231505439
 30
0.0
 11
-84.808289845208947
 21
128.46736220278061
 31
0.0
  0
LINE
  8
DETAIL
  6
CONTINUOUS
 62
     5
 10
-84.808289845208947
 20
128.46736220278061
 30
0.0
 11
-84.753369216943383
 21
128.51229804044971
 31
0.0
  0
LINE
  8
DETAIL
  6
CONTINUOUS
 62
     5
 10
-84.753369216943383
 20
128.51229804044971
 30
0.0
 11
-84.753369216943383
 21
128.51229804044971
 31
0.0
  0
LINE
  8
DETAIL
  6
CONTINUOUS
 62
     5
 10
-84.753369216943383
 20
128.51229804044971
 30
0.0
 11
-84.697911622475431
 21
128.55646118188591
 31
0.0
  0
LINE
  8
DETAIL
  6
CONTINUOUS
 62
     5
 10
-84.697911622475431
 20
128.55646118188591
 30
0.0
 11
-84.641724855215898
 21
128.59999336956949
 31
0.0
  0
LINE
  8
DETAIL
  6
CONTINUOUS
 62
     5
 10
-84.641724855215898
 20
128.59999336956949
 30
0.0
 11
-84.641724855215898
 21
128.59999336956949
 31
0.0
  0
LINE
  8
DETAIL
  6
CONTINUOUS
 62
     5
 10
-84.641724855215898
 20
128.59999336956949
 30
0.0
 11
-84.584646876706756
 21
128.64301246144871
 31
0.0
  0
LINE
  8
DETAIL
  6
CONTINUOUS
 62
     5
 10
-84.584646876706756
 20
128.64301246144871
 30
0.0
 11
-84.526852841744812
 21
128.68538038868849
 31
0.0
  0
LINE
  8
DETAIL
  6
CONTINUOUS
 62
     5
 10
-84.526852841744812
 20
128.68538038868849
 30
0.0
 11
-84.526852841744812
 21
128.68538038868849
 31
0.0
  0
LINE
  8
DETAIL
  6
CONTINUOUS
 62
     5
 10
-84.526852841744812
 20
128.68538038868849
 30
0.0
 11
-84.46855142017489
 21
128.72693569397191
 31
0.0
  0
LINE
  8
DETAIL
  6
CONTINUOUS
 62
     5
 10
-84.46855142017489
 20
128.72693569397191
 30
0.0
 11
-84.409748148779499
 21
128.76767929284449
 31
0.0
  0
LINE
  8
DETAIL
  6
CONTINUOUS
 62
     5
 10
-84.409748148779499
 20
128.76767929284449
 30
0.0
 11
-84.409748148779499
 21
128.76767929284449
 31
0.0
  0
LINE
  8
DETAIL
  6
CONTINUOUS
 62
     5
 10
-84.409748148779499
 20
128.76767929284449
 30
0.0
 11
-84.350403616884478
 21
128.80764611407309
 31
0.0
  0
LINE
  8
DETAIL
  6
CONTINUOUS
 62
     5
 10
-84.350403616884478
 20
128.80764611407309
 30
0.0
 11
-84.290501757049014
 21
128.84684476644821
 31
0.0
  0
LINE
  8
DETAIL
  6
CONTINUOUS
 62
     5
 10
-84.290501757049014
 20
128.84684476644821
 30
0.0
 11
-84.290501757049014
 21
128.84684476644821
 31
0.0
  0
LINE
  8
DETAIL
  6
CONTINUOUS
 62
     5
 10
-84.290501757049014
 20
128.84684476644821
 30
0.0
 11
-84.230059777672295
 21
128.88526300552769
 31
0.0
  0
LINE
  8
DETAIL
  6
CONTINUOUS
 62
     5
 10
-84.230059777672295
 20
128.88526300552769
 30
0.0
 11
-84.169204647283323
 21
128.92283149391039
 31
0.0
  0
LINE
  8
DETAIL
  6
CONTINUOUS
 62
     5
 10
-84.169204647283323
 20
128.92283149391039
 30
0.0
 11
-84.169204647283323
 21
128.92283149391039
 31
0.0
  0
LINE
  8
DETAIL
  6
CONTINUOUS
 62
     5
 10
-84.169204647283323
 20
128.92283149391039
 30
0.0
 11
-84.107975178504375
 21
128.95953029390839
 31
0.0
  0
LINE
  8
DETAIL
  6
CONTINUOUS
 62
     5
 10
-84.107975178504375
 20
128.95953029390839
 30
0.0
 11
-84.045947800211934
 21
128.9955941596414
 31
0.0
  0
LINE
  8
DETAIL
  6
CONTINUOUS
 62
     5
 10
-84.045947800211934
 20
128.9955941596414
 30
0.0
 11
-84.045947800211934
 21
128.9955941596414
 31
0.0
  0
LINE
  8
DETAIL
  6
CONTINUOUS
 62
     5
 10
-84.045947800211934
 20
128.9955941596414
 30
0.0
 11
-83.982765057243341
 21
129.03121783538151
 31
0.0
  0
LINE
  8
DETAIL
  6
CONTINUOUS
 62
     5
 10
-83.982765057243341
 20
129.03121783538151
 30
0.0
 11
-83.918796342031101
 21
129.0661813341965
 31
0.0
  0
LINE
  8
DETAIL
  6
CONTINUOUS
 62
     5
 10
-83.918796342031101
 20
129.0661813341965
 30
0.0
 11
-83.918796342031101
 21
129.0661813341965
 31
0.0
  0
LINE
  8
DETAIL
  6
CONTINUOUS
 62
     5
 10
-83.918796342031101
 20
129.0661813341965
 30
0.0
 11
-83.854481465887147
 21
129.10022769399779
 31
0.0
  0
LINE
  8
DETAIL
  6
CONTINUOUS
 62
     5
 10
-83.854481465887147
 20
129.10022769399779
 30
0.0
 11
-83.789815068042799
 21
129.13336678326729
 31
0.0
  0
LINE
  8
DETAIL
  6
CONTINUOUS
 62
     5
 10
-83.789815068042799
 20
129.13336678326729
 30
0.0
 11
-83.789815068042799
 21
129.13336678326729
 31
0.0
  0
LINE
  8
DETAIL
  6
CONTINUOUS
 62
     5
 10
-83.789815068042799
 20
129.13336678326729
 30
0.0
 11
-83.724698294923883
 21
129.16566201302791
 31
0.0
  0
LINE
  8
DETAIL
  6
CONTINUOUS
 62
     5
 10
-83.724698294923883
 20
129.16566201302791
 30
0.0
 11
-83.659103493808971
 21
129.19712413389021
 31
0.0
  0
LINE
  8
DETAIL
  6
CONTINUOUS
 62
     5
 10
-83.659103493808971
 20
129.19712413389021
 30
0.0
 11
-83.659103493808971
 21
129.19712413389021
 31
0.0
  0
LINE
  8
DETAIL
  6
CONTINUOUS
 62
     5
 10
-83.659103493808971
 20
129.19712413389021
 30
0.0
 11
-83.593060904356207
 21
129.22773668413041
 31
0.0
  0
LINE
  8
DETAIL
  6
CONTINUOUS
 62
     5
 10
-83.593060904356207
 20
129.22773668413041
 30
0.0
 11
-83.526761134889284
 21
129.25742701310079
 31
0.0
  0
LINE
  8
DETAIL
  6
CONTINUOUS
 62
     5
 10
-83.526761134889284
 20
129.25742701310079
 30
0.0
 11
-83.526761134889284
 21
129.25742701310079
 31
0.0
  0
LINE
  8
DETAIL
  6
CONTINUOUS
 62
     5
 10
-83.526761134889284
 20
129.25742701310079
 30
0.0
 11
-83.460256717019547
 21
129.28617777694981
 31
0.0
  0
LINE
  8
DETAIL
  6
CONTINUOUS
 62
     5
 10
-83.460256717019547
 20
129.28617777694981
 30
0.0
 11
-83.392887506844772
 21
129.31424904793539
 31
0.0
  0
LINE
  8
DETAIL
  6
CONTINUOUS
 62
     5
 10
-83.392887506844772
 20
129.31424904793539
 30
0.0
 11
-83.392887506844772
 21
129.31424904793539
 31
0.0
  0
LINE
  8
DETAIL
  6
CONTINUOUS
 62
     5
 10
-83.392887506844772
 20
129.31424904793539
 30
0.0
 11
-83.324096794453681
 21
129.3418554151817
 31
0.0
  0
LINE
  8
DETAIL
  6
CONTINUOUS
 62
     5
 10
-83.324096794453681
 20
129.3418554151817
 30
0.0
 11
-83.254454281404605
 21
129.36875211916839
 31
0.0
  0
LINE
  8
DETAIL
  6
CONTINUOUS
 62
     5
 10
-83.254454281404605
 20
129.36875211916839
 30
0.0
 11
-83.254454281404605
 21
129.36875211916839
 31
0.0
  0
LINE
  8
DETAIL
  6
CONTINUOUS
 62
     5
 10
-83.254454281404605
 20
129.36875211916839
 30
0.0
 11
-83.184637538789048
 21
129.39465454467509
 31
0.0
  0
LINE
  8
DETAIL
  6
CONTINUOUS
 62
     5
 10
-83.184637538789048
 20
129.39465454467509
 30
0.0
 11
-83.114629204363837
 21
129.41957800232831
 31
0.0
  0
LINE
  8
DETAIL
  6
CONTINUOUS
 62
     5
 10
-83.114629204363837
 20
129.41957800232831
 30
0.0
 11
-83.114629204363837
 21
129.41957800232831
 31
0.0
  0
LINE
  8
DETAIL
  6
CONTINUOUS
 62
     5
 10
-83.114629204363837
 20
129.41957800232831
 30
0.0
 11
-83.044268859155409
 21
129.4435966240892
 31
0.0
  0
LINE
  8
DETAIL
  6
CONTINUOUS
 62
     5
 10
-83.044268859155409
 20
129.4435966240892
 30
0.0
 11
-82.97351879060966
 21
129.46671990140851
 31
0.0
  0
LINE
  8
DETAIL
  6
CONTINUOUS
 62
     5
 10
-82.97351879060966
 20
129.46671990140851
 30
0.0
 11
-82.97351879060966
 21
129.46671990140851
 31
0.0
  0
LINE
  8
DETAIL
  6
CONTINUOUS
 62
     5
 10
-82.97351879060966
 20
129.46671990140851
 30
0.0
 11
-82.902422989692241
 21
129.48893082465861
 31
0.0
  0
LINE
  8
DETAIL
  6
CONTINUOUS
 62
     5
 10
-82.902422989692241
 20
129.48893082465861
 30
0.0
 11
-82.831229555027448
 21
129.5101710204018
 31
0.0
  0
LINE
  8
DETAIL
  6
CONTINUOUS
 62
     5
 10
-82.831229555027448
 20
129.5101710204018
 30
0.0
 11
-82.831229555027448
 21
129.5101710204018
 31
0.0
  0
LINE
  8
DETAIL
  6
CONTINUOUS
 62
     5
 10
-82.831229555027448
 20
129.5101710204018
 30
0.0
 11
-82.760002827891412
 21
129.53042929818471
 31
0.0
  0
LINE
  8
DETAIL
  6
CONTINUOUS
 62
     5
 10
-82.760002827891412
 20
129.53042929818471
 30
0.0
 11
-82.687868012504396
 21
129.549924563301
 31
0.0
  0
LINE
  8
DETAIL
  6
CONTINUOUS
 62
     5
 10
-82.687868012504396
 20
129.549924563301
 30
0.0
 11
-82.687868012504396
 21
129.549924563301
 31
0.0
  0
LINE
  8
DETAIL
  6
CONTINUOUS
 62
     5
 10
-82.687868012504396
 20
129.549924563301
 30
0.0
 11
-82.614087983422678
 21
129.56883542139741
 31
0.0
  0
LINE
  8
DETAIL
  6
CONTINUOUS
 62
     5
 10
-82.614087983422678
 20
129.56883542139741
 30
0.0
 11
-82.539415433595195
 21
129.58694918378629
 31
0.0
  0
LINE
  8
DETAIL
  6
CONTINUOUS
 62
     5
 10
-82.539415433595195
 20
129.58694918378629
 30
0.0
 11
-82.539415433595195
 21
129.58694918378629
 31
0.0
  0
LINE
  8
DETAIL
  6
CONTINUOUS
 62
     5
 10
-82.539415433595195
 20
129.58694918378629
 30
0.0
 11
-82.464744295115452
 21
129.60402083660429
 31
0.0
  0
LINE
  8
DETAIL
  6
CONTINUOUS
 62
     5
 10
-82.464744295115452
 20
129.60402083660429
 30
0.0
 11
-82.390043638262568
 21
129.62006735961589
 31
0.0
  0
LINE
  8
DETAIL
  6
CONTINUOUS
 62
     5
 10
-82.390043638262568
 20
129.62006735961589
 30
0.0
 11
-82.390043638262568
 21
129.62006735961589
 31
0.0
  0
LINE
  8
DETAIL
  6
CONTINUOUS
 62
     5
 10
-82.390043638262568
 20
129.62006735961589
 30
0.0
 11
-82.315095042972189
 21
129.63515573931801
 31
0.0
  0
LINE
  8
DETAIL
  6
CONTINUOUS
 62
     5
 10
-82.315095042972189
 20
129.63515573931801
 30
0.0
 11
-82.239854989607693
 21
129.64929099550491
 31
0.0
  0
LINE
  8
DETAIL
  6
CONTINUOUS
 62
     5
 10
-82.239854989607693
 20
129.64929099550491
 30
0.0
 11
-82.239854989607693
 21
129.64929099550491
 31
0.0
  0
LINE
  8
DETAIL
  6
CONTINUOUS
 62
     5
 10
-82.239854989607693
 20
129.64929099550491
 30
0.0
 11
-82.164379998665709
 21
129.6624591245901
 31
0.0
  0
LINE
  8
DETAIL
  6
CONTINUOUS
 62
     5
 10
-82.164379998665709
 20
129.6624591245901
 30
0.0
 11
-82.08895185073311
 21
129.67463199616819
 31
0.0
  0
LINE
  8
DETAIL
  6
CONTINUOUS
 62
     5
 10
-82.08895185073311
 20
129.67463199616819
 30
0.0
 11
-82.08895185073311
 21
129.67463199616819
 31
0.0
  0
LINE
  8
DETAIL
  6
CONTINUOUS
 62
     5
 10
-82.08895185073311
 20
129.67463199616819
 30
0.0
 11
-82.01363965622113
 21
129.68580756662331
 31
0.0
  0
LINE
  8
DETAIL
  6
CONTINUOUS
 62
     5
 10
-82.01363965622113
 20
129.68580756662331
 30
0.0
 11
-81.937436584739544
 21
129.69610226632111
 31
0.0
  0
LINE
  8
DETAIL
  6
CONTINUOUS
 62
     5
 10
-81.937436584739544
 20
129.69610226632111
 30
0.0
 11
-81.937436584739544
 21
129.69610226632111
 31
0.0
  0
LINE
  8
DETAIL
  6
CONTINUOUS
 62
     5
 10
-81.937436584739544
 20
129.69610226632111
 30
0.0
 11
-81.859496662921856
 21
129.70560809844019
 31
0.0
  0
LINE
  8
DETAIL
  6
CONTINUOUS
 62
     5
 10
-81.859496662921856
 20
129.70560809844019
 30
0.0
 11
-81.78069328630022
 21
129.71420088343331
 31
0.0
  0
LINE
  8
DETAIL
  6
CONTINUOUS
 62
     5
 10
-81.78069328630022
 20
129.71420088343331
 30
0.0
 11
-81.78069328630022
 21
129.71420088343331
 31
0.0
  0
LINE
  8
DETAIL
  6
CONTINUOUS
 62
     5
 10
-81.78069328630022
 20
129.71420088343331
 30
0.0
 11
-81.702057614374553
 21
129.72173896644341
 31
0.0
  0
LINE
  8
DETAIL
  6
CONTINUOUS
 62
     5
 10
-81.702057614374553
 20
129.72173896644341
 30
0.0
 11
-81.62353249361081
 21
129.7282269741028
 31
0.0
  0
LINE
  8
DETAIL
  6
CONTINUOUS
 62
     5
 10
-81.62353249361081
 20
129.7282269741028
 30
0.0
 11
-81.62353249361081
 21
129.7282269741028
 31
0.0
  0
LINE
  8
DETAIL
  6
CONTINUOUS
 62
     5
 10
-81.62353249361081
 20
129.7282269741028
 30
0.0
 11
-81.544861391796303
 21
129.73370513681019
 31
0.0
  0
LINE
  8
DETAIL
  6
CONTINUOUS
 62
     5
 10
-81.544861391796303
 20
129.73370513681019
 30
0.0
 11
-81.466078575037272
 21
129.73820981854419
 31
0.0
  0
LINE
  8
DETAIL
  6
CONTINUOUS
 62
     5
 10
-81.466078575037272
 20
129.73820981854419
 30
0.0
 11
-81.466078575037272
 21
129.73820981854419
 31
0.0
  0
LINE
  8
DETAIL
  6
CONTINUOUS
 62
     5
 10
-81.466078575037272
 20
129.73820981854419
 30
0.0
 11
-81.387272288960503
 21
129.74174371272659
 31
0.0
  0
LINE
  8
DETAIL
  6
CONTINUOUS
 62
     5
 10
-81.387272288960503
 20
129.74174371272659
 30
0.0
 11
-81.308455898945567
 21
129.7441786969716
 31
0.0
  0
LINE
  8
DETAIL
  6
CONTINUOUS
 62
     5
 10
-81.308455898945567
 20
129.7441786969716
 30
0.0
 11
-81.308455898945567
 21
129.7441786969716
 31
0.0
  0
LINE
  8
DETAIL
  6
CONTINUOUS
 62
     5
 10
-81.308455898945567
 20
129.7441786969716
 30
0.0
 11
-81.229626230977146
 21
129.74548572735469
 31
0.0
  0
LINE
  8
DETAIL
  6
CONTINUOUS
 62
     5
 10
-81.229626230977146
 20
129.74548572735469
 30
0.0
 11
-81.150788833699835
 21
129.74616288959999
 31
0.0
  0
LINE
  8
DETAIL
  6
CONTINUOUS
 62
     5
 10
-78.84921116629971
 20
129.74616288959999
 30
0.0
 11
-78.770365303876133
 21
129.74548587190489
 31
0.0
  0
LINE
  8
DETAIL
  6
CONTINUOUS
 62
     5
 10
-78.770365303876133
 20
129.74548587190489
 30
0.0
 11
-78.691527184617144
 21
129.7441787913618
 31
0.0
  0
LINE
  8
DETAIL
  6
CONTINUOUS
 62
     5
 10
-78.691527184617144
 20
129.7441787913618
 30
0.0
 11
-78.691527184617144
 21
129.7441787913618
 31
0.0
  0
LINE
  8
DETAIL
  6
CONTINUOUS
 62
     5
 10
-78.691527184617144
 20
129.7441787913618
 30
0.0
 11
-78.612702358226898
 21
129.74174340963029
 31
0.0
  0
LINE
  8
DETAIL
  6
CONTINUOUS
 62
     5
 10
-78.612702358226898
 20
129.74174340963029
 30
0.0
 11
-78.533887600563276
 21
129.73820878639529
 31
0.0
  0
LINE
  8
DETAIL
  6
CONTINUOUS
 62
     5
 10
-78.533887600563276
 20
129.73820878639529
 30
0.0
 11
-78.533887600563276
 21
129.73820878639529
 31
0.0
  0
LINE
  8
DETAIL
  6
CONTINUOUS
 62
     5
 10
-78.533887600563276
 20
129.73820878639529
 30
0.0
 11
-78.455096270314243
 21
129.73370309852129
 31
0.0
  0
LINE
  8
DETAIL
  6
CONTINUOUS
 62
     5
 10
-78.455096270314243
 20
129.73370309852129
 30
0.0
 11
-78.376416831333927
 21
129.72822369356069
 31
0.0
  0
LINE
  8
DETAIL
  6
CONTINUOUS
 62
     5
 10
-78.376416831333927
 20
129.72822369356069
 30
0.0
 11
-78.376416831333927
 21
129.72822369356069
 31
0.0
  0
LINE
  8
DETAIL
  6
CONTINUOUS
 62
     5
 10
-78.376416831333927
 20
129.72822369356069
 30
0.0
 11
-78.29788361206306
 21
129.7217342165427
 31
0.0
  0
LINE
  8
DETAIL
  6
CONTINUOUS
 62
     5
 10
-78.29788361206306
 20
129.7217342165427
 30
0.0
 11
-78.21923929412219
 21
129.7141943317192
 31
0.0
  0
LINE
  8
DETAIL
  6
CONTINUOUS
 62
     5
 10
-78.21923929412219
 20
129.7141943317192
 30
0.0
 11
-78.21923929412219
 21
129.7141943317192
 31
0.0
  0
LINE
  8
DETAIL
  6
CONTINUOUS
 62
     5
 10
-78.21923929412219
 20
129.7141943317192
 30
0.0
 11
-78.14042651795512
 21
129.70559939625329
 31
0.0
  0
LINE
  8
DETAIL
  6
CONTINUOUS
 62
     5
 10
-78.14042651795512
 20
129.70559939625329
 30
0.0
 11
-78.062479406122065
 21
129.6960915197316
 31
0.0
  0
LINE
  8
DETAIL
  6
CONTINUOUS
 62
     5
 10
-78.062479406122065
 20
129.6960915197316
 30
0.0
 11
-78.062479406122065
 21
129.6960915197316
 31
0.0
  0
LINE
  8
DETAIL
  6
CONTINUOUS
 62
     5
 10
-78.062479406122065
 20
129.6960915197316
 30
0.0
 11
-77.986273856550838
 21
129.68579528463121
 31
0.0
  0
LINE
  8
DETAIL
  6
CONTINUOUS
 62
     5
 10
-77.986273856550838
 20
129.68579528463121
 30
0.0
 11
-77.91096138653279
 21
129.67461841256619
 31
0.0
  0
LINE
  8
DETAIL
  6
CONTINUOUS
 62
     5
 10
-77.91096138653279
 20
129.67461841256619
 30
0.0
 11
-77.91096138653279
 21
129.67461841256619
 31
0.0
  0
LINE
  8
DETAIL
  6
CONTINUOUS
 62
     5
 10
-77.91096138653279
 20
129.67461841256619
 30
0.0
 11
-77.835532195315409
 21
129.6624441217173
 31
0.0
  0
LINE
  8
DETAIL
  6
CONTINUOUS
 62
     5
 10
-77.835532195315409
 20
129.6624441217173
 30
0.0
 11
-77.76005559060718
 21
129.64927447739649
 31
0.0
  0
LINE
  8
DETAIL
  6
CONTINUOUS
 62
     5
 10
-77.76005559060718
 20
129.64927447739649
 30
0.0
 11
-77.76005559060718
 21
129.64927447739649
 31
0.0
  0
LINE
  8
DETAIL
  6
CONTINUOUS
 62
     5
 10
-77.76005559060718
 20
129.64927447739649
 30
0.0
 11
-77.684814144095412
 21
129.6351377042113
 31
0.0
  0
LINE
  8
DETAIL
  6
CONTINUOUS
 62
     5
 10
-77.684814144095412
 20
129.6351377042113
 30
0.0
 11
-77.609864374925337
 21
129.6200478168181
 31
0.0
  0
LINE
  8
DETAIL
  6
CONTINUOUS
 62
     5
 10
-77.609864374925337
 20
129.6200478168181
 30
0.0
 11
-77.609864374925337
 21
129.6200478168181
 31
0.0
  0
LINE
  8
DETAIL
  6
CONTINUOUS
 62
     5
 10
-77.609864374925337
 20
129.6200478168181
 30
0.0
 11
-77.535162564533266
 21
129.60399977555389
 31
0.0
  0
LINE
  8
DETAIL
  6
CONTINUOUS
 62
     5
 10
-77.535162564533266
 20
129.60399977555389
 30
0.0
 11
-77.460490096069179
 21
129.58692653342769
 31
0.0
  0
LINE
  8
DETAIL
  6
CONTINUOUS
 62
     5
 10
-77.460490096069179
 20
129.58692653342769
 30
0.0
 11
-77.460490096069179
 21
129.58692653342769
 31
0.0
  0
LINE
  8
DETAIL
  6
CONTINUOUS
 62
     5
 10
-77.460490096069179
 20
129.58692653342769
 30
0.0
 11
-77.385816039533665
 21
129.56881110143181
 31
0.0
  0
LINE
  8
DETAIL
  6
CONTINUOUS
 62
     5
 10
-77.385816039533665
 20
129.56881110143181
 30
0.0
 11
-77.312035110619263
 21
129.54989872982119
 31
0.0
  0
LINE
  8
DETAIL
  6
CONTINUOUS
 62
     5
 10
-77.312035110619263
 20
129.54989872982119
 30
0.0
 11
-77.312035110619263
 21
129.54989872982119
 31
0.0
  0
LINE
  8
DETAIL
  6
CONTINUOUS
 62
     5
 10
-77.312035110619263
 20
129.54989872982119
 30
0.0
 11
-77.239900651816015
 21
129.5304023096451
 31
0.0
  0
LINE
  8
DETAIL
  6
CONTINUOUS
 62
     5
 10
-77.239900651816015
 20
129.5304023096451
 30
0.0
 11
-77.168674867116124
 21
129.5101430558714
 31
0.0
  0
LINE
  8
DETAIL
  6
CONTINUOUS
 62
     5
 10
-77.168674867116124
 20
129.5101430558714
 30
0.0
 11
-77.168674867116124
 21
129.5101430558714
 31
0.0
  0
LINE
  8
DETAIL
  6
CONTINUOUS
 62
     5
 10
-77.168674867116124
 20
129.5101430558714
 30
0.0
 11
-77.097482172669288
 21
129.48890184534531
 31
0.0
  0
LINE
  8
DETAIL
  6
CONTINUOUS
 62
     5
 10
-77.097482172669288
 20
129.48890184534531
 30
0.0
 11
-77.026386971754391
 21
129.4666898784975
 31
0.0
  0
LINE
  8
DETAIL
  6
CONTINUOUS
 62
     5
 10
-77.026386971754391
 20
129.4666898784975
 30
0.0
 11
-77.026386971754391
 21
129.4666898784975
 31
0.0
  0
LINE
  8
DETAIL
  6
CONTINUOUS
 62
     5
 10
-77.026386971754391
 20
129.4666898784975
 30
0.0
 11
-76.955637578363962
 21
129.4435655797605
 31
0.0
  0
LINE
  8
DETAIL
  6
CONTINUOUS
 62
     5
 10
-76.955637578363962
 20
129.4435655797605
 30
0.0
 11
-76.885277962216378
 21
129.41954594598641
 31
0.0
  0
LINE
  8
DETAIL
  6
CONTINUOUS
 62
     5
 10
-76.885277962216378
 20
129.41954594598641
 30
0.0
 11
-76.885277962216378
 21
129.41954594598641
 31
0.0
  0
LINE
  8
DETAIL
  6
CONTINUOUS
 62
     5
 10
-76.885277962216378
 20
129.41954594598641
 30
0.0
 11
-76.815270354453901
 21
129.39462146381621
 31
0.0
  0
LINE
  8
DETAIL
  6
CONTINUOUS
 62
     5
 10
-76.815270354453901
 20
129.39462146381621
 30
0.0
 11
-76.745454376186672
 21
129.36871800662621
 31
0.0
  0
LINE
  8
DETAIL
  6
CONTINUOUS
 62
     5
 10
-76.745454376186672
 20
129.36871800662621
 30
0.0
 11
-76.745454376186672
 21
129.36871800662621
 31
0.0
  0
LINE
  8
DETAIL
  6
CONTINUOUS
 62
     5
 10
-76.745454376186672
 20
129.36871800662621
 30
0.0
 11
-76.675812692118029
 21
129.34182026463699
 31
0.0
  0
LINE
  8
DETAIL
  6
CONTINUOUS
 62
     5
 10
-76.675812692118029
 20
129.34182026463699
 30
0.0
 11
-76.60702275134804
 21
129.3142128087045
 31
0.0
  0
LINE
  8
DETAIL
  6
CONTINUOUS
 62
     5
 10
-76.60702275134804
 20
129.3142128087045
 30
0.0
 11
-76.60702275134804
 21
129.3142128087045
 31
0.0
  0
LINE
  8
DETAIL
  6
CONTINUOUS
 62
     5
 10
-76.60702275134804
 20
129.3142128087045
 30
0.0
 11
-76.539654147890474
 21
129.2861403605485
 31
0.0
  0
LINE
  8
DETAIL
  6
CONTINUOUS
 62
     5
 10
-76.539654147890474
 20
129.2861403605485
 30
0.0
 11
-76.473150271011718
 21
129.25738836470569
 31
0.0
  0
LINE
  8
DETAIL
  6
CONTINUOUS
 62
     5
 10
-76.473150271011718
 20
129.25738836470569
 30
0.0
 11
-76.473150271011718
 21
129.25738836470569
 31
0.0
  0
LINE
  8
DETAIL
  6
CONTINUOUS
 62
     5
 10
-76.473150271011718
 20
129.25738836470569
 30
0.0
 11
-76.406851097910021
 21
129.22769679317659
 31
0.0
  0
LINE
  8
DETAIL
  6
CONTINUOUS
 62
     5
 10
-76.406851097910021
 20
129.22769679317659
 30
0.0
 11
-76.34080916225389
 21
129.19708300500361
 31
0.0
  0
LINE
  8
DETAIL
  6
CONTINUOUS
 62
     5
 10
-76.34080916225389
 20
129.19708300500361
 30
0.0
 11
-76.34080916225389
 21
129.19708300500361
 31
0.0
  0
LINE
  8
DETAIL
  6
CONTINUOUS
 62
     5
 10
-76.34080916225389
 20
129.19708300500361
 30
0.0
 11
-76.275215038160695
 21
129.16561965229479
 31
0.0
  0
LINE
  8
DETAIL
  6
CONTINUOUS
 62
     5
 10
-76.275215038160695
 20
129.16561965229479
 30
0.0
 11
-76.210098905075711
 21
129.1333231723805
 31
0.0
  0
LINE
  8
DETAIL
  6
CONTINUOUS
 62
     5
 10
-76.210098905075711
 20
129.1333231723805
 30
0.0
 11
-76.210098905075711
 21
129.1333231723805
 31
0.0
  0
LINE
  8
DETAIL
  6
CONTINUOUS
 62
     5
 10
-76.210098905075711
 20
129.1333231723805
 30
0.0
 11
-76.145433099329807
 21
129.1001828169145
 31
0.0
  0
LINE
  8
DETAIL
  6
CONTINUOUS
 62
     5
 10
-76.145433099329807
 20
129.1001828169145
 30
0.0
 11
-76.081118979479243
 21
129.0661353096182
 31
0.0
  0
LINE
  8
DETAIL
  6
CONTINUOUS
 62
     5
 10
-76.081118979479243
 20
129.0661353096182
 30
0.0
 11
-76.081118979479243
 21
129.0661353096182
 31
0.0
  0
LINE
  8
DETAIL
  6
CONTINUOUS
 62
     5
 10
-76.081118979479243
 20
129.0661353096182
 30
0.0
 11
-76.017151236081304
 21
129.03117082385631
 31
0.0
  0
LINE
  8
DETAIL
  6
CONTINUOUS
 62
     5
 10
-76.017151236081304
 20
129.03117082385631
 30
0.0
 11
-75.953968865468369
 21
128.99554585949861
 31
0.0
  0
LINE
  8
DETAIL
  6
CONTINUOUS
 62
     5
 10
-75.953968865468369
 20
128.99554585949861
 30
0.0
 11
-75.953968865468369
 21
128.99554585949861
 31
0.0
  0
LINE
  8
DETAIL
  6
CONTINUOUS
 62
     5
 10
-75.953968865468369
 20
128.99554585949861
 30
0.0
 11
-75.891940575322451
 21
128.95948000602201
 31
0.0
  0
LINE
  8
DETAIL
  6
CONTINUOUS
 62
     5
 10
-75.891940575322451
 20
128.95948000602201
 30
0.0
 11
-75.830709612949022
 21
128.9227788848236
 31
0.0
  0
LINE
  8
DETAIL
  6
CONTINUOUS
 62
     5
 10
-75.830709612949022
 20
128.9227788848236
 30
0.0
 11
-75.830709612949022
 21
128.9227788848236
 31
0.0
  0
LINE
  8
DETAIL
  6
CONTINUOUS
 62
     5
 10
-75.830709612949022
 20
128.9227788848236
 30
0.0
 11
-75.769853237420762
 21
128.88520818038941
 31
0.0
  0
LINE
  8
DETAIL
  6
CONTINUOUS
 62
     5
 10
-75.769853237420762
 20
128.88520818038941
 30
0.0
 11
-75.709410215263915
 21
128.84678779763391
 31
0.0
  0
LINE
  8
DETAIL
  6
CONTINUOUS
 62
     5
 10
-75.709410215263915
 20
128.84678779763391
 30
0.0
 11
-75.709410215263915
 21
128.84678779763391
 31
0.0
  0
LINE
  8
DETAIL
  6
CONTINUOUS
 62
     5
 10
-75.709410215263915
 20
128.84678779763391
 30
0.0
 11
-75.649507301302265
 21
128.80758694932351
 31
0.0
  0
LINE
  8
DETAIL
  6
CONTINUOUS
 62
     5
 10
-75.649507301302265
 20
128.80758694932351
 30
0.0
 11
-75.590161696090718
 21
128.76761785920331
 31
0.0
  0
LINE
  8
DETAIL
  6
CONTINUOUS
 62
     5
 10
-75.590161696090718
 20
128.76761785920331
 30
0.0
 11
-75.590161696090718
 21
128.76761785920331
 31
0.0
  0
LINE
  8
DETAIL
  6
CONTINUOUS
 62
     5
 10
-75.590161696090718
 20
128.76761785920331
 30
0.0
 11
-75.531357389024151
 21
128.72687193767669
 31
0.0
  0
LINE
  8
DETAIL
  6
CONTINUOUS
 62
     5
 10
-75.531357389024151
 20
128.72687193767669
 30
0.0
 11
-75.473055079105279
 21
128.68531433080651
 31
0.0
  0
LINE
  8
DETAIL
  6
CONTINUOUS
 62
     5
 10
-75.473055079105279
 20
128.68531433080651
 30
0.0
 11
-75.473055079105279
 21
128.68531433080651
 31
0.0
  0
LINE
  8
DETAIL
  6
CONTINUOUS
 62
     5
 10
-75.473055079105279
 20
128.68531433080651
 30
0.0
 11
-75.415260321697247
 21
128.6429441301664
 31
0.0
  0
LINE
  8
DETAIL
  6
CONTINUOUS
 62
     5
 10
-75.415260321697247
 20
128.6429441301664
 30
0.0
 11
-75.358181387984359
 21
128.59992247371821
 31
0.0
  0
LINE
  8
DETAIL
  6
CONTINUOUS
 62
     5
 10
-75.358181387984359
 20
128.59992247371821
 30
0.0
 11
-75.358181387984359
 21
128.59992247371821
 31
0.0
  0
LINE
  8
DETAIL
  6
CONTINUOUS
 62
     5
 10
-75.358181387984359
 20
128.59992247371821
 30
0.0
 11
-75.301993102417782
 21
128.55638716218439
 31
0.0
  0
LINE
  8
DETAIL
  6
CONTINUOUS
 62
     5
 10
-75.301993102417782
 20
128.55638716218439
 30
0.0
 11
-75.246533786699501
 21
128.5122206009398
 31
0.0
  0
LINE
  8
DETAIL
  6
CONTINUOUS
 62
     5
 10
-75.246533786699501
 20
128.5122206009398
 30
0.0
 11
-75.246533786699501
 21
128.5122206009398
 31
0.0
  0
LINE
  8
DETAIL
  6
CONTINUOUS
 62
     5
 10
-75.246533786699501
 20
128.5122206009398
 30
0.0
 11
-75.191611646854653
 21
128.46728135335371
 31
0.0
  0
LINE
  8
DETAIL
  6
CONTINUOUS
 62
     5
 10
-75.191611646854653
 20
128.46728135335371
 30
0.0
 11
-75.1372509289547
 21
128.42158801011621
 31
0.0
  0
LINE
  8
DETAIL
  6
CONTINUOUS
 62
     5
 10
-75.1372509289547
 20
128.42158801011621
 30
0.0
 11
-75.1372509289547
 21
128.42158801011621
 31
0.0
  0
LINE
  8
DETAIL
  6
CONTINUOUS
 62
     5
 10
-75.1372509289547
 20
128.42158801011621
 30
0.0
 11
-75.08351543856088
 21
128.3751884722158
 31
0.0
  0
LINE
  8
DETAIL
  6
CONTINUOUS
 62
     5
 10
-75.08351543856088
 20
128.3751884722158
 30
0.0
 11
-75.030411179153589
 21
128.32808785450919
 31
0.0
  0
LINE
  8
DETAIL
  6
CONTINUOUS
 62
     5
 10
-75.030411179153589
 20
128.32808785450919
 30
0.0
 11
-75.030411179153589
 21
128.32808785450919
 31
0.0
  0
LINE
  8
DETAIL
  6
CONTINUOUS
 62
     5
 10
-75.030411179153589
 20
128.32808785450919
 30
0.0
 11
-74.977933495761818
 21
128.28028335462179
 31
0.0
  0
LINE
  8
DETAIL
  6
CONTINUOUS
 62
     5
 10
-74.977933495761818
 20
128.28028335462179
 30
0.0
 11
-74.926092901700258
 21
128.23178328738129
 31
0.0
  0
LINE
  8
DETAIL
  6
CONTINUOUS
 62
     5
 10
-74.926092901700258
 20
128.23178328738129
 30
0.0
 11
-74.926092901700258
 21
128.23178328738129
 31
0.0
  0
LINE
  8
DETAIL
  6
CONTINUOUS
 62
     5
 10
-74.926092901700258
 20
128.23178328738129
 30
0.0
 11
-74.874902984590676
 21
128.18259832624591
 31
0.0
  0
LINE
  8
DETAIL
  6
CONTINUOUS
 62
     5
 10
-74.874902984590676
 20
128.18259832624591
 30
0.0
 11
-74.824374460998797
 21
128.13273746199459
 31
0.0
  0
LINE
  8
DETAIL
  6
CONTINUOUS
 62
     5
 10
-74.824374460998797
 20
128.13273746199459
 30
0.0
 11
-74.824374460998797
 21
128.13273746199459
 31
0.0
  0
LINE
  8
DETAIL
  6
CONTINUOUS
 62
     5
 10
-74.824374460998797
 20
128.13273746199459
 30
0.0
 11
-74.774516657551885
 21
128.0822090827817
 31
0.0
  0
LINE
  8
DETAIL
  6
CONTINUOUS
 62
     5
 10
-74.774516657551885
 20
128.0822090827817
 30
0.0
 11
-74.72533621217076
 21
128.0310208489386
 31
0.0
  0
LINE
  8
DETAIL
  6
CONTINUOUS
 62
     5
 10
-74.72533621217076
 20
128.0310208489386
 30
0.0
 11
-74.72533621217076
 21
128.0310208489386
 31
0.0
  0
LINE
  8
DETAIL
  6
CONTINUOUS
 62
     5
 10
-74.72533621217076
 20
128.0310208489386
 30
0.0
 11
-74.676840061643361
 21
127.9791814908706
 31
0.0
  0
LINE
  8
DETAIL
  6
CONTINUOUS
 62
     5
 10
-74.676840061643361
 20
127.9791814908706
 30
0.0
 11
-74.629039026920282
 21
127.9267047470989
 31
0.0
  0
LINE
  8
DETAIL
  6
CONTINUOUS
 62
     5
 10
-74.629039026920282
 20
127.9267047470989
 30
0.0
 11
-74.629039026920282
 21
127.9267047470989
 31
0.0
  0
LINE
  8
DETAIL
  6
CONTINUOUS
 62
     5
 10
-74.629039026920282
 20
127.9267047470989
 30
0.0
 11
-74.581941967904982
 21
127.8736016656208
 31
0.0
  0
LINE
  8
DETAIL
  6
CONTINUOUS
 62
     5
 10
-74.581941967904982
 20
127.8736016656208
 30
0.0
 11
-74.535546016147009
 21
127.8198675242194
 31
0.0
  0
LINE
  8
DETAIL
  6
CONTINUOUS
 62
     5
 10
-74.535546016147009
 20
127.8198675242194
 30
0.0
 11
-74.535546016147009
 21
127.8198675242194
 31
0.0
  0
LINE
  8
DETAIL
  6
CONTINUOUS
 62
     5
 10
-74.535546016147009
 20
127.8198675242194
 30
0.0
 11
-74.489856128420001
 21
127.7655081763094
 31
0.0
  0
LINE
  8
DETAIL
  6
CONTINUOUS
 62
     5
 10
-74.489856128420001
 20
127.7655081763094
 30
0.0
 11
-74.444920290750588
 21
127.7105875480437
 31
0.0
  0
LINE
  8
DETAIL
  6
CONTINUOUS
 62
     5
 10
-74.444920290750588
 20
127.7105875480437
 30
0.0
 11
-74.444920290750588
 21
127.7105875480437
 31
0.0
  0
LINE
  8
DETAIL
  6
CONTINUOUS
 62
     5
 10
-74.444920290750588
 20
127.7105875480437
 30
0.0
 11
-74.400757149314131
 21
127.6551299535751
 31
0.0
  0
LINE
  8
DETAIL
  6
CONTINUOUS
 62
     5
 10
-74.400757149314131
 20
127.6551299535751
 30
0.0
 11
-74.357224961630664
 21
127.59894318631559
 31
0.0
  0
LINE
  8
DETAIL
  6
CONTINUOUS
 62
     5
 10
-74.357224961630664
 20
127.59894318631559
 30
0.0
 11
-74.357224961630664
 21
127.59894318631559
 31
0.0
  0
LINE
  8
DETAIL
  6
CONTINUOUS
 62
     5
 10
-74.357224961630664
 20
127.59894318631559
 30
0.0
 11
-74.314205869751163
 21
127.54186520780669
 31
0.0
  0
LINE
  8
DETAIL
  6
CONTINUOUS
 62
     5
 10
-74.314205869751163
 20
127.54186520780669
 30
0.0
 11
-74.271837942511183
 21
127.48407117284491
 31
0.0
  0
LINE
  8
DETAIL
  6
CONTINUOUS
 62
     5
 10
-74.271837942511183
 20
127.48407117284491
 30
0.0
 11
-74.271837942511183
 21
127.48407117284491
 31
0.0
  0
LINE
  8
DETAIL
  6
CONTINUOUS
 62
     5
 10
-74.271837942511183
 20
127.48407117284491
 30
0.0
 11
-74.230282637227901
 21
127.425769751275
 31
0.0
  0
LINE
  8
DETAIL
  6
CONTINUOUS
 62
     5
 10
-74.230282637227901
 20
127.425769751275
 30
0.0
 11
-74.189539038355406
 21
127.36696647988011
 31
0.0
  0
LINE
  8
DETAIL
  6
CONTINUOUS
 62
     5
 10
-74.189539038355406
 20
127.36696647988011
 30
0.0
 11
-74.189539038355406
 21
127.36696647988011
 31
0.0
  0
LINE
  8
DETAIL
  6
CONTINUOUS
 62
     5
 10
-74.189539038355406
 20
127.36696647988011
 30
0.0
 11
-74.149572217126888
 21
127.30762194798611
 31
0.0
  0
LINE
  8
DETAIL
  6
CONTINUOUS
 62
     5
 10
-74.149572217126888
 20
127.30762194798611
 30
0.0
 11
-74.110373564751853
 21
127.24772008815209
 31
0.0
  0
LINE
  8
DETAIL
  6
CONTINUOUS
 62
     5
 10
-74.110373564751853
 20
127.24772008815209
 30
0.0
 11
-74.110373564751853
 21
127.24772008815209
 31
0.0
  0
LINE
  8
DETAIL
  6
CONTINUOUS
 62
     5
 10
-74.110373564751853
 20
127.24772008815209
 30
0.0
 11
-74.071955325672434
 21
127.1872781087778
 31
0.0
  0
LINE
  8
DETAIL
  6
CONTINUOUS
 62
     5
 10
-74.071955325672434
 20
127.1872781087778
 30
0.0
 11
-74.034386837289958
 21
127.1264229783912
 31
0.0
  0
LINE
  8
DETAIL
  6
CONTINUOUS
 62
     5
 10
-74.034386837289958
 20
127.1264229783912
 30
0.0
 11
-74.034386837289958
 21
127.1264229783912
 31
0.0
  0
LINE
  8
DETAIL
  6
CONTINUOUS
 62
     5
 10
-74.034386837289958
 20
127.1264229783912
 30
0.0
 11
-73.997688037291709
 21
127.06519350961619
 31
0.0
  0
LINE
  8
DETAIL
  6
CONTINUOUS
 62
     5
 10
-73.997688037291709
 20
127.06519350961619
 30
0.0
 11
-73.961624171558242
 21
127.0031661313282
 31
0.0
  0
LINE
  8
DETAIL
  6
CONTINUOUS
 62
     5
 10
-73.961624171558242
 20
127.0031661313282
 30
0.0
 11
-73.961624171558242
 21
127.0031661313282
 31
0.0
  0
LINE
  8
DETAIL
  6
CONTINUOUS
 62
     5
 10
-73.961624171558242
 20
127.0031661313282
 30
0.0
 11
-73.926000495818698
 21
126.93998338836479
 31
0.0
  0
LINE
  8
DETAIL
  6
CONTINUOUS
 62
     5
 10
-73.926000495818698
 20
126.93998338836479
 30
0.0
 11
-73.891036997003766
 21
126.87601467315881
 31
0.0
  0
LINE
  8
DETAIL
  6
CONTINUOUS
 62
     5
 10
-73.891036997003766
 20
126.87601467315881
 30
0.0
 11
-73.891036997003766
 21
126.87601467315881
 31
0.0
  0
LINE
  8
DETAIL
  6
CONTINUOUS
 62
     5
 10
-73.891036997003766
 20
126.87601467315881
 30
0.0
 11
-73.856990637202671
 21
126.8116997970213
 31
0.0
  0
LINE
  8
DETAIL
  6
CONTINUOUS
 62
     5
 10
-73.856990637202671
 20
126.8116997970213
 30
0.0
 11
-73.8238515479336
 21
126.74703339918381
 31
0.0
  0
LINE
  8
DETAIL
  6
CONTINUOUS
 62
     5
 10
-73.8238515479336
 20
126.74703339918381
 30
0.0
 11
-73.8238515479336
 21
126.74703339918381
 31
0.0
  0
LINE
  8
DETAIL
  6
CONTINUOUS
 62
     5
 10
-73.8238515479336
 20
126.74703339918381
 30
0.0
 11
-73.791556318173889
 21
126.6819166260711
 31
0.0
  0
LINE
  8
DETAIL
  6
CONTINUOUS
 62
     5
 10
-73.791556318173889
 20
126.6819166260711
 30
0.0
 11
-73.760094197313492
 21
126.6163218249621
 31
0.0
  0
LINE
  8
DETAIL
  6
CONTINUOUS
 62
     5
 10
-73.760094197313492
 20
126.6163218249621
 30
0.0
 11
-73.760094197313492
 21
126.6163218249621
 31
0.0
  0
LINE
  8
DETAIL
  6
CONTINUOUS
 62
     5
 10
-73.760094197313492
 20
126.6163218249621
 30
0.0
 11
-73.729481647075545
 21
126.55027923551449
 31
0.0
  0
LINE
  8
DETAIL
  6
CONTINUOUS
 62
     5
 10
-73.729481647075545
 20
126.55027923551449
 30
0.0
 11
-73.699791318107373
 21
126.48397946605191
 31
0.0
  0
LINE
  8
DETAIL
  6
CONTINUOUS
 62
     5
 10
-73.699791318107373
 20
126.48397946605191
 30
0.0
 11
-73.699791318107373
 21
126.48397946605191
 31
0.0
  0
LINE
  8
DETAIL
  6
CONTINUOUS
 62
     5
 10
-73.699791318107373
 20
126.48397946605191
 30
0.0
 11
-73.671040554262049
 21
126.417475048185
 31
0.0
  0
LINE
  8
DETAIL
  6
CONTINUOUS
 62
     5
 10
-73.671040554262049
 20
126.417475048185
 30
0.0
 11
-73.642969283280536
 21
126.3501058380118
 31
0.0
  0
LINE
  8
DETAIL
  6
CONTINUOUS
 62
     5
 10
-73.642969283280536
 20
126.3501058380118
 30
0.0
 11
-73.642969283280536
 21
126.3501058380118
 31
0.0
  0
LINE
  8
DETAIL
  6
CONTINUOUS
 62
     5
 10
-73.642969283280536
 20
126.3501058380118
 30
0.0
 11
-73.615362916039658
 21
126.2813151256198
 31
0.0
  0
LINE
  8
DETAIL
  6
CONTINUOUS
 62
     5
 10
-73.615362916039658
 20
126.2813151256198
 30
0.0
 11
-73.588466212059529
 21
126.21167261256799
 31
0.0
  0
LINE
  8
DETAIL
  6
CONTINUOUS
 62
     5
 10
-73.588466212059529
 20
126.21167261256799
 30
0.0
 11
-73.588466212059529
 21
126.21167261256799
 31
0.0
  0
LINE
  8
DETAIL
  6
CONTINUOUS
 62
     5
 10
-73.588466212059529
 20
126.21167261256799
 30
0.0
 11
-73.562563786559281
 21
126.141855869949
 31
0.0
  0
LINE
  8
DETAIL
  6
CONTINUOUS
 62
     5
 10
-73.562563786559281
 20
126.141855869949
 30
0.0
 11
-73.53764032891263
 21
126.0718475355194
 31
0.0
  0
LINE
  8
DETAIL
  6
CONTINUOUS
 62
     5
 10
-73.53764032891263
 20
126.0718475355194
 30
0.0
 11
-73.53764032891263
 21
126.0718475355194
 31
0.0
  0
LINE
  8
DETAIL
  6
CONTINUOUS
 62
     5
 10
-73.53764032891263
 20
126.0718475355194
 30
0.0
 11
-73.513621707158336
 21
126.00148719030599
 31
0.0
  0
LINE
  8
DETAIL
  6
CONTINUOUS
 62
     5
 10
-73.513621707158336
 20
126.00148719030599
 30
0.0
 11
-73.490498429844365
 21
125.9307371217553
 31
0.0
  0
LINE
  8
DETAIL
  6
CONTINUOUS
 62
     5
 10
-73.490498429844365
 20
125.9307371217553
 30
0.0
 11
-73.490498429844365
 21
125.9307371217553
 31
0.0
  0
LINE
  8
DETAIL
  6
CONTINUOUS
 62
     5
 10
-73.490498429844365
 20
125.9307371217553
 30
0.0
 11
-73.46828750659995
 21
125.8596413208334
 31
0.0
  0
LINE
  8
DETAIL
  6
CONTINUOUS
 62
     5
 10
-73.46828750659995
 20
125.8596413208334
 30
0.0
 11
-73.44704731086108
 21
125.7884478861649
 31
0.0
  0
LINE
  8
DETAIL
  6
CONTINUOUS
 62
     5
 10
-73.44704731086108
 20
125.7884478861649
 30
0.0
 11
-73.44704731086108
 21
125.7884478861649
 31
0.0
  0
LINE
  8
DETAIL
  6
CONTINUOUS
 62
     5
 10
-73.44704731086108
 20
125.7884478861649
 30
0.0
 11
-73.426789033080695
 21
125.7172211590256
 31
0.0
  0
LINE
  8
DETAIL
  6
CONTINUOUS
 62
     5
 10
-73.426789033080695
 20
125.7172211590256
 30
0.0
 11
-73.407293767965484
 21
125.6450863436373
 31
0.0
  0
LINE
  8
DETAIL
  6
CONTINUOUS
 62
     5
 10
-73.407293767965484
 20
125.6450863436373
 30
0.0
 11
-73.407293767965484
 21
125.6450863436373
 31
0.0
  0
LINE
  8
DETAIL
  6
CONTINUOUS
 62
     5
 10
-73.407293767965484
 20
125.6450863436373
 30
0.0
 11
-73.388382909868596
 21
125.57130631455659
 31
0.0
  0
LINE
  8
DETAIL
  6
CONTINUOUS
 62
     5
 10
-73.388382909868596
 20
125.57130631455659
 30
0.0
 11
-73.370269147477075
 21
125.4966337647315
 31
0.0
  0
LINE
  8
DETAIL
  6
CONTINUOUS
 62
     5
 10
-73.370269147477075
 20
125.4966337647315
 30
0.0
 11
-73.370269147477075
 21
125.4966337647315
 31
0.0
  0
LINE
  8
DETAIL
  6
CONTINUOUS
 62
     5
 10
-73.370269147477075
 20
125.4966337647315
 30
0.0
 11
-73.353197494655888
 21
125.421962626255
 31
0.0
  0
LINE
  8
DETAIL
  6
CONTINUOUS
 62
     5
 10
-73.353197494655888
 20
125.421962626255
 30
0.0
 11
-73.337150971638721
 21
125.3472619694065
 31
0.0
  0
LINE
  8
DETAIL
  6
CONTINUOUS
 62
     5
 10
-73.337150971638721
 20
125.3472619694065
 30
0.0
 11
-73.337150971638721
 21
125.3472619694065
 31
0.0
  0
LINE
  8
DETAIL
  6
CONTINUOUS
 62
     5
 10
-73.337150971638721
 20
125.3472619694065
 30
0.0
 11
-73.322062591931058
 21
125.2723133741202
 31
0.0
  0
LINE
  8
DETAIL
  6
CONTINUOUS
 62
     5
 10
-73.322062591931058
 20
125.2723133741202
 30
0.0
 11
-73.307927335737759
 21
125.1970733207603
 31
0.0
  0
LINE
  8
DETAIL
  6
CONTINUOUS
 62
     5
 10
-73.307927335737759
 20
125.1970733207603
 30
0.0
 11
-73.307927335737759
 21
125.1970733207603
 31
0.0
  0
LINE
  8
DETAIL
  6
CONTINUOUS
 62
     5
 10
-73.307927335737759
 20
125.1970733207603
 30
0.0
 11
-73.294759206645722
 21
125.1215983298215
 31
0.0
  0
LINE
  8
DETAIL
  6
CONTINUOUS
 62
     5
 10
-73.294759206645722
 20
125.1215983298215
 30
0.0
 11
-73.282586335061069
 21
125.0461701818914
 31
0.0
  0
LINE
  8
DETAIL
  6
CONTINUOUS
 62
     5
 10
-73.282586335061069
 20
125.0461701818914
 30
0.0
 11
-73.282586335061069
 21
125.0461701818914
 31
0.0
  0
LINE
  8
DETAIL
  6
CONTINUOUS
 62
     5
 10
-73.282586335061069
 20
125.0461701818914
 30
0.0
 11
-73.271410764599977
 21
124.9708579873806
 31
0.0
  0
LINE
  8
DETAIL
  6
CONTINUOUS
 62
     5
 10
-73.271410764599977
 20
124.9708579873806
 30
0.0
 11
-73.261116064896441
 21
124.8946549158978
 31
0.0
  0
LINE
  8
DETAIL
  6
CONTINUOUS
 62
     5
 10
-73.261116064896441
 20
124.8946549158978
 30
0.0
 11
-73.261116064896441
 21
124.8946549158978
 31
0.0
  0
LINE
  8
DETAIL
  6
CONTINUOUS
 62
     5
 10
-73.261116064896441
 20
124.8946549158978
 30
0.0
 11
-73.251610232772805
 21
124.81671499407651
 31
0.0
  0
LINE
  8
DETAIL
  6
CONTINUOUS
 62
     5
 10
-73.251610232772805
 20
124.81671499407651
 30
0.0
 11
-73.243017447775628
 21
124.7379116174501
 31
0.0
  0
LINE
  8
DETAIL
  6
CONTINUOUS
 62
     5
 10
-73.243017447775628
 20
124.7379116174501
 30
0.0
 11
-73.243017447775628
 21
124.7379116174501
 31
0.0
  0
LINE
  8
DETAIL
  6
CONTINUOUS
 62
     5
 10
-73.243017447775628
 20
124.7379116174501
 30
0.0
 11
-73.235479364762568
 21
124.6592759455195
 31
0.0
  0
LINE
  8
DETAIL
  6
CONTINUOUS
 62
     5
 10
-73.235479364762568
 20
124.6592759455195
 30
0.0
 11
-73.228991357100995
 21
124.5807508247516
 31
0.0
  0
LINE
  8
DETAIL
  6
CONTINUOUS
 62
     5
 10
-73.228991357100995
 20
124.5807508247516
 30
0.0
 11
-73.228991357100995
 21
124.5807508247516
 31
0.0
  0
LINE
  8
DETAIL
  6
CONTINUOUS
 62
     5
 10
-73.228991357100995
 20
124.5807508247516
 30
0.0
 11
-73.223513194392353
 21
124.50207972293499
 31
0.0
  0
LINE
  8
DETAIL
  6
CONTINUOUS
 62
     5
 10
-73.223513194392353
 20
124.50207972293499
 30
0.0
 11
-73.21900851265741
 21
124.4232969061773
 31
0.0
  0
LINE
  8
DETAIL
  6
CONTINUOUS
 62
     5
 10
-73.21900851265741
 20
124.4232969061773
 30
0.0
 11
-73.21900851265741
 21
124.4232969061773
 31
0.0
  0
LINE
  8
DETAIL
  6
CONTINUOUS
 62
     5
 10
-73.21900851265741
 20
124.4232969061773
 30
0.0
 11
-73.215474618473991
 21
124.34449062010511
 31
0.0
  0
LINE
  8
DETAIL
  6
CONTINUOUS
 62
     5
 10
-73.215474618473991
 20
124.34449062010511
 30
0.0
 11
-73.21303963422838
 21
124.26567423010169
 31
0.0
  0
LINE
  8
DETAIL
  6
CONTINUOUS
 62
     5
 10
-73.21303963422838
 20
124.26567423010169
 30
0.0
 11
-73.21303963422838
 21
124.26567423010169
 31
0.0
  0
LINE
  8
DETAIL
  6
CONTINUOUS
 62
     5
 10
-73.21303963422838
 20
124.26567423010169
 30
0.0
 11
-73.211732603845462
 21
124.1868445621531
 31
0.0
  0
LINE
  8
DETAIL
  6
CONTINUOUS
 62
     5
 10
-73.211732603845462
 20
124.1868445621531
 30
0.0
 11
-73.211055441600138
 21
124.1080071649
 31
0.0
  0
ARC
  8
DETAIL
  6
CONTINUOUS
 62
     5
 10
12.971067811866311
 20
-186.00000000000011
 30
0.0
 40
5.0
 50
225.0
 51
270.0
  0
LINE
  8
DETAIL
  6
CONTINUOUS
 62
     5
 10
9.4355339059334256
 20
-189.53553390593299
 30
0.0
 11
0.0
 21
-180.10000000000011
 31
0.0
  0
ARC
  8
DETAIL
  6
CONTINUOUS
 62
     5
 10
40.074175964327416
 20
-181.00000000000011
 30
0.0
 40
9.9999999999999556
 50
270.0
 51
291.80140948635568
  0
ARC
  8
DETAIL
  6
CONTINUOUS
 62
     5
 10
64.0
 20
-178.9689011157194
 30
0.0
 40
3.0
 50
291.80140948635568
 51
0.0
  0
LINE
  8
DETAIL
  6
CONTINUOUS
 62
     5
 10
65.114172029062502
 20
-181.75433118837509
 30
0.0
 11
43.788082727868641
 21
-190.28476690885259
 31
0.0
  0
LINE
  8
DETAIL
  6
CONTINUOUS
 62
     5
 10
30.0
 20
-156.00000000000011
 30
0.0
 11
67.0
 21
-176.00000000000011
 31
0.0
  0
LINE
  8
DETAIL
  6
CONTINUOUS
 62
     5
 10
67.0
 20
-176.00000000000011
 30
0.0
 11
67.0
 21
-178.9689011157194
 31
0.0
  0
LINE
  8
DETAIL
  6
CONTINUOUS
 62
     5
 10
2.0
 20
-156.00000000000011
 30
0.0
 11
30.0
 21
-156.00000000000011
 31
0.0
  0
LINE
  8
DETAIL
  6
CONTINUOUS
 62
     5
 10
0.0
 20
-180.09999999999999
 30
0.0
 11
0.0
 21
-179.0
 31
0.0
  0
LINE
  8
DETAIL
  6
CONTINUOUS
 62
     5
 10
12.971067811866311
 20
-191.00000000000011
 30
0.0
 11
40.074175964327416
 21
-191.00000000000011
 31
0.0
  0
ARC
  8
DETAIL
  6
CONTINUOUS
 62
     5
 10
2.0
 20
-158.00000000000011
 30
0.0
 40
2.0
 50
90.0
 51
180.0
  0
LINE
  8
DETAIL
  6
CONTINUOUS
 62
     5
 10
0.3000000000001819
 20
-179.0
 30
0.0
 11
0.3000000000001819
 21
-174.0
 31
0.0
  0
LINE
  8
DETAIL
  6
CONTINUOUS
 62
     5
 10
0.0
 20
-174.0
 30
0.0
 11
0.3000000000001819
 21
-174.0
 31
0.0
  0
LINE
  8
DETAIL
  6
CONTINUOUS
 62
     5
 10
0.0
 20
-179.0
 30
0.0
 11
0.3000000000001819
 21
-179.0
 31
0.0
  0
LINE
  8
DETAIL
  6
CONTINUOUS
 62
     5
 10
0.0
 20
-174.00000000000011
 30
0.0
 11
0.0
 21
-158.00000000000011
 31
0.0
  0
ARC
  8
DETAIL
  6
CONTINUOUS
 62
     5
 10
8.0
 20
125.0
 30
0.0
 40
2.0
 50
0.0
 51
90.0
  0
ARC
  8
DETAIL
  6
CONTINUOUS
 62
     5
 10
8.0
 20
119.0
 30
0.0
 40
2.0
 50
270.0
 51
0.0
  0
ARC
  8
DETAIL
  6
CONTINUOUS
 62
     5
 10
8.0
 20
-125.0
 30
0.0
 40
2.0
 50
270.0
 51
0.0
  0
ARC
  8
DETAIL
  6
CONTINUOUS
 62
     5
 10
8.0
 20
-119.0
 30
0.0
 40
2.0
 50
0.0
 51
90.0
  0
LINE
  8
DETAIL
  6
CONTINUOUS
 62
     5
 10
0.0
 20
175.0
 30
0.0
 11
0.5999999999999091
 21
175.0
 31
0.0
  0
LINE
  8
DETAIL
  6
CONTINUOUS
 62
     5
 10
8.0
 20
127.0
 30
0.0
 11
0.0
 21
127.0
 31
0.0
  0
LINE
  8
DETAIL
  6
CONTINUOUS
 62
     5
 10
8.0
 20
117.0
 30
0.0
 11
0.0
 21
117.0
 31
0.0
  0
LINE
  8
DETAIL
  6
CONTINUOUS
 62
     5
 10
0.0
 20
-127.0
 30
0.0
 11
0.0
 21
-175.0
 31
0.0
  0
LINE
  8
DETAIL
  6
CONTINUOUS
 62
     5
 10
0.0
 20
117.0
 30
0.0
 11
0.0
 21
-117.0
 31
0.0
  0
LINE
  8
DETAIL
  6
CONTINUOUS
 62
     5
 10
0.0
 20
175.0
 30
0.0
 11
0.0
 21
127.0
 31
0.0
  0
LINE
  8
DETAIL
  6
CONTINUOUS
 62
     5
 10
0.5999999999999091
 20
127.0
 30
0.0
 11
0.5999999999999091
 21
175.0
 31
0.0
  0
LINE
  8
DETAIL
  6
CONTINUOUS
 62
     5
 10
0.5999999999999091
 20
-117.0
 30
0.0
 11
0.5999999999999091
 21
117.0
 31
0.0
  0
LINE
  8
DETAIL
  6
CONTINUOUS
 62
     5
 10
10.0
 20
-119.0
 30
0.0
 11
10.0
 21
-125.0
 31
0.0
  0
LINE
  8
DETAIL
  6
CONTINUOUS
 62
     5
 10
10.0
 20
125.0
 30
0.0
 11
10.0
 21
119.0
 31
0.0
  0
LINE
  8
DETAIL
  6
CONTINUOUS
 62
     5
 10
30.0
 20
-156.00000000000011
 30
0.0
 11
30.0
 21
147.70000000000019
 31
0.0
  0
LINE
  8
DETAIL
  6
CONTINUOUS
 62
     5
 10
8.0
 20
-117.0
 30
0.0
 11
0.0
 21
-117.0
 31
0.0
  0
LINE
  8
DETAIL
  6
CONTINUOUS
 62
     5
 10
8.0
 20
-127.0
 30
0.0
 11
0.0
 21
-127.0
 31
0.0
  0
LINE
  8
DETAIL
  6
CONTINUOUS
 62
     5
 10
0.0
 20
-175.0
 30
0.0
 11
0.3000000000001819
 21
-175.0
 31
0.0
  0
LINE
  8
DETAIL
  6
CONTINUOUS
 62
     5
 10
0.5999999999999091
 20
-156.5717143142916
 30
0.0
 11
0.5999999999999091
 21
-127.0
 31
0.0
  0
LINE
  8
DETAIL
  6
CONTINUOUS
 62
     5
 10
3.0
 20
160.69999999999999
 30
0.0
 11
3.0
 21
172.69999999999999
 31
0.0
  0
LINE
  8
DETAIL
  6
CONTINUOUS
 62
     5
 10
3.0
 20
155.69999999999999
 30
0.0
 11
3.3000000000001819
 21
155.69999999999999
 31
0.0
  0
LINE
  8
DETAIL
  6
CONTINUOUS
 62
     5
 10
3.0
 20
160.69999999999999
 30
0.0
 11
3.3000000000001819
 21
160.69999999999999
 31
0.0
  0
LINE
  8
DETAIL
  6
CONTINUOUS
 62
     5
 10
3.3000000000001819
 20
155.69999999999999
 30
0.0
 11
3.3000000000001819
 21
160.69999999999999
 31
0.0
  0
LINE
  8
DETAIL
  6
CONTINUOUS
 62
     5
 10
3.0
 20
172.69999999999999
 30
0.0
 11
29.539440530882981
 21
172.69999999999999
 31
0.0
  0
LINE
  8
DETAIL
  6
CONTINUOUS
 62
     5
 10
62.5
 20
157.69999999999999
 30
0.0
 11
62.5
 21
166.96416912239371
 31
0.0
  0
LINE
  8
DETAIL
  6
CONTINUOUS
 62
     5
 10
5.0
 20
147.69999999999999
 30
0.0
 11
30.0
 21
147.69999999999999
 31
0.0
  0
LINE
  8
DETAIL
  6
CONTINUOUS
 62
     5
 10
3.0
 20
149.69999999999999
 30
0.0
 11
3.0
 21
155.69999999999999
 31
0.0
  0
LINE
  8
DETAIL
  6
CONTINUOUS
 62
     5
 10
30.458609773053471
 20
172.6576667901796
 30
0.0
 11
59.775750772651463
 21
169.95146915944761
 31
0.0
  0
LINE
  8
DETAIL
  6
CONTINUOUS
 62
     5
 10
62.5
 20
157.69999999999999
 30
0.0
 11
30.0
 21
147.69999999999999
 31
0.0
  0
ARC
  8
DETAIL
  6
CONTINUOUS
 62
     5
 10
59.5
 20
166.96416912239371
 30
0.0
 40
2.99999999999996
 50
0.0
 51
84.726104042637459
  0
ARC
  8
DETAIL
  6
CONTINUOUS
 62
     5
 10
29.539440530882981
 20
162.69999999999999
 30
0.0
 40
10.0
 50
84.72610404265059
 51
90.0
  0
ARC
  8
DETAIL
  6
CONTINUOUS
 62
     5
 10
5.0
 20
149.69999999999999
 30
0.0
 40
2.0
 50
180.0
 51
270.0
  0
ARC
  8
DETAIL
  6
CONTINUOUS
 62
     5
 10
2.5999999999999091
 20
174.09999999999999
 30
0.0
 40
2.0
 50
184.49999115670519
 51
281.53695903281817
  0
LINE
  8
DETAIL
  6
CONTINUOUS
 62
     5
 10
-81.48492618869318
 20
121.98492143224379
 30
0.0
 11
-78.51507381130682
 21
119.01507856775591
 31
0.0
  0
LINE
  8
DETAIL
  6
CONTINUOUS
 62
     5
 10
-78.515078567755836
 20
121.98492618869319
 30
0.0
 11
-81.484921432243709
 21
119.01507381130649
 31
0.0
  0
CIRCLE
  8
DETAIL
  6
CONTINUOUS
 62
     5
 10
-79.999999999999773
 20
120.4999999999999
 30
0.0
 40
4.0
  0
LINE
  8
DETAIL
  6
CONTINUOUS
 62
     5
 10
-81.48492618869318
 20
33.984921432243937
 30
0.0
 11
-78.51507381130682
 21
31.01507856775606
 31
0.0
  0
LINE
  8
DETAIL
  6
CONTINUOUS
 62
     5
 10
-78.515078567755836
 20
33.98492618869318
 30
0.0
 11
-81.484921432243709
 21
31.01507381130682
 31
0.0
  0
CIRCLE
  8
DETAIL
  6
CONTINUOUS
 62
     5
 10
-79.999999999999773
 20
32.5
 30
0.0
 40
4.0
  0
LINE
  8
DETAIL
  6
CONTINUOUS
 62
     5
 10
-81.48492618869318
 20
-54.015078567756063
 30
0.0
 11
-78.51507381130682
 21
-56.984921432243937
 31
0.0
  0
LINE
  8
DETAIL
  6
CONTINUOUS
 62
     5
 10
-78.515078567755836
 20
-54.015073811306713
 30
0.0
 11
-81.484921432243709
 21
-56.984926188693287
 31
0.0
  0
CIRCLE
  8
DETAIL
  6
CONTINUOUS
 62
     5
 10
-79.999999999999773
 20
-55.5
 30
0.0
 40
4.0
  0
LINE
  8
DETAIL
  6
CONTINUOUS
 62
     5
 10
30.599999999999909
 20
-136.00000000000011
 30
0.0
 11
30.599999999999909
 21
147.88461538461561
 31
0.0
  0
LINE
  8
DETAIL
  6
CONTINUOUS
 62
     5
 10
60.099999999999909
 20
-172.2702702702704
 30
0.0
 11
60.099999999999909
 21
156.96153846153859
 31
0.0
  0
LINE
  8
DETAIL
  6
CONTINUOUS
 62
     5
 10
-28.0
 20
149.2500000000006
 30
0.0
 11
-30.0
 21
149.2500000000006
 31
0.0
  0
LINE
  8
DETAIL
  6
CONTINUOUS
 62
     5
 10
-27.0
 20
148.2500000000006
 30
0.0
 11
-30.0
 21
148.2500000000006
 31
0.0
  0
LINE
  8
DETAIL
  6
CONTINUOUS
 62
     5
 10
-27.0
 20
144.94999999999999
 30
0.0
 11
-27.0
 21
148.2500000000006
 31
0.0
  0
LINE
  8
DETAIL
  6
CONTINUOUS
 62
     5
 10
-28.0
 20
144.94999999999999
 30
0.0
 11
-28.0
 21
149.2500000000006
 31
0.0
  0
LINE
  8
DETAIL
  6
CONTINUOUS
 62
     5
 10
-27.999966135754221
 20
149.24996404584499
 30
0.0
 11
-27.000072970095061
 21
148.2500708801858
 31
0.0
  0
LINE
  8
DETAIL
  6
CONTINUOUS
 62
     5
 10
-32.0
 20
149.2500000000006
 30
0.0
 11
-30.0
 21
149.2500000000006
 31
0.0
  0
LINE
  8
DETAIL
  6
CONTINUOUS
 62
     5
 10
-33.0
 20
148.2500000000006
 30
0.0
 11
-30.0
 21
148.2500000000006
 31
0.0
  0
LINE
  8
DETAIL
  6
CONTINUOUS
 62
     5
 10
-33.0
 20
144.94999999999999
 30
0.0
 11
-33.0
 21
148.2500000000006
 31
0.0
  0
LINE
  8
DETAIL
  6
CONTINUOUS
 62
     5
 10
-32.0
 20
144.94999999999999
 30
0.0
 11
-32.0
 21
149.2500000000006
 31
0.0
  0
LINE
  8
DETAIL
  6
CONTINUOUS
 62
     5
 10
-32.000035119670429
 20
149.2498129915426
 30
0.0
 11
-32.999928285329588
 21
148.24991982588341
 31
0.0
  0
CIRCLE
  8
FIX
  6
CONTINUOUS
 62
    11
 10
0.0
 20
157.3439494749999
 30
0.0
 40
2.5
  0
CIRCLE
  8
FIX
  6
CONTINUOUS
 62
    11
 10
0.0
 20
-157.3439494750001
 30
0.0
 40
2.5
  0
LINE
  8
SIZE
  6
CONTINUOUS
 62
    30
 10
-89.999999999999773
 20
164.94999999999999
 30
0.0
 11
-89.999999999999773
 21
380.72130699821219
 31
0.0
  0
LINE
  8
SIZE
  6
CONTINUOUS
 62
    30
 10
-157.98528872418609
 20
120.6915872063374
 30
0.0
 11
-157.98528872418609
 21
380.72130699821219
 31
0.0
  0
LINE
  8
SIZE
  6
CONTINUOUS
 62
    30
 10
-77.999999999999773
 20
360.72130699821219
 30
0.0
 11
-65.999999999999773
 21
360.72130699821219
 31
0.0
  0
LINE
  8
SIZE
  6
CONTINUOUS
 62
    30
 10
-169.98528872418609
 20
360.72130699821219
 30
0.0
 11
-325.2424315813289
 21
360.72130699821219
 31
0.0
  0
LINE
  8
SIZE
  6
CONTINUOUS
 62
    30
 10
-89.999999999999773
 20
360.72130699821219
 30
0.0
 11
-157.98528872418609
 21
360.72130699821219
 31
0.0
  0
CIRCLE
  8
SIZE
  6
CONTINUOUS
 62
    30
 10
-89.999999999999773
 20
360.72130699821219
 30
0.0
 40
6.0
  0
LINE
  8
SIZE
  6
CONTINUOUS
 62
    30
 10
-89.999999999999773
 20
360.72130699821219
 30
0.0
 11
-77.999999999999773
 21
360.72130699821219
 31
0.0
  0
CIRCLE
  8
SIZE
  6
CONTINUOUS
 62
    30
 10
-157.98528872418609
 20
360.72130699821219
 30
0.0
 40
6.0
  0
LINE
  8
SIZE
  6
CONTINUOUS
 62
    30
 10
-157.98528872418609
 20
360.72130699821219
 30
0.0
 11
-169.98528872418609
 21
360.72130699821219
 31
0.0
  0
TEXT
  8
SIZE
  6
CONTINUOUS
 62
    30
 10
-300.24243158132901
 20
385.72130699821219
 30
0.0
 40
64.0
  1
68
 41
0.9
 72
     1
 11
-253.6138601527575
 21
385.72130699821219
 31
0.0
  0
ARC
  8
DETAIL
  6
CONTINUOUS
 62
     5
 10
-95.214065246806285
 20
114.0635548536512
 30
0.0
 40
0.374955917812515
 50
17.000000000008491
 51
107.000000000036
  0
ARC
  8
DETAIL
  6
CONTINUOUS
 62
     5
 10
-94.496920991845172
 20
114.28280785542491
 30
0.0
 40
0.374955917812435
 50
197.0000000000085
 51
286.99999999998141
  0
ARC
  8
DETAIL
  6
CONTINUOUS
 62
     5
 10
-157.33985889472089
 20
100.8889149079334
 30
0.0
 40
0.337460326031205
 50
106.9999999999814
 51
197.0000000000085
  0
ARC
  8
DETAIL
  6
CONTINUOUS
 62
     5
 10
-157.21499055747651
 20
100.4804889800926
 30
0.0
 40
0.3374603260310949
 50
196.99999999999201
 51
301.43312224278782
  0
ARC
  8
DETAIL
  6
CONTINUOUS
 62
     5
 10
-157.21499055747651
 20
100.4804889800926
 30
0.0
 40
0.6749206520624551
 50
196.99999999999201
 51
301.43312224278782
  0
ARC
  8
DETAIL
  6
CONTINUOUS
 62
     5
 10
-157.33985889472089
 20
100.8889149079334
 30
0.0
 40
0.6749206520626849
 50
107.0000000000087
 51
196.99999999999201
  0
LINE
  8
DETAIL
  6
CONTINUOUS
 62
     5
 10
-153.30299087524239
 20
102.4759887995594
 30
0.0
 11
-157.03900399323021
 21
100.1925511380678
 31
0.0
  0
LINE
  8
DETAIL
  6
CONTINUOUS
 62
     5
 10
-156.8630174289838
 20
99.904613296042157
 30
0.0
 11
-153.12700431103349
 21
102.1880509576545
 31
0.0
  0
LINE
  8
DETAIL
  6
CONTINUOUS
 62
     5
 10
-157.53718659631659
 20
101.53434473739939
 30
0.0
 11
-89.999999999999773
 21
121.0641483815284
 31
0.0
  0
LINE
  8
DETAIL
  6
CONTINUOUS
 62
     5
 10
-157.43852274551841
 20
101.2116298226665
 30
0.0
 11
-145.53392811316371
 21
104.8512296521056
 31
0.0
  0
LINE
  8
DETAIL
  6
CONTINUOUS
 62
     5
 10
-97.355600470082891
 20
113.8009101427735
 30
0.0
 11
-95.323691747693147
 21
114.4221269811317
 31
0.0
  0
LINE
  8
DETAIL
  6
CONTINUOUS
 62
     5
 10
-141.4150027751823
 20
99.928585778592378
 30
0.0
 11
-97.136347468309168
 21
113.0837658878131
 31
0.0
  0
LINE
  8
DETAIL
  6
CONTINUOUS
 62
     5
 10
-89.999999999999773
 20
114.529343176485
 30
0.0
 11
-94.387294490958311
 21
113.92423572794431
 31
0.0
  0
LINE
  8
DETAIL
  6
CONTINUOUS
 62
     5
 10
-141.41500276539159
 20
99.928585781194215
 30
0.0
 11
-144.53632695509401
 21
101.588223292032
 31
0.0
  0
LINE
  8
DETAIL
  6
CONTINUOUS
 62
     5
 10
-97.136347468309168
 20
113.0837658878131
 30
0.0
 11
-97.355600470082891
 21
113.8009101427735
 31
0.0
  0
LINE
  8
DETAIL
  6
CONTINUOUS
 62
     5
 10
-153.12700431103349
 20
102.1880509576545
 30
0.0
 11
-153.30299087524239
 21
102.4759887995594
 31
0.0
  0
LINE
  8
DETAIL
  6
CONTINUOUS
 62
     5
 10
-144.53632695509401
 20
101.588223292032
 30
0.0
 11
-145.6325919639614
 21
105.1739445668381
 31
0.0
  0
LINE
  8
DETAIL
  6
CONTINUOUS
 62
     5
 10
-157.43852274551841
 20
101.2116298226665
 30
0.0
 11
-157.53718659631659
 21
101.53434473739939
 31
0.0
  0
LINE
  8
DETAIL
  6
CONTINUOUS
 62
     5
 10
-157.5377054722089
 20
100.3818251292944
 30
0.0
 11
-157.6625738094526
 21
100.7902510571359
 31
0.0
  0
LINE
  8
DETAIL
  6
CONTINUOUS
 62
     5
 10
-157.98528872418569
 20
100.6915872063377
 30
0.0
 11
-157.86042038694131
 21
100.28316127849681
 31
0.0
  0
LINE
  8
DETAIL
  6
CONTINUOUS
 62
     5
 10
-157.53718659631659
 20
12.75778728950405
 30
0.0
 11
-89.999999999999773
 21
32.287590933632998
 31
0.0
  0
LINE
  8
DETAIL
  6
CONTINUOUS
 62
     5
 10
-89.999999999999773
 20
25.752785728589689
 30
0.0
 11
-94.387294490958311
 21
25.147678280049551
 31
0.0
  0
ARC
  8
DETAIL
  6
CONTINUOUS
 62
     5
 10
-95.214065246806285
 20
25.286997405756381
 30
0.0
 40
0.37495591781241
 50
16.999999999991971
 51
106.9999999999814
  0
ARC
  8
DETAIL
  6
CONTINUOUS
 62
     5
 10
-94.496920991845172
 20
25.5062504075301
 30
0.0
 40
0.374955917812525
 50
197.0000000000133
 51
287.00000000003598
  0
ARC
  8
DETAIL
  6
CONTINUOUS
 62
     5
 10
-157.33985889472089
 20
12.112357460039281
 30
0.0
 40
0.3374603260312
 50
106.9999999999814
 51
196.99999999999201
  0
ARC
  8
DETAIL
  6
CONTINUOUS
 62
     5
 10
-157.21499055747651
 20
11.703931532197259
 30
0.0
 40
0.33746032603124
 50
197.0000000000085
 51
301.43312224281811
  0
ARC
  8
DETAIL
  6
CONTINUOUS
 62
     5
 10
-157.21499055747651
 20
11.703931532197259
 30
0.0
 40
0.6749206520626201
 50
197.0000000000085
 51
301.43312224281811
  0
ARC
  8
DETAIL
  6
CONTINUOUS
 62
     5
 10
-157.33985889472089
 20
12.112357460039281
 30
0.0
 40
0.6749206520624099
 50
107.0000000000087
 51
197.0000000000085
  0
LINE
  8
DETAIL
  6
CONTINUOUS
 62
     5
 10
-153.30299087524239
 20
13.699431351665281
 30
0.0
 11
-157.03900399323021
 21
11.415993690172339
 31
0.0
  0
LINE
  8
DETAIL
  6
CONTINUOUS
 62
     5
 10
-156.8630174289838
 20
11.128055848147429
 30
0.0
 11
-153.12700431103281
 21
13.41149350975974
 31
0.0
  0
LINE
  8
DETAIL
  6
CONTINUOUS
 62
     5
 10
-157.43852274551841
 20
12.435072374771099
 30
0.0
 11
-145.53392811316371
 21
16.074672204210341
 31
0.0
  0
LINE
  8
DETAIL
  6
CONTINUOUS
 62
     5
 10
-97.355600470082891
 20
25.024352694878811
 30
0.0
 11
-95.323691747692692
 21
25.645569533236941
 31
0.0
  0
LINE
  8
DETAIL
  6
CONTINUOUS
 62
     5
 10
-141.4150027751823
 20
11.15202833069765
 30
0.0
 11
-97.136347468309168
 21
24.307208439917702
 31
0.0
  0
LINE
  8
DETAIL
  6
CONTINUOUS
 62
     5
 10
-141.41500276539159
 20
11.15202833329937
 30
0.0
 11
-144.53632695509401
 21
12.81166584413717
 31
0.0
  0
LINE
  8
DETAIL
  6
CONTINUOUS
 62
     5
 10
-97.136347468309168
 20
24.307208439917702
 30
0.0
 11
-97.355600470082891
 21
25.024352694878811
 31
0.0
  0
LINE
  8
DETAIL
  6
CONTINUOUS
 62
     5
 10
-153.12700431103281
 20
13.41149350975974
 30
0.0
 11
-153.30299087524239
 21
13.699431351665281
 31
0.0
  0
LINE
  8
DETAIL
  6
CONTINUOUS
 62
     5
 10
-144.53632695509401
 20
12.81166584413717
 30
0.0
 11
-145.6325919639614
 21
16.3973871189433
 31
0.0
  0
LINE
  8
DETAIL
  6
CONTINUOUS
 62
     5
 10
-157.43852274551841
 20
12.435072374771099
 30
0.0
 11
-157.53718659631659
 21
12.75778728950405
 31
0.0
  0
LINE
  8
DETAIL
  6
CONTINUOUS
 62
     5
 10
-157.5377054722089
 20
11.605267681399649
 30
0.0
 11
-157.6625738094526
 21
12.01369360924053
 31
0.0
  0
LINE
  8
DETAIL
  6
CONTINUOUS
 62
     5
 10
-157.98528872418501
 20
11.91502975844236
 30
0.0
 11
-157.8604203869406
 21
11.506603830601479
 31
0.0
  0
LINE
  8
DETAIL
  6
CONTINUOUS
 62
     5
 10
-157.53718659631659
 20
-76.018770158391305
 30
0.0
 11
-89.999999999999773
 21
-56.48896651426179
 31
0.0
  0
LINE
  8
DETAIL
  6
CONTINUOUS
 62
     5
 10
-89.999999999999773
 20
-63.023771719305103
 30
0.0
 11
-94.387294490958311
 21
-63.62887916784581
 31
0.0
  0
ARC
  8
DETAIL
  6
CONTINUOUS
 62
     5
 10
-95.214065246806285
 20
-63.489560042138407
 30
0.0
 40
0.3749559178124
 50
16.999999999991971
 51
106.9999999999814
  0
ARC
  8
DETAIL
  6
CONTINUOUS
 62
     5
 10
-94.496920991845172
 20
-63.270307040364678
 30
0.0
 40
0.3749559178125499
 50
197.0000000000133
 51
287.00000000003598
  0
ARC
  8
DETAIL
  6
CONTINUOUS
 62
     5
 10
-157.33985889472089
 20
-76.66419998785608
 30
0.0
 40
0.3374603260312
 50
106.9999999999814
 51
196.99999999999201
  0
ARC
  8
DETAIL
  6
CONTINUOUS
 62
     5
 10
-157.21499055747651
 20
-77.072625915697529
 30
0.0
 40
0.337460326031255
 50
197.0000000000085
 51
301.43312224281811
  0
ARC
  8
DETAIL
  6
CONTINUOUS
 62
     5
 10
-157.21499055747651
 20
-77.072625915697529
 30
0.0
 40
0.674920652062635
 50
197.0000000000085
 51
301.43312224281811
  0
ARC
  8
DETAIL
  6
CONTINUOUS
 62
     5
 10
-157.33985889472089
 20
-76.66419998785608
 30
0.0
 40
0.674920652062405
 50
107.0000000000087
 51
197.0000000000085
  0
LINE
  8
DETAIL
  6
CONTINUOUS
 62
     5
 10
-153.30299087524239
 20
-75.077126096230074
 30
0.0
 11
-157.03900399323021
 21
-77.360563757722446
 31
0.0
  0
LINE
  8
DETAIL
  6
CONTINUOUS
 62
     5
 10
-156.8630174289838
 20
-77.648501599747362
 30
0.0
 11
-153.12700431103281
 21
-75.36506393813562
 31
0.0
  0
LINE
  8
DETAIL
  6
CONTINUOUS
 62
     5
 10
-157.43852274551841
 20
-76.341485073123692
 30
0.0
 11
-145.53392811316371
 21
-72.701885243684444
 31
0.0
  0
LINE
  8
DETAIL
  6
CONTINUOUS
 62
     5
 10
-97.355600470082891
 20
-63.752204753015967
 30
0.0
 11
-95.323691747692692
 21
-63.130987914658419
 31
0.0
  0
LINE
  8
DETAIL
  6
CONTINUOUS
 62
     5
 10
-141.4150027751823
 20
-77.624529117197142
 30
0.0
 11
-97.136347468309168
 21
-64.469349007977087
 31
0.0
  0
LINE
  8
DETAIL
  6
CONTINUOUS
 62
     5
 10
-141.41500276539159
 20
-77.624529114595418
 30
0.0
 11
-144.53632695509401
 21
-75.964891603757621
 31
0.0
  0
LINE
  8
DETAIL
  6
CONTINUOUS
 62
     5
 10
-97.136347468309168
 20
-64.469349007977087
 30
0.0
 11
-97.355600470082891
 21
-63.752204753015967
 31
0.0
  0
LINE
  8
DETAIL
  6
CONTINUOUS
 62
     5
 10
-153.12700431103281
 20
-75.36506393813562
 30
0.0
 11
-153.30299087524239
 21
-75.077126096230074
 31
0.0
  0
LINE
  8
DETAIL
  6
CONTINUOUS
 62
     5
 10
-144.53632695509401
 20
-75.964891603757621
 30
0.0
 11
-145.6325919639614
 21
-72.379170328952057
 31
0.0
  0
LINE
  8
DETAIL
  6
CONTINUOUS
 62
     5
 10
-157.43852274551841
 20
-76.341485073123692
 30
0.0
 11
-157.53718659631659
 21
-76.018770158391305
 31
0.0
  0
LINE
  8
DETAIL
  6
CONTINUOUS
 62
     5
 10
-157.5377054722089
 20
-77.171289766495704
 30
0.0
 11
-157.6625738094526
 21
-76.762863838653686
 31
0.0
  0
LINE
  8
DETAIL
  6
CONTINUOUS
 62
     5
 10
-157.98528872418501
 20
-76.861527689452487
 30
0.0
 11
-157.8604203869406
 21
-77.269953617293311
 31
0.0
  0
TEXT
  8
ETC
  6
CONTINUOUS
 62
    61
 10
359.22752291009419
 20
427.85528737714571
 30
0.0
 40
64.0
  1
EX-25EFM8_5
 41
0.9
  0
TEXT
  8
ETC
  6
CONTINUOUS
 62
    61
 10
355.0415289100938
 20
309.89997736231447
 30
0.0
 40
64.0
  1
換気扇
 41
0.9
  0
TEXT
  8
ETC
  6
CONTINUOUS
 62
    61
 10
405.74292715864982
 20
201.75120447608921
 30
0.0
 40
40.0
  1
EX-25EFM8
 50
0.0
 41
0.9
 51
0.0
  7
STANDARD
 71
     0
 11
0.0
 21
0.0
 31
0.0
210
0.0
220
0.0
230
1.0
  0
LINE
  8
NOTE
  6
CONTINUOUS
 62
     4
 10
-507.42782770765371
 20
-324.35128678229188
 30
0.0
 11
-101.77549717009541
 21
-324.35128678229188
 31
0.0
  0
TEXT
  8
NOTE
  6
CONTINUOUS
 62
     4
 10
-476.42013941753862
 20
-303.60448649802561
 30
0.0
 40
64.0
  1
4-φ5×8
 41
0.9
  0
ENDSEC
  0
EOF
