  0
SECTION
  2
HEADER
  9
$ACADVER
  1
AC1009
  9
$DWGCODEPAGE
  3
dos932
  9
$INSBASE
 10
0.0
 20
0.0
 30
0.0
  9
$EXTMIN
 10
-605.45652638592037
 20
-225.5859255390078
 30
-0.0033678944088962
  9
$EXTMAX
 10
953.95661548706266
 20
627.09046216575734
 30
0.0012377164900528
  9
$LIMMIN
 10
-2970.0
 20
-2100.0
  9
$LIMMAX
 10
2970.0
 20
2100.0
  9
$ORTHOMODE
 70
     1
  9
$REGENMODE
 70
     1
  9
$FILLMODE
 70
     1
  9
$QTEXTMODE
 70
     0
  9
$MIRRTEXT
 70
     0
  9
$LTSCALE
 40
20.0
  9
$ATTMODE
 70
     1
  9
$TEXTSIZE
 40
64.0
  9
$TRACEWID
 40
0.05
  9
$TEXTSTYLE
  7
STANDARD
  9
$CLAYER
  8
NOTE
  9
$CELTYPE
  6
CONTINUOUS
  9
$CECOLOR
 62
     7
  9
$DIMSCALE
 40
1.0
  9
$DIMASZ
 40
12.0
  9
$DIMEXO
 40
20.0
  9
$DIMDLI
 40
200.0
  9
$DIMRND
 40
0.0
  9
$DIMDLE
 40
0.0
  9
$DIMEXE
 40
20.0
  9
$DIMTP
 40
0.0
  9
$DIMTM
 40
0.0
  9
$DIMTXT
 40
64.0
  9
$DIMCEN
 40
0.09
  9
$DIMTSZ
 40
0.0
  9
$DIMTOL
 70
     0
  9
$DIMLIM
 70
     0
  9
$DIMTIH
 70
     0
  9
$DIMTOH
 70
     0
  9
$DIMSE1
 70
     0
  9
$DIMSE2
 70
     0
  9
$DIMTAD
 70
     1
  9
$DIMZIN
 70
     8
  9
$DIMBLK
  1

  9
$DIMASO
 70
     1
  9
$DIMSHO
 70
     0
  9
$DIMPOST
  1

  9
$DIMAPOST
  1

  9
$DIMALT
 70
     0
  9
$DIMALTD
 70
     2
  9
$DIMALTF
 40
25.399999999999999
  9
$DIMLFAC
 40
1.0
  9
$DIMTOFL
 70
     1
  9
$DIMTVP
 40
0.0
  9
$DIMTIX
 70
     1
  9
$DIMSOXD
 70
     0
  9
$DIMSAH
 70
     0
  9
$DIMBLK1
  1

  9
$DIMBLK2
  1

  9
$DIMSTYLE
  2
STANDARD
  9
$DIMCLRD
 70
     7
  9
$DIMCLRE
 70
     7
  9
$DIMCLRT
 70
     7
  9
$DIMTFAC
 40
1.0
  9
$DIMGAP
 40
25.0
  9
$LUNITS
 70
     2
  9
$LUPREC
 70
     4
  9
$SKETCHINC
 40
0.1
  9
$FILLETRAD
 40
3.0
  9
$AUNITS
 70
     1
  9
$AUPREC
 70
     3
  9
$MENU
  1
ACAD
  9
$ELEVATION
 40
0.0
  9
$PELEVATION
 40
0.0
  9
$THICKNESS
 40
50.0
  9
$LIMCHECK
 70
     0
  9
$CHAMFERA
 40
0.0
  9
$CHAMFERB
 40
0.0
  9
$SKPOLY
 70
     0
  9
$TDCREATE
 40
2453019.62301037
  9
$TDUPDATE
 40
2459017.510906667
  9
$TDINDWG
 40
1.7101830787
  9
$TDUSRTIMER
 40
1.7101830787
  9
$USRTIMER
 70
     1
  9
$ANGBASE
 50
0.0
  9
$ANGDIR
 70
     0
  9
$PDMODE
 70
     3
  9
$PDSIZE
 40
-2.0
  9
$PLINEWID
 40
0.0
  9
$SPLFRAME
 70
     0
  9
$SPLINETYPE
 70
     6
  9
$SPLINESEGS
 70
     8
  9
$SURFTAB1
 70
     6
  9
$SURFTAB2
 70
     6
  9
$SURFTYPE
 70
     6
  9
$SURFU
 70
     6
  9
$SURFV
 70
     6
  9
$UCSNAME
  2

  9
$UCSORG
 10
0.0
 20
0.0
 30
0.0
  9
$UCSXDIR
 10
1.0
 20
0.0
 30
0.0
  9
$UCSYDIR
 10
0.0
 20
1.0
 30
0.0
  9
$PUCSNAME
  2

  9
$PUCSORG
 10
0.0
 20
0.0
 30
0.0
  9
$PUCSXDIR
 10
1.0
 20
0.0
 30
0.0
  9
$PUCSYDIR
 10
0.0
 20
1.0
 30
0.0
  9
$USERI1
 70
     0
  9
$USERI2
 70
     0
  9
$USERI3
 70
     0
  9
$USERI4
 70
     0
  9
$USERI5
 70
     0
  9
$USERR1
 40
20.0
  9
$USERR2
 40
0.0
  9
$USERR3
 40
0.0
  9
$USERR4
 40
0.0
  9
$USERR5
 40
0.0
  9
$WORLDVIEW
 70
     1
  9
$SHADEDGE
 70
     3
  9
$SHADEDIF
 70
    70
  9
$TILEMODE
 70
     1
  9
$MAXACTVP
 70
    48
  9
$PINSBASE
 10
0.0
 20
0.0
 30
0.0
  9
$PLIMCHECK
 70
     0
  9
$PEXTMIN
 10
-100000000000000000000.0
 20
-100000000000000000000.0
 30
-100000000000000000000.0
  9
$PEXTMAX
 10
100000000000000000000.0
 20
100000000000000000000.0
 30
100000000000000000000.0
  9
$PLIMMIN
 10
0.0
 20
0.0
  9
$PLIMMAX
 10
12.0
 20
9.0
  9
$UNITMODE
 70
     0
  9
$VISRETAIN
 70
     0
  9
$PLINEGEN
 70
     0
  9
$PSLTSCALE
 70
     0
  9
$TREEDEPTH
 70
  3020
  9
$ATTDIA
 70
     0
  9
$ATTREQ
 70
     1
  9
$BLIPMODE
 70
     1
  9
$COORDS
 70
     1
  9
$DRAGMODE
 70
     2
  9
$OSMODE
 70
     0
  9
$HANDLING
 70
     0
  9
$HANDSEED
  5
E5ED
  0
ENDSEC
  0
SECTION
  2
TABLES
  0
TABLE
  2
LTYPE
 70
     2
  0
LTYPE
  2
CONTINUOUS
 70
     0
  3
実線
 72
    65
 73
     0
 40
0.0
  0
LTYPE
  2
DASHDOT
 70
     0
  3
____ _ ____ _ ____ _ ____ _ ____ _ ____ _ ____
 72
    65
 73
     4
 40
5.5
 49
4.0
 49
-0.6
 49
0.3
 49
-0.6
  0
ENDTAB
  0
TABLE
  2
LAYER
 70
    12
  0
LAYER
  2
0
 70
     0
 62
     7
  6
CONTINUOUS
  0
LAYER
  2
BASIS
 70
     0
 62
     6
  6
DASHDOT
  0
LAYER
  2
OUTLINE
 70
     0
 62
     3
  6
CONTINUOUS
  0
LAYER
  2
DETAIL
 70
     0
 62
     5
  6
CONTINUOUS
  0
LAYER
  2
SIZE
 70
     0
 62
    30
  6
CONTINUOUS
  0
LAYER
  2
ARRANGE
 70
     0
 62
     1
  6
CONTINUOUS
  0
LAYER
  2
ETC
 70
     0
 62
    61
  6
CONTINUOUS
  0
LAYER
  2
FIX
 70
     0
 62
    11
  6
CONTINUOUS
  0
LAYER
  2
NOTE
 70
     0
 62
     4
  6
CONTINUOUS
  0
LAYER
  2
DEFPOINTS
 70
    64
 62
     7
  6
CONTINUOUS
  0
LAYER
  2
SERVICESPACE
 70
    64
 62
     2
  6
DASHDOT
  0
LAYER
  2
SYMBOLLINE
 70
    64
 62
    15
  6
CONTINUOUS
  0
ENDTAB
  0
TABLE
  2
STYLE
 70
     1
  0
STYLE
  2
STANDARD
 70
     0
 40
64.0
 41
0.9
 50
0.0
 71
     0
 42
64.0
  3
SIMPLEX.shx
  4
BIGFONT.shx
  0
ENDTAB
  0
TABLE
  2
APPID
 70
    17
  0
APPID
  2
ACAD
 70
     0
  0
APPID
  2
AUTOCAD_POSTSCRIPT_FIGURE
 70
     0
  0
APPID
  2
ACAD_EXEMPT_FROM_CAD_STANDARDS
 70
     0
  0
APPID
  2
ACAD_PSEXT
 70
     0
  0
APPID
  2
ACAUTHENVIRON
 70
     0
  0
APPID
  2
GENIUS_GENOENT_13
 70
     0
  0
APPID
  2
GENIUS_GENCFG_13
 70
     0
  0
APPID
  2
GENIUS_GENCFG0_13
 70
     0
  0
APPID
  2
GENIUS_GENCFG1_13
 70
     0
  0
APPID
  2
GENIUS_GENCFG2_13
 70
     0
  0
APPID
  2
GENIUS_GENCFG3_13
 70
     0
  0
APPID
  2
GENIUS_GENCFG4_13
 70
     0
  0
APPID
  2
GENIUS_GEVCFG0_13
 70
     0
  0
APPID
  2
CONTENTBLOCKICON
 70
     0
  0
APPID
  2
CONTENTBLOCKDESCRIPTION
 70
     0
  0
APPID
  2
ACAD_NAV_VCDISPLAY
 70
     0
  0
APPID
  2
ACAD_MLEADERVER
 70
     0
  0
ENDTAB
  0
TABLE
  2
DIMSTYLE
 70
     1
  0
DIMSTYLE
  2
STANDARD
 70
     0
  3

  4

  5
_ORIGIN
  6

  7

 40
1.0
 41
12.0
 42
20.0
 43
200.0
 44
20.0
 45
0.0
 46
0.0
 47
0.0
 48
0.0
140
64.0
141
0.09
142
0.0
143
25.399999999999999
144
1.0
145
0.0
146
1.0
147
25.0
 71
     0
 72
     0
 73
     0
 74
     0
 75
     0
 76
     0
 77
     1
 78
     8
170
     0
171
     2
172
     1
173
     0
174
     1
175
     0
176
     7
177
     7
178
     7
  0
ENDTAB
  0
TABLE
  2
VIEW
 70
     1
  0
VIEW
  2
ALL
 70
     0
 40
4282.6198079999986
 10
0.0
 20
41.309904000000003
 41
5940.0
 11
0.0
 21
0.0
 31
1.0
 12
0.0
 22
0.0
 32
0.0
 42
50.0
 43
0.0
 44
0.0
 50
0.0
 71
     0
  0
ENDTAB
  0
TABLE
  2
UCS
 70
     0
  0
ENDTAB
  0
TABLE
  2
VPORT
 70
     1
  0
VPORT
  2
*ACTIVE
 70
     0
 10
0.0
 20
0.0
 11
1.0
 21
1.0
 12
174.25004455057109
 22
200.7522683133748
 13
0.0
 23
0.0
 14
1.0
 24
1.0
 15
0.0
 25
0.0
 16
0.0
 26
0.0
 36
1.0
 17
0.0
 27
0.0
 37
0.0
 40
895.60562792074097
 41
1.747787610619469
 42
50.0
 43
0.0
 44
0.0
 50
0.0
 51
0.0
 71
     0
 72
  1000
 73
     1
 74
     3
 75
     0
 76
     0
 77
     0
 78
     0
  0
ENDTAB
  0
ENDSEC
  0
SECTION
  2
BLOCKS
  0
BLOCK
  8
0
  2
_ORIGIN
 70
     0
 10
0.0
 20
0.0
 30
0.0
  3
_ORIGIN
  1
_ORIGIN
  0
CIRCLE
  8
0
  6
CONTINUOUS
 62
     7
 10
0.0
 20
0.0
 30
0.0
 40
0.5
  0
LINE
  8
0
  6
CONTINUOUS
 62
     7
 10
0.0
 20
0.0
 30
0.0
 11
-1.0
 21
0.0
 31
0.0
  0
ENDBLK
  8
0
  0
ENDSEC
  0
SECTION
  2
ENTITIES
  0
POINT
  8
ARRANGE
  6
CONTINUOUS
 62
     1
 10
0.0
 20
0.0
 30
0.0
  0
LINE
  8
BASIS
  6
DASHDOT
 62
     6
 10
-0.0000165831906997
 20
-87.506827496081883
 30
0.0
 11
0.000003002676749
 21
189.9203353323943
 31
0.0
  0
LINE
  8
DETAIL
  6
CONTINUOUS
 62
     5
 10
-144.87616274608791
 20
90.053469147028522
 30
0.0
 11
-144.87615975020569
 21
0.0
 31
0.0
  0
LINE
  8
DETAIL
  6
CONTINUOUS
 62
     5
 10
-144.87616274608791
 20
90.053469147028522
 30
0.0
 11
144.8761567543236
 21
90.053469147028522
 31
0.0
  0
LINE
  8
DETAIL
  6
CONTINUOUS
 62
     5
 10
144.8761567543236
 20
90.053469147028522
 30
0.0
 11
144.87615975020569
 21
0.0
 31
0.0
  0
CIRCLE
  8
FIX
  6
CONTINUOUS
 62
    11
 10
-85.000000889223656
 20
0.0
 30
0.0
 40
3.018253328129286
  0
LINE
  8
BASIS
  6
DASHDOT
 62
     6
 10
-109.14602751425809
 20
0.0
 30
0.0
 11
-60.853974264189453
 21
0.0
 31
0.0
  0
LINE
  8
BASIS
  6
DASHDOT
 62
     6
 10
-85.000021015741595
 20
-20.3898346125446
 30
0.0
 11
-85.000000889223656
 21
24.146026625034299
 31
0.0
  0
CIRCLE
  8
FIX
  6
CONTINUOUS
 62
    11
 10
84.99998453144849
 20
-0.0000063714454939
 30
0.0
 40
3.018253328129286
  0
LINE
  8
BASIS
  6
DASHDOT
 62
     6
 10
60.85395790641428
 20
-0.0000063714454939
 30
0.0
 11
109.1460111564829
 21
-0.0000063714454939
 31
0.0
  0
LINE
  8
BASIS
  6
DASHDOT
 62
     6
 10
84.999964404930552
 20
-20.389840983990069
 30
0.0
 11
84.99998453144849
 21
24.146020253588802
 31
0.0
  0
LINE
  8
NOTE
  6
CONTINUOUS
 62
     4
 10
-90.22467895794648
 20
13.512749708854701
 30
0.0
 11
-216.3344345329667
 21
337.87908293273142
 31
0.0
  0
LINE
  8
NOTE
  6
CONTINUOUS
 62
     4
 10
-605.08611453029516
 20
337.87913782309442
 30
0.0
 11
-216.3344345329667
 21
337.87908293273142
 31
0.0
  0
TEXT
  8
NOTE
  6
CONTINUOUS
 62
     4
 10
-597.18263428859154
 20
363.9590463725151
 30
0.0
 40
64.0
  1
4-φ5×8
 50
359.99999191003837
 41
0.9
  0
LINE
  8
OUTLINE
  6
CONTINUOUS
 62
     3
 10
144.8761567543236
 20
90.053469147028522
 30
0.0
 11
144.87615975020569
 21
0.0
 31
0.0
  0
LINE
  8
OUTLINE
  6
CONTINUOUS
 62
     3
 10
-144.87616274608791
 20
90.053469147028522
 30
0.0
 11
-144.87615975020569
 21
0.0
 31
0.0
  0
CIRCLE
  8
DETAIL
  6
CONTINUOUS
 62
     5
 10
-99.969048788283999
 20
30.21903993756797
 30
0.0
 40
3.6162168702950601
  0
LINE
  8
SIZE
  6
CONTINUOUS
 62
    30
 10
-190.8960255767422
 20
-32.377558279464751
 30
0.0
 11
-408.90499919192939
 21
-32.377558279464672
 31
0.0
  0
LINE
  8
SIZE
  6
CONTINUOUS
 62
    30
 10
-178.0238806252539
 20
0.0
 30
0.0
 11
-408.90499919192939
 21
0.0000000000000568
 31
0.0
  0
LINE
  8
SIZE
  6
CONTINUOUS
 62
    30
 10
-388.90499919192939
 20
12.00000000000006
 30
0.0
 11
-388.90499919192939
 21
24.00000000000006
 31
0.0
  0
LINE
  8
SIZE
  6
CONTINUOUS
 62
    30
 10
-388.90499919192939
 20
-44.377558279464687
 30
0.0
 11
-388.90499919192951
 21
-209.15546861259401
 31
0.0
  0
LINE
  8
SIZE
  6
CONTINUOUS
 62
    30
 10
-388.90499919192939
 20
0.0000000000000568
 30
0.0
 11
-388.90499919192939
 21
-32.377558279464687
 31
0.0
  0
CIRCLE
  8
SIZE
  6
CONTINUOUS
 62
    30
 10
-388.90499919192939
 20
0.0000000000000568
 30
0.0
 40
6.0
  0
LINE
  8
SIZE
  6
CONTINUOUS
 62
    30
 10
-388.90499919192939
 20
0.0000000000000568
 30
0.0
 11
-388.90499919192939
 21
12.00000000000006
 31
0.0
  0
CIRCLE
  8
SIZE
  6
CONTINUOUS
 62
    30
 10
-388.90499919192939
 20
-32.377558279464687
 30
0.0
 40
6.0
  0
LINE
  8
SIZE
  6
CONTINUOUS
 62
    30
 10
-388.90499919192939
 20
-32.377558279464687
 30
0.0
 11
-388.90499919192939
 21
-44.377558279464687
 31
0.0
  0
TEXT
  8
SIZE
  6
CONTINUOUS
 62
    30
 10
-413.90499919192939
 20
-184.15546861259401
 30
0.0
 40
64.0
  1
32
 50
90.0
 41
0.9
 72
     1
 11
-413.90499919192939
 21
-137.5268971840226
 31
0.0
  0
ARC
  8
DETAIL
  6
CONTINUOUS
 62
     5
 10
28.418813337138999
 20
-32.434971974583959
 30
0.0
 40
3.6147965232887191
 50
270.00000009859252
 51
285.70863792908881
  0
ARC
  8
DETAIL
  6
CONTINUOUS
 62
     5
 10
-28.420616484954959
 20
-32.434971974583959
 30
0.0
 40
3.614796523288573
 50
254.29136207091119
 51
269.99999990139452
  0
LINE
  8
DETAIL
  6
CONTINUOUS
 62
     5
 10
28.418800062521541
 20
-36.049768497872719
 30
0.0
 11
-28.42051259136565
 21
-36.049768497872719
 31
0.0
  0
ARC
  8
DETAIL
  6
CONTINUOUS
 62
     5
 10
-170.8960255767424
 20
-31.172626105035189
 30
0.0
 40
1.2049321744295489
 50
181.0000004669935
 51
270.0
  0
LINE
  8
DETAIL
  6
CONTINUOUS
 62
     5
 10
-172.1007744132705
 20
-31.193677048146981
 30
0.0
 11
-172.82726971366881
 21
-0.6129932257342716
 31
0.0
  0
LINE
  8
DETAIL
  6
CONTINUOUS
 62
     5
 10
-172.22489476161951
 20
0.0
 30
0.0
 11
0.0
 21
0.0
 31
0.0
  0
LINE
  8
DETAIL
  6
CONTINUOUS
 62
     5
 10
0.0000006011143796
 20
-32.377558279464608
 30
0.0
 11
-170.8960255767424
 21
-32.377558279464608
 31
0.0
  0
LINE
  8
DETAIL
  6
CONTINUOUS
 62
     5
 10
37.351995904389007
 20
-32.377558279464608
 30
0.0
 11
29.39750351335806
 21
-35.914759244431792
 31
0.0
  0
LINE
  8
DETAIL
  6
CONTINUOUS
 62
     5
 10
-37.35379891024445
 20
-32.377558279464608
 30
0.0
 11
-29.39930666117402
 21
-35.914759244431792
 31
0.0
  0
ARC
  8
DETAIL
  6
CONTINUOUS
 62
     5
 10
172.22488661772351
 20
-0.6024660872148502
 30
0.0
 40
0.602466087215037
 50
359.00001304941782
 51
89.999225499398321
  0
ARC
  8
DETAIL
  6
CONTINUOUS
 62
     5
 10
170.89602677897099
 20
-31.172626105035189
 30
0.0
 40
1.2049321744295489
 50
270.0
 51
358.99999953300659
  0
LINE
  8
DETAIL
  6
CONTINUOUS
 62
     5
 10
172.10077561549929
 20
-31.193677048146981
 30
0.0
 11
172.82726971366881
 21
-0.6129932257342716
 31
0.0
  0
LINE
  8
DETAIL
  6
CONTINUOUS
 62
     5
 10
172.22489476161951
 20
0.0
 30
0.0
 11
0.0
 21
0.0
 31
0.0
  0
LINE
  8
DETAIL
  6
CONTINUOUS
 62
     5
 10
0.0000006011143796
 20
-32.377558279464608
 30
0.0
 11
170.89602677897099
 21
-32.377558279464608
 31
0.0
  0
LINE
  8
SIZE
  6
CONTINUOUS
 62
    30
 10
191.56816656039311
 20
0.0
 30
0.0
 11
331.17236097559748
 21
-0.0000000000000568
 31
0.0
  0
LINE
  8
SIZE
  6
CONTINUOUS
 62
    30
 10
48.418800062521541
 20
-36.049768497872748
 30
0.0
 11
331.17236097559748
 21
-36.049768497872833
 31
0.0
  0
LINE
  8
SIZE
  6
CONTINUOUS
 62
    30
 10
311.17236097559748
 20
11.99999999999997
 30
0.0
 11
311.17236097559748
 21
23.999999999999972
 31
0.0
  0
LINE
  8
SIZE
  6
CONTINUOUS
 62
    30
 10
311.17236097559748
 20
-48.049768497872833
 30
0.0
 11
311.17236097559748
 21
-225.37124477423129
 31
0.0
  0
LINE
  8
SIZE
  6
CONTINUOUS
 62
    30
 10
311.17236097559748
 20
-0.0000000000000284
 30
0.0
 11
311.17236097559748
 21
-36.049768497872797
 31
0.0
  0
CIRCLE
  8
SIZE
  6
CONTINUOUS
 62
    30
 10
311.17236097559748
 20
-0.0000000000000284
 30
0.0
 40
6.0
  0
LINE
  8
SIZE
  6
CONTINUOUS
 62
    30
 10
311.17236097559748
 20
-0.0000000000000284
 30
0.0
 11
311.17236097559748
 21
11.99999999999997
 31
0.0
  0
CIRCLE
  8
SIZE
  6
CONTINUOUS
 62
    30
 10
311.17236097559748
 20
-36.049768497872797
 30
0.0
 40
6.0
  0
LINE
  8
SIZE
  6
CONTINUOUS
 62
    30
 10
311.17236097559748
 20
-36.049768497872797
 30
0.0
 11
311.17236097559748
 21
-48.049768497872833
 31
0.0
  0
TEXT
  8
SIZE
  6
CONTINUOUS
 62
    30
 10
286.17236097559748
 20
-200.37124477423129
 30
0.0
 40
64.0
  1
36
 50
90.0
 41
0.9
 72
     1
 11
286.17236097559748
 21
-155.11410191708839
 31
0.0
  0
LINE
  8
SIZE
  6
CONTINUOUS
 62
    30
 10
119.969032244378
 20
30.219025822292789
 30
0.0
 11
331.17236097559748
 21
30.219025822292739
 31
0.0
  0
LINE
  8
SIZE
  6
CONTINUOUS
 62
    30
 10
192.22488296039299
 20
0.0
 30
0.0
 11
331.17236097559748
 21
-0.0000000000000568
 31
0.0
  0
LINE
  8
SIZE
  6
CONTINUOUS
 62
    30
 10
311.17236097559748
 20
-12.00000000000003
 30
0.0
 11
311.17236097559748
 21
-24.000000000000028
 31
0.0
  0
LINE
  8
SIZE
  6
CONTINUOUS
 62
    30
 10
311.17236097559748
 20
42.219025822292743
 30
0.0
 11
311.17236097559748
 21
231.7877289325738
 31
0.0
  0
LINE
  8
SIZE
  6
CONTINUOUS
 62
    30
 10
311.17236097559748
 20
-0.0000000000000284
 30
0.0
 11
311.17236097559748
 21
30.21902582229276
 31
0.0
  0
CIRCLE
  8
SIZE
  6
CONTINUOUS
 62
    30
 10
311.17236097559748
 20
-0.0000000000000284
 30
0.0
 40
6.0
  0
LINE
  8
SIZE
  6
CONTINUOUS
 62
    30
 10
311.17236097559748
 20
-0.0000000000000284
 30
0.0
 11
311.17236097559748
 21
-12.00000000000003
 31
0.0
  0
CIRCLE
  8
SIZE
  6
CONTINUOUS
 62
    30
 10
311.17236097559748
 20
30.21902582229276
 30
0.0
 40
6.0
  0
LINE
  8
SIZE
  6
CONTINUOUS
 62
    30
 10
311.17236097559748
 20
30.21902582229276
 30
0.0
 11
311.17236097559748
 21
42.219025822292743
 31
0.0
  0
TEXT
  8
SIZE
  6
CONTINUOUS
 62
    30
 10
286.17236097559748
 20
113.530586075431
 30
0.0
 40
64.0
  1
30
 50
90.0
 41
0.9
 72
     1
 11
286.17236097559748
 21
160.15915750400239
 31
0.0
  0
LINE
  8
SIZE
  6
CONTINUOUS
 62
    30
 10
-164.87616274608791
 20
90.053469147028522
 30
0.0
 11
-408.90499919192939
 21
90.053469147028579
 31
0.0
  0
LINE
  8
SIZE
  6
CONTINUOUS
 62
    30
 10
-212.8816111616195
 20
0.0
 30
0.0
 11
-408.90499919192939
 21
0.0000000000000568
 31
0.0
  0
LINE
  8
SIZE
  6
CONTINUOUS
 62
    30
 10
-388.90499919192939
 20
102.05346914702859
 30
0.0
 11
-388.90499919192939
 21
114.05346914702859
 31
0.0
  0
LINE
  8
SIZE
  6
CONTINUOUS
 62
    30
 10
-388.90499919192939
 20
-11.99999999999994
 30
0.0
 11
-388.90499919192939
 21
-23.99999999999994
 31
0.0
  0
LINE
  8
SIZE
  6
CONTINUOUS
 62
    30
 10
-388.90499919192939
 20
90.053469147028579
 30
0.0
 11
-388.90499919192939
 21
0.0000000000000568
 31
0.0
  0
CIRCLE
  8
SIZE
  6
CONTINUOUS
 62
    30
 10
-388.90499919192939
 20
90.053469147028579
 30
0.0
 40
6.0
  0
LINE
  8
SIZE
  6
CONTINUOUS
 62
    30
 10
-388.90499919192939
 20
90.053469147028579
 30
0.0
 11
-388.90499919192939
 21
102.05346914702859
 31
0.0
  0
CIRCLE
  8
SIZE
  6
CONTINUOUS
 62
    30
 10
-388.90499919192939
 20
0.0000000000000568
 30
0.0
 40
6.0
  0
LINE
  8
SIZE
  6
CONTINUOUS
 62
    30
 10
-388.90499919192939
 20
0.0000000000000568
 30
0.0
 11
-388.90499919192939
 21
-11.99999999999994
 31
0.0
  0
TEXT
  8
SIZE
  6
CONTINUOUS
 62
    30
 10
-413.90499919192939
 20
-1.6018368550571651
 30
0.0
 40
64.0
  1
90
 50
90.0
 41
0.9
 72
     1
 11
-413.90499919192939
 21
45.026734573514261
 31
0.0
  0
ARC
  8
OUTLINE
  6
CONTINUOUS
 62
     3
 10
-172.22489841895
 20
-0.6024660872148502
 30
0.0
 40
0.602466087215037
 50
90.000774500601679
 51
180.99998695058221
  0
ARC
  8
OUTLINE
  6
CONTINUOUS
 62
     3
 10
-170.8960373779689
 20
-31.172626105035189
 30
0.0
 40
1.2049321744295489
 50
181.0000004669935
 51
270.0
  0
LINE
  8
OUTLINE
  6
CONTINUOUS
 62
     3
 10
-172.10078621449719
 20
-31.193677048146981
 30
0.0
 11
-172.8272815148955
 21
-0.6129932257342716
 31
0.0
  0
LINE
  8
OUTLINE
  6
CONTINUOUS
 62
     3
 10
-172.22490656284589
 20
0.0
 30
0.0
 11
-144.87615975020569
 21
0.0
 31
0.0
  0
LINE
  8
OUTLINE
  6
CONTINUOUS
 62
     3
 10
-37.35379891024445
 20
-32.377558279464608
 30
0.0
 11
-170.8960373779689
 21
-32.377558279464608
 31
0.0
  0
ARC
  8
OUTLINE
  6
CONTINUOUS
 62
     3
 10
172.22487481649699
 20
-0.6024660872148502
 30
0.0
 40
0.602466087215037
 50
359.00001304941782
 51
89.999225499398321
  0
ARC
  8
OUTLINE
  6
CONTINUOUS
 62
     3
 10
170.8960149777445
 20
-31.172626105035189
 30
0.0
 40
1.2049321744295489
 50
270.0
 51
358.99999953300659
  0
LINE
  8
OUTLINE
  6
CONTINUOUS
 62
     3
 10
172.1007638142728
 20
-31.193677048146981
 30
0.0
 11
172.82725791244229
 21
-0.6129932257342716
 31
0.0
  0
LINE
  8
OUTLINE
  6
CONTINUOUS
 62
     3
 10
172.22488296039299
 20
0.0
 30
0.0
 11
144.87615975020569
 21
0.0
 31
0.0
  0
LINE
  8
OUTLINE
  6
CONTINUOUS
 62
     3
 10
37.351995904389007
 20
-32.377558279464608
 30
0.0
 11
170.8960149777445
 21
-32.377558279464608
 31
0.0
  0
LINE
  8
NOTE
  6
CONTINUOUS
 62
     4
 10
-147.18980707543349
 20
0.0
 30
0.0
 11
-197.25998244780541
 21
0.0
 31
0.0
  0
TEXT
  8
NOTE
  6
CONTINUOUS
 62
     4
 10
-331.34306814896547
 20
200.21550979241039
 30
0.0
 40
64.0
  1
EL
 41
0.9
 72
     2
 11
-246.31449672039409
 21
200.21550979241039
 31
0.0
  0
LINE
  8
NOTE
  6
CONTINUOUS
 62
     4
 10
-171.94901529591951
 20
7.4942672514713138
 30
0.0
 11
-172.22489476161951
 21
0.0
 31
0.0
  0
LINE
  8
NOTE
  6
CONTINUOUS
 62
     4
 10
-172.22489476161951
 20
0.0
 30
0.0
 11
-175.73311974994499
 21
6.6281602686838426
 31
0.0
  0
LINE
  8
NOTE
  6
CONTINUOUS
 62
     4
 10
-172.22489476161951
 20
0.0
 30
0.0
 11
-175.45724028424479
 21
14.12242752015516
 31
0.0
  0
LINE
  8
NOTE
  6
CONTINUOUS
 62
     4
 10
-175.45724028424479
 20
14.12242752015516
 30
0.0
 11
-215.90611223153019
 21
178.56614256256751
 31
0.0
  0
LINE
  8
NOTE
  6
CONTINUOUS
 62
     4
 10
-215.90611223153019
 20
178.56614256256751
 30
0.0
 11
-363.2313689679894
 21
178.56614256256751
 31
0.0
  0
LINE
  8
SIZE
  6
CONTINUOUS
 62
    30
 10
-172.82726971366881
 20
19.387006774265728
 30
0.0
 11
-172.82726971366881
 21
525.79704654687885
 31
0.0
  0
LINE
  8
SIZE
  6
CONTINUOUS
 62
    30
 10
172.82726971366881
 20
19.387006774265728
 30
0.0
 11
172.82726971366881
 21
525.79704654687885
 31
0.0
  0
LINE
  8
SIZE
  6
CONTINUOUS
 62
    30
 10
-160.82726971366881
 20
505.79704654687879
 30
0.0
 11
160.82726971366881
 21
505.79704654687879
 31
0.0
  0
CIRCLE
  8
SIZE
  6
CONTINUOUS
 62
    30
 10
-172.82726971366881
 20
505.79704654687879
 30
0.0
 40
6.0
  0
LINE
  8
SIZE
  6
CONTINUOUS
 62
    30
 10
-172.82726971366881
 20
505.79704654687879
 30
0.0
 11
-160.82726971366881
 21
505.79704654687879
 31
0.0
  0
CIRCLE
  8
SIZE
  6
CONTINUOUS
 62
    30
 10
172.82726971366881
 20
505.79704654687879
 30
0.0
 40
6.0
  0
LINE
  8
SIZE
  6
CONTINUOUS
 62
    30
 10
172.82726971366881
 20
505.79704654687879
 30
0.0
 11
160.82726971366881
 21
505.79704654687879
 31
0.0
  0
TEXT
  8
SIZE
  6
CONTINUOUS
 62
    30
 10
-67.139912584332464
 20
530.79704654687885
 30
0.0
 40
64.0
  1
346
 41
0.9
 72
     1
 11
5.5458017013818326
 21
530.79704654687885
 31
0.0
  0
LINE
  8
SIZE
  6
CONTINUOUS
 62
    30
 10
-85.000000889223656
 20
44.146026625034317
 30
0.0
 11
-85.000000889223656
 21
269.27434327562088
 31
0.0
  0
LINE
  8
SIZE
  6
CONTINUOUS
 62
    30
 10
84.99998453144849
 20
44.146020253588802
 30
0.0
 11
84.99998453144849
 21
269.27434327562088
 31
0.0
  0
LINE
  8
SIZE
  6
CONTINUOUS
 62
    30
 10
-97.000000889223656
 20
249.27434327562091
 30
0.0
 11
-109.0000008892237
 21
249.27434327562091
 31
0.0
  0
LINE
  8
SIZE
  6
CONTINUOUS
 62
    30
 10
96.99998453144849
 20
249.27434327562091
 30
0.0
 11
108.9999845314485
 21
249.27434327562091
 31
0.0
  0
LINE
  8
SIZE
  6
CONTINUOUS
 62
    30
 10
-85.000000889223656
 20
249.27434327562091
 30
0.0
 11
84.99998453144849
 21
249.27434327562091
 31
0.0
  0
CIRCLE
  8
SIZE
  6
CONTINUOUS
 62
    30
 10
-85.000000889223656
 20
249.27434327562091
 30
0.0
 40
6.0
  0
LINE
  8
SIZE
  6
CONTINUOUS
 62
    30
 10
-85.000000889223656
 20
249.27434327562091
 30
0.0
 11
-97.000000889223656
 21
249.27434327562091
 31
0.0
  0
CIRCLE
  8
SIZE
  6
CONTINUOUS
 62
    30
 10
84.99998453144849
 20
249.27434327562091
 30
0.0
 40
6.0
  0
LINE
  8
SIZE
  6
CONTINUOUS
 62
    30
 10
84.99998453144849
 20
249.27434327562091
 30
0.0
 11
96.99998453144849
 21
249.27434327562091
 31
0.0
  0
TEXT
  8
SIZE
  6
CONTINUOUS
 62
    30
 10
-68.571436750316153
 20
274.27434327562088
 30
0.0
 40
64.0
  1
170
 41
0.9
 72
     1
 11
-0.0000081788875832
 21
274.27434327562088
 31
0.0
  0
LINE
  8
SIZE
  6
CONTINUOUS
 62
    30
 10
-144.87616501007821
 20
178.10693829405699
 30
0.0
 11
-144.87616501007821
 21
391.55787786603793
 31
0.0
  0
LINE
  8
SIZE
  6
CONTINUOUS
 62
    30
 10
144.87615449033339
 20
178.10693829405699
 30
0.0
 11
144.87615449033339
 21
391.55787786603793
 31
0.0
  0
LINE
  8
SIZE
  6
CONTINUOUS
 62
    30
 10
-132.87616501007821
 20
371.55787786603793
 30
0.0
 11
132.87615449033339
 21
371.55787786603793
 31
0.0
  0
CIRCLE
  8
SIZE
  6
CONTINUOUS
 62
    30
 10
-144.87616501007821
 20
371.55787786603793
 30
0.0
 40
6.0
  0
LINE
  8
SIZE
  6
CONTINUOUS
 62
    30
 10
-144.87616501007821
 20
371.55787786603793
 30
0.0
 11
-132.87616501007821
 21
371.55787786603793
 31
0.0
  0
CIRCLE
  8
SIZE
  6
CONTINUOUS
 62
    30
 10
144.87615449033339
 20
371.55787786603793
 30
0.0
 40
6.0
  0
LINE
  8
SIZE
  6
CONTINUOUS
 62
    30
 10
144.87615449033339
 20
371.55787786603793
 30
0.0
 11
132.87615449033339
 21
371.55787786603793
 31
0.0
  0
TEXT
  8
SIZE
  6
CONTINUOUS
 62
    30
 10
-110.53714811701521
 20
396.55787786603793
 30
0.0
 40
64.0
  1
□290
 41
0.9
 72
     1
 11
-0.0000052598722959
 21
396.55787786603793
 31
0.0
  0
LINE
  8
NOTE
  6
CONTINUOUS
 62
     4
 10
-85.801952085282437
 20
7.4563780123778827
 30
0.0
 11
-84.999955344072077
 21
0.0000416235634475
 31
0.0
  0
LINE
  8
NOTE
  6
CONTINUOUS
 62
     4
 10
-84.999955344072077
 20
0.0000416235634475
 30
0.0
 11
-89.422682216736348
 21
6.0564133200402637
 31
0.0
  0
LINE
  8
NOTE
  6
CONTINUOUS
 62
     4
 10
-84.999955344072077
 20
0.0000416235634475
 30
0.0
 11
-90.22467895794648
 21
13.512749708854701
 31
0.0
  0
CIRCLE
  8
DETAIL
  6
CONTINUOUS
 62
     5
 10
99.969032244378013
 20
30.219025822292821
 30
0.0
 40
3.6162168702950601
  0
LINE
  8
DETAIL
  6
CONTINUOUS
 62
     5
 10
-144.87616501007821
 20
158.10693829405699
 30
0.0
 11
-144.87616274608791
 21
90.053469147028522
 31
0.0
  0
LINE
  8
DETAIL
  6
CONTINUOUS
 62
     5
 10
-144.87616501007821
 20
158.10693829405699
 30
0.0
 11
144.87615449033339
 21
158.10693829405699
 31
0.0
  0
LINE
  8
DETAIL
  6
CONTINUOUS
 62
     5
 10
144.87615449033339
 20
158.10693829405699
 30
0.0
 11
144.8761567543236
 21
90.053469147028522
 31
0.0
  0
LINE
  8
OUTLINE
  6
CONTINUOUS
 62
     3
 10
-144.87616274608791
 20
90.053469147028522
 30
0.0
 11
144.8761567543236
 21
90.053469147028522
 31
0.0
  0
LINE
  8
SIZE
  6
CONTINUOUS
 62
    30
 10
-164.87616501007821
 20
158.10693829405699
 30
0.0
 11
-408.90499919192939
 21
158.1069382940571
 31
0.0
  0
LINE
  8
SIZE
  6
CONTINUOUS
 62
    30
 10
-164.87616274608791
 20
90.053469147028522
 30
0.0
 11
-408.90499919192939
 21
90.053469147028579
 31
0.0
  0
LINE
  8
SIZE
  6
CONTINUOUS
 62
    30
 10
-388.90499919192939
 20
78.053469147028579
 30
0.0
 11
-388.90499919192939
 21
66.053469147028579
 31
0.0
  0
LINE
  8
SIZE
  6
CONTINUOUS
 62
    30
 10
-388.90499919192939
 20
170.1069382940571
 30
0.0
 11
-388.90499919192939
 21
325.36408115120003
 31
0.0
  0
LINE
  8
SIZE
  6
CONTINUOUS
 62
    30
 10
-388.90499919192939
 20
90.053469147028579
 30
0.0
 11
-388.90499919192939
 21
158.1069382940571
 31
0.0
  0
CIRCLE
  8
SIZE
  6
CONTINUOUS
 62
    30
 10
-388.90499919192939
 20
90.053469147028579
 30
0.0
 40
6.0
  0
LINE
  8
SIZE
  6
CONTINUOUS
 62
    30
 10
-388.90499919192939
 20
90.053469147028579
 30
0.0
 11
-388.90499919192939
 21
78.053469147028579
 31
0.0
  0
CIRCLE
  8
SIZE
  6
CONTINUOUS
 62
    30
 10
-388.90499919192939
 20
158.1069382940571
 30
0.0
 40
6.0
  0
LINE
  8
SIZE
  6
CONTINUOUS
 62
    30
 10
-388.90499919192939
 20
158.1069382940571
 30
0.0
 11
-388.90499919192939
 21
170.1069382940571
 31
0.0
  0
TEXT
  8
SIZE
  6
CONTINUOUS
 62
    30
 10
-413.90499919192939
 20
207.10693829405699
 30
0.0
 40
64.0
  1
68
 50
90.0
 41
0.9
 72
     1
 11
-413.90499919192939
 21
253.73550972262851
 31
0.0
  0
CIRCLE
  8
ARRANGE
  6
CONTINUOUS
 62
     1
 10
0.0
 20
0.0
 30
0.0
 40
40.0
  0
ARC
  8
OUTLINE
  6
CONTINUOUS
 62
     3
 10
28.418813337138999
 20
-32.434971974583959
 30
0.0
 40
3.6147965232887191
 50
270.00000009859252
 51
285.70863792908881
  0
ARC
  8
OUTLINE
  6
CONTINUOUS
 62
     3
 10
-28.420616484954959
 20
-32.434971974583959
 30
0.0
 40
3.614796523288573
 50
254.29136207091119
 51
269.99999990139452
  0
LINE
  8
OUTLINE
  6
CONTINUOUS
 62
     3
 10
28.418800062521541
 20
-36.049768497872719
 30
0.0
 11
-28.42051259136565
 21
-36.049768497872719
 31
0.0
  0
LINE
  8
OUTLINE
  6
CONTINUOUS
 62
     3
 10
37.351995904389007
 20
-32.377558279464608
 30
0.0
 11
29.39750351335806
 21
-35.914759244431792
 31
0.0
  0
LINE
  8
OUTLINE
  6
CONTINUOUS
 62
     3
 10
-37.35379891024445
 20
-32.377558279464608
 30
0.0
 11
-29.39930666117402
 21
-35.914759244431792
 31
0.0
  0
TEXT
  8
ETC
  6
CONTINUOUS
 62
    61
 10
418.93039071574663
 20
562.91908455167527
 30
0.0
 40
64.0
  1
EX-25EH8_1
 41
0.9
  0
TEXT
  8
ETC
  6
CONTINUOUS
 62
    61
 10
414.74439671574618
 20
444.96377453684408
 30
0.0
 40
64.0
  1
換気扇
 41
0.9
  0
TEXT
  8
ETC
  6
CONTINUOUS
 62
    61
 10
465.44579496430219
 20
336.8150016506188
 30
0.0
 40
40.0
  1
EX-25EH8
 50
0.0
 41
0.9
 51
0.0
  7
STANDARD
 71
     0
 11
0.0
 21
0.0
 31
0.0
210
0.0
220
0.0
230
1.0
  0
TEXT
  8
ETC
  6
CONTINUOUS
 62
    61
 10
465.44579496430219
 20
270.8150016506188
 30
0.0
 40
40.0
  1
EX-25LH8
 50
0.0
 41
0.9
 51
0.0
  7
STANDARD
 71
     0
 11
0.0
 21
0.0
 31
0.0
210
0.0
220
0.0
230
1.0
  0
TEXT
  8
ETC
  6
CONTINUOUS
 62
    61
 10
465.44579496430219
 20
204.8150016506188
 30
0.0
 40
40.0
  1
EX-25FH8
 50
0.0
 41
0.9
 51
0.0
  7
STANDARD
 71
     0
 11
0.0
 21
0.0
 31
0.0
210
0.0
220
0.0
230
1.0
  0
TEXT
  8
ETC
  6
CONTINUOUS
 62
    61
 10
465.44579496430219
 20
138.8150016506188
 30
0.0
 40
40.0
  1
EX-25RH8
 50
0.0
 41
0.9
 51
0.0
  7
STANDARD
 71
     0
 11
0.0
 21
0.0
 31
0.0
210
0.0
220
0.0
230
1.0
  0
ENDSEC
  0
EOF
