  0
SECTION
  2
HEADER
  9
$ACADVER
  1
AC1009
  9
$DWGCODEPAGE
  3
dos932
  9
$INSBASE
 10
0.0
 20
0.0
 30
0.0
  9
$EXTMIN
 10
-478.85389946215128
 20
-318.88907374741348
 30
0.0
  9
$EXTMAX
 10
1027.612397387536
 20
417.35945432916952
 30
0.0
  9
$LIMMIN
 10
-2970.0
 20
-2100.0
  9
$LIMMAX
 10
2970.0
 20
2100.0
  9
$ORTHOMODE
 70
     1
  9
$REGENMODE
 70
     1
  9
$FILLMODE
 70
     1
  9
$QTEXTMODE
 70
     0
  9
$MIRRTEXT
 70
     0
  9
$LTSCALE
 40
20.0
  9
$ATTMODE
 70
     1
  9
$TEXTSIZE
 40
64.0
  9
$TRACEWID
 40
0.05
  9
$TEXTSTYLE
  7
STANDARD
  9
$CLAYER
  8
NOTE
  9
$CELTYPE
  6
CONTINUOUS
  9
$CECOLOR
 62
     7
  9
$DIMSCALE
 40
1.0
  9
$DIMASZ
 40
12.0
  9
$DIMEXO
 40
20.0
  9
$DIMDLI
 40
200.0
  9
$DIMRND
 40
0.0
  9
$DIMDLE
 40
0.0
  9
$DIMEXE
 40
20.0
  9
$DIMTP
 40
0.0
  9
$DIMTM
 40
0.0
  9
$DIMTXT
 40
64.0
  9
$DIMCEN
 40
0.09
  9
$DIMTSZ
 40
0.0
  9
$DIMTOL
 70
     0
  9
$DIMLIM
 70
     0
  9
$DIMTIH
 70
     0
  9
$DIMTOH
 70
     0
  9
$DIMSE1
 70
     0
  9
$DIMSE2
 70
     0
  9
$DIMTAD
 70
     1
  9
$DIMZIN
 70
     8
  9
$DIMBLK
  1

  9
$DIMASO
 70
     1
  9
$DIMSHO
 70
     0
  9
$DIMPOST
  1

  9
$DIMAPOST
  1

  9
$DIMALT
 70
     0
  9
$DIMALTD
 70
     2
  9
$DIMALTF
 40
25.399999999999999
  9
$DIMLFAC
 40
1.0
  9
$DIMTOFL
 70
     1
  9
$DIMTVP
 40
0.0
  9
$DIMTIX
 70
     1
  9
$DIMSOXD
 70
     0
  9
$DIMSAH
 70
     0
  9
$DIMBLK1
  1

  9
$DIMBLK2
  1

  9
$DIMSTYLE
  2
STANDARD
  9
$DIMCLRD
 70
     7
  9
$DIMCLRE
 70
     7
  9
$DIMCLRT
 70
     7
  9
$DIMTFAC
 40
1.0
  9
$DIMGAP
 40
25.0
  9
$LUNITS
 70
     2
  9
$LUPREC
 70
     4
  9
$SKETCHINC
 40
0.1
  9
$FILLETRAD
 40
3.0
  9
$AUNITS
 70
     1
  9
$AUPREC
 70
     3
  9
$MENU
  1
ACAD
  9
$ELEVATION
 40
0.0
  9
$PELEVATION
 40
0.0
  9
$THICKNESS
 40
50.0
  9
$LIMCHECK
 70
     0
  9
$CHAMFERA
 40
0.0
  9
$CHAMFERB
 40
0.0
  9
$SKPOLY
 70
     0
  9
$TDCREATE
 40
2453019.62301037
  9
$TDUPDATE
 40
2459017.510958496
  9
$TDINDWG
 40
1.7109090856
  9
$TDUSRTIMER
 40
1.7109090856
  9
$USRTIMER
 70
     1
  9
$ANGBASE
 50
0.0
  9
$ANGDIR
 70
     0
  9
$PDMODE
 70
     3
  9
$PDSIZE
 40
-2.0
  9
$PLINEWID
 40
0.0
  9
$SPLFRAME
 70
     0
  9
$SPLINETYPE
 70
     6
  9
$SPLINESEGS
 70
     8
  9
$SURFTAB1
 70
     6
  9
$SURFTAB2
 70
     6
  9
$SURFTYPE
 70
     6
  9
$SURFU
 70
     6
  9
$SURFV
 70
     6
  9
$UCSNAME
  2

  9
$UCSORG
 10
0.0
 20
0.0
 30
0.0
  9
$UCSXDIR
 10
1.0
 20
0.0
 30
0.0
  9
$UCSYDIR
 10
0.0
 20
1.0
 30
0.0
  9
$PUCSNAME
  2

  9
$PUCSORG
 10
0.0
 20
0.0
 30
0.0
  9
$PUCSXDIR
 10
1.0
 20
0.0
 30
0.0
  9
$PUCSYDIR
 10
0.0
 20
1.0
 30
0.0
  9
$USERI1
 70
     0
  9
$USERI2
 70
     0
  9
$USERI3
 70
     0
  9
$USERI4
 70
     0
  9
$USERI5
 70
     0
  9
$USERR1
 40
20.0
  9
$USERR2
 40
0.0
  9
$USERR3
 40
0.0
  9
$USERR4
 40
0.0
  9
$USERR5
 40
0.0
  9
$WORLDVIEW
 70
     1
  9
$SHADEDGE
 70
     3
  9
$SHADEDIF
 70
    70
  9
$TILEMODE
 70
     1
  9
$MAXACTVP
 70
    48
  9
$PINSBASE
 10
0.0
 20
0.0
 30
0.0
  9
$PLIMCHECK
 70
     0
  9
$PEXTMIN
 10
-100000000000000000000.0
 20
-100000000000000000000.0
 30
-100000000000000000000.0
  9
$PEXTMAX
 10
100000000000000000000.0
 20
100000000000000000000.0
 30
100000000000000000000.0
  9
$PLIMMIN
 10
0.0
 20
0.0
  9
$PLIMMAX
 10
12.0
 20
9.0
  9
$UNITMODE
 70
     0
  9
$VISRETAIN
 70
     0
  9
$PLINEGEN
 70
     0
  9
$PSLTSCALE
 70
     0
  9
$TREEDEPTH
 70
  3020
  9
$ATTDIA
 70
     0
  9
$ATTREQ
 70
     1
  9
$BLIPMODE
 70
     1
  9
$COORDS
 70
     1
  9
$DRAGMODE
 70
     2
  9
$OSMODE
 70
     0
  9
$HANDLING
 70
     0
  9
$HANDSEED
  5
E829
  0
ENDSEC
  0
SECTION
  2
TABLES
  0
TABLE
  2
LTYPE
 70
     2
  0
LTYPE
  2
CONTINUOUS
 70
     0
  3
実線
 72
    65
 73
     0
 40
0.0
  0
LTYPE
  2
DASHDOT
 70
     0
  3
____ _ ____ _ ____ _ ____ _ ____ _ ____ _ ____
 72
    65
 73
     4
 40
5.5
 49
4.0
 49
-0.6
 49
0.3
 49
-0.6
  0
ENDTAB
  0
TABLE
  2
LAYER
 70
    12
  0
LAYER
  2
0
 70
     0
 62
     7
  6
CONTINUOUS
  0
LAYER
  2
BASIS
 70
     0
 62
     6
  6
DASHDOT
  0
LAYER
  2
OUTLINE
 70
     0
 62
     3
  6
CONTINUOUS
  0
LAYER
  2
DETAIL
 70
     0
 62
     5
  6
CONTINUOUS
  0
LAYER
  2
SIZE
 70
     0
 62
    30
  6
CONTINUOUS
  0
LAYER
  2
ARRANGE
 70
     0
 62
     1
  6
CONTINUOUS
  0
LAYER
  2
ETC
 70
     0
 62
    61
  6
CONTINUOUS
  0
LAYER
  2
NOTE
 70
     0
 62
     4
  6
CONTINUOUS
  0
LAYER
  2
DEFPOINTS
 70
    64
 62
     7
  6
CONTINUOUS
  0
LAYER
  2
FIX
 70
    64
 62
    11
  6
CONTINUOUS
  0
LAYER
  2
SERVICESPACE
 70
    64
 62
     2
  6
DASHDOT
  0
LAYER
  2
SYMBOLLINE
 70
    64
 62
    15
  6
CONTINUOUS
  0
ENDTAB
  0
TABLE
  2
STYLE
 70
     1
  0
STYLE
  2
STANDARD
 70
     0
 40
64.0
 41
0.9
 50
0.0
 71
     0
 42
64.0
  3
SIMPLEX.shx
  4
BIGFONT.shx
  0
ENDTAB
  0
TABLE
  2
APPID
 70
    17
  0
APPID
  2
ACAD
 70
     0
  0
APPID
  2
AUTOCAD_POSTSCRIPT_FIGURE
 70
     0
  0
APPID
  2
ACAD_EXEMPT_FROM_CAD_STANDARDS
 70
     0
  0
APPID
  2
ACAD_PSEXT
 70
     0
  0
APPID
  2
ACAUTHENVIRON
 70
     0
  0
APPID
  2
GENIUS_GENOENT_13
 70
     0
  0
APPID
  2
GENIUS_GENCFG_13
 70
     0
  0
APPID
  2
GENIUS_GENCFG0_13
 70
     0
  0
APPID
  2
GENIUS_GENCFG1_13
 70
     0
  0
APPID
  2
GENIUS_GENCFG2_13
 70
     0
  0
APPID
  2
GENIUS_GENCFG3_13
 70
     0
  0
APPID
  2
GENIUS_GENCFG4_13
 70
     0
  0
APPID
  2
GENIUS_GEVCFG0_13
 70
     0
  0
APPID
  2
CONTENTBLOCKICON
 70
     0
  0
APPID
  2
CONTENTBLOCKDESCRIPTION
 70
     0
  0
APPID
  2
ACAD_NAV_VCDISPLAY
 70
     0
  0
APPID
  2
ACAD_MLEADERVER
 70
     0
  0
ENDTAB
  0
TABLE
  2
DIMSTYLE
 70
     1
  0
DIMSTYLE
  2
STANDARD
 70
     0
  3

  4

  5
_ORIGIN
  6

  7

 40
1.0
 41
12.0
 42
20.0
 43
200.0
 44
20.0
 45
0.0
 46
0.0
 47
0.0
 48
0.0
140
64.0
141
0.09
142
0.0
143
25.399999999999999
144
1.0
145
0.0
146
1.0
147
25.0
 71
     0
 72
     0
 73
     0
 74
     0
 75
     0
 76
     0
 77
     1
 78
     8
170
     0
171
     2
172
     1
173
     0
174
     1
175
     0
176
     7
177
     7
178
     7
  0
ENDTAB
  0
TABLE
  2
VIEW
 70
     1
  0
VIEW
  2
ALL
 70
     0
 40
4282.6198079999986
 10
0.0
 20
41.309904000000003
 41
5940.0
 11
0.0
 21
0.0
 31
1.0
 12
0.0
 22
0.0
 32
0.0
 42
50.0
 43
0.0
 44
0.0
 50
0.0
 71
     0
  0
ENDTAB
  0
TABLE
  2
UCS
 70
     0
  0
ENDTAB
  0
TABLE
  2
VPORT
 70
     1
  0
VPORT
  2
*ACTIVE
 70
     0
 10
0.0
 20
0.0
 11
1.0
 21
1.0
 12
274.37924896269249
 22
49.235190290877988
 13
0.0
 23
0.0
 14
1.0
 24
1.0
 15
0.0
 25
0.0
 16
0.0
 26
0.0
 36
1.0
 17
0.0
 27
0.0
 37
0.0
 40
602.29188854721565
 41
2.1112877583465819
 42
50.0
 43
0.0
 44
0.0
 50
0.0
 51
0.0
 71
     0
 72
  1000
 73
     1
 74
     3
 75
     0
 76
     0
 77
     0
 78
     0
  0
ENDTAB
  0
ENDSEC
  0
SECTION
  2
BLOCKS
  0
BLOCK
  8
0
  2
_ORIGIN
 70
     0
 10
0.0
 20
0.0
 30
0.0
  3
_ORIGIN
  1
_ORIGIN
  0
CIRCLE
  8
0
  6
CONTINUOUS
 62
     7
 10
0.0
 20
0.0
 30
0.0
 40
0.5
  0
LINE
  8
0
  6
CONTINUOUS
 62
     7
 10
0.0
 20
0.0
 30
0.0
 11
-1.0
 21
0.0
 31
0.0
  0
ENDBLK
  8
0
  0
ENDSEC
  0
SECTION
  2
ENTITIES
  0
TEXT
  8
ETC
  6
CONTINUOUS
 62
    61
 10
468.06954024467927
 20
353.35945432916952
 30
0.0
 40
64.0
  1
EX-25EH8_2
 41
0.9
  0
TEXT
  8
ETC
  6
CONTINUOUS
 62
    61
 10
463.88354624467888
 20
235.40414431433831
 30
0.0
 40
64.0
  1
換気扇
 41
0.9
  0
TEXT
  8
ETC
  6
CONTINUOUS
 62
    61
 10
514.58494449323484
 20
127.25537142811299
 30
0.0
 40
40.0
  1
EX-25EH8
 50
0.0
 41
0.9
 51
0.0
  7
STANDARD
 71
     0
 11
0.0
 21
0.0
 31
0.0
210
0.0
220
0.0
230
1.0
  0
TEXT
  8
ETC
  6
CONTINUOUS
 62
    61
 10
514.58494449323484
 20
61.255371428112994
 30
0.0
 40
40.0
  1
EX-25LH8
 50
0.0
 41
0.9
 51
0.0
  7
STANDARD
 71
     0
 11
0.0
 21
0.0
 31
0.0
210
0.0
220
0.0
230
1.0
  0
TEXT
  8
ETC
  6
CONTINUOUS
 62
    61
 10
514.58494449323484
 20
-4.7446285718870058
 30
0.0
 40
40.0
  1
EX-25FH8
 50
0.0
 41
0.9
 51
0.0
  7
STANDARD
 71
     0
 11
0.0
 21
0.0
 31
0.0
210
0.0
220
0.0
230
1.0
  0
TEXT
  8
ETC
  6
CONTINUOUS
 62
    61
 10
514.58494449323484
 20
-70.744628571887006
 30
0.0
 40
40.0
  1
EX-25RH8
 50
0.0
 41
0.9
 51
0.0
  7
STANDARD
 71
     0
 11
0.0
 21
0.0
 31
0.0
210
0.0
220
0.0
230
1.0
  0
CIRCLE
  8
ARRANGE
  6
CONTINUOUS
 62
     1
 10
0.0
 20
0.0
 30
0.0
 40
40.0
  0
POINT
  8
ARRANGE
  6
CONTINUOUS
 62
     1
 10
0.0
 20
0.0
 30
0.0
  0
LINE
  8
BASIS
  6
DASHDOT
 62
     6
 10
0.0
 20
-231.80389377437999
 30
0.0
 11
0.0
 21
235.80389377437999
 31
0.0
  0
LINE
  8
BASIS
  6
DASHDOT
 62
     6
 10
216.21442293066411
 20
0.0
 30
0.0
 11
-216.20320074577111
 21
0.0
 31
0.0
  0
LINE
  8
SIZE
  6
CONTINUOUS
 62
    30
 10
-173.15923764487991
 20
185.16682776492721
 30
0.0
 11
-173.15923764487991
 21
316.64206627074441
 31
0.0
  0
LINE
  8
SIZE
  6
CONTINUOUS
 62
    30
 10
172.84060116376131
 20
185.50124773190959
 30
0.0
 11
172.84060116376131
 21
316.64206627074441
 31
0.0
  0
LINE
  8
SIZE
  6
CONTINUOUS
 62
    30
 10
-161.15923764487991
 20
296.64206627074441
 30
0.0
 11
160.84060116376131
 21
296.64206627074441
 31
0.0
  0
CIRCLE
  8
SIZE
  6
CONTINUOUS
 62
    30
 10
-173.15923764487991
 20
296.64206627074441
 30
0.0
 40
6.0
  0
LINE
  8
SIZE
  6
CONTINUOUS
 62
    30
 10
-173.15923764487991
 20
296.64206627074441
 30
0.0
 11
-161.15923764487991
 21
296.64206627074441
 31
0.0
  0
CIRCLE
  8
SIZE
  6
CONTINUOUS
 62
    30
 10
172.84060116376131
 20
296.64206627074441
 30
0.0
 40
6.0
  0
LINE
  8
SIZE
  6
CONTINUOUS
 62
    30
 10
172.84060116376131
 20
296.64206627074441
 30
0.0
 11
160.84060116376131
 21
296.64206627074441
 31
0.0
  0
TEXT
  8
SIZE
  6
CONTINUOUS
 62
    30
 10
-72.845032526273584
 20
321.64206627074441
 30
0.0
 40
64.0
  1
346
 41
0.9
 72
     1
 11
-0.159318240559287
 21
321.64206627074441
 31
0.0
  0
LINE
  8
SIZE
  6
CONTINUOUS
 62
    30
 10
-236.20320074577111
 20
0.5
 30
0.0
 11
-409.85389946215128
 21
0.5000000000000568
 31
0.0
  0
LINE
  8
SIZE
  6
CONTINUOUS
 62
    30
 10
-249.84336398549891
 20
-119.7462166045563
 30
0.0
 11
-409.85389946215128
 21
-119.7462166045563
 31
0.0
  0
LINE
  8
SIZE
  6
CONTINUOUS
 62
    30
 10
-389.85389946215128
 20
-11.49999999999994
 30
0.0
 11
-389.85389946215128
 21
-107.7462166045563
 31
0.0
  0
LINE
  8
SIZE
  6
CONTINUOUS
 62
    30
 10
-389.85389946215128
 20
-119.7462166045563
 30
0.0
 11
-389.85389946215128
 21
-318.88907374741348
 31
0.0
  0
CIRCLE
  8
SIZE
  6
CONTINUOUS
 62
    30
 10
-389.85389946215128
 20
0.5000000000000568
 30
0.0
 40
6.0
  0
LINE
  8
SIZE
  6
CONTINUOUS
 62
    30
 10
-389.85389946215128
 20
0.5000000000000568
 30
0.0
 11
-389.85389946215128
 21
-11.49999999999994
 31
0.0
  0
CIRCLE
  8
SIZE
  6
CONTINUOUS
 62
    30
 10
-389.85389946215128
 20
-119.7462166045563
 30
0.0
 40
6.0
  0
LINE
  8
SIZE
  6
CONTINUOUS
 62
    30
 10
-389.85389946215128
 20
-119.7462166045563
 30
0.0
 11
-389.85389946215128
 21
-107.7462166045563
 31
0.0
  0
TEXT
  8
SIZE
  6
CONTINUOUS
 62
    30
 10
-414.85389946215128
 20
-293.88907374741342
 30
0.0
 40
64.0
  1
120
 50
90.0
 41
0.9
 72
     1
 11
-414.85389946215128
 21
-225.31764517598489
 31
0.0
  0
LINE
  8
SIZE
  6
CONTINUOUS
 62
    30
 10
190.99546047749911
 20
173.50816350271609
 30
0.0
 11
387.26554935553293
 21
173.50816350271609
 31
0.0
  0
LINE
  8
SIZE
  6
CONTINUOUS
 62
    30
 10
191.01327767786921
 20
-196.17113202035139
 30
0.0
 11
387.26554935553281
 21
-196.17113202035151
 31
0.0
  0
LINE
  8
SIZE
  6
CONTINUOUS
 62
    30
 10
367.26554935553293
 20
161.50816350271609
 30
0.0
 11
367.26554935553281
 21
-184.17113202035151
 31
0.0
  0
CIRCLE
  8
SIZE
  6
CONTINUOUS
 62
    30
 10
367.26554935553293
 20
173.50816350271609
 30
0.0
 40
6.0
  0
LINE
  8
SIZE
  6
CONTINUOUS
 62
    30
 10
367.26554935553293
 20
173.50816350271609
 30
0.0
 11
367.26554935553293
 21
161.50816350271609
 31
0.0
  0
CIRCLE
  8
SIZE
  6
CONTINUOUS
 62
    30
 10
367.26554935553281
 20
-196.17113202035151
 30
0.0
 40
6.0
  0
LINE
  8
SIZE
  6
CONTINUOUS
 62
    30
 10
367.26554935553281
 20
-196.17113202035151
 30
0.0
 11
367.26554935553281
 21
-184.17113202035151
 31
0.0
  0
TEXT
  8
SIZE
  6
CONTINUOUS
 62
    30
 10
342.26554935553293
 20
-85.388627115960475
 30
0.0
 40
64.0
  1
370
 50
90.0
 41
0.9
 72
     1
 11
342.26554935553293
 21
-11.331484258817619
 31
0.0
  0
CIRCLE
  8
DETAIL
  6
CONTINUOUS
 62
     5
 10
0.0008108515494314
 20
-0.0007472070266772
 30
0.0
 40
23.54774179071422
  0
CIRCLE
  8
DETAIL
  6
CONTINUOUS
 62
     5
 10
0.0008108515494314
 20
-0.0007472070266772
 30
0.0
 40
24.358655747194678
  0
CIRCLE
  8
DETAIL
  6
CONTINUOUS
 62
     5
 10
0.0007631335874976
 20
-0.0007196570660994
 30
0.0
 40
45.925086354999998
  0
CIRCLE
  8
DETAIL
  6
CONTINUOUS
 62
     5
 10
0.0008108515494314
 20
-0.0007472070266772
 30
0.0
 40
133.98273680011181
  0
ARC
  8
DETAIL
  6
CONTINUOUS
 62
     5
 10
171.01310962479999
 20
-194.1767242831267
 30
0.0
 40
1.9943317159327929
 50
270.00482804989599
 51
359.99404230909619
  0
ARC
  8
DETAIL
  6
CONTINUOUS
 62
     5
 10
170.4808214634146
 20
-189.45970255912209
 30
0.0
 40
1.997155564531361
 50
270.14338831640038
 51
359.89097895390069
  0
ARC
  8
DETAIL
  6
CONTINUOUS
 62
     5
 10
170.7721184787375
 20
-193.9334580214647
 30
0.0
 40
1.9971730919404009
 50
270.0209226970004
 51
359.97907730320151
  0
ARC
  8
DETAIL
  6
CONTINUOUS
 62
     5
 10
-170.4800510337069
 20
170.98011467822991
 30
0.0
 40
0.9981570782739202
 50
89.996579043398896
 51
180.0034209552006
  0
ARC
  8
DETAIL
  6
CONTINUOUS
 62
     5
 10
-171.01148792170139
 20
171.5138266813253
 30
0.0
 40
1.994331716332145
 50
90.004828050097942
 51
179.99404230920041
  0
ARC
  8
DETAIL
  6
CONTINUOUS
 62
     5
 10
-170.4796874119518
 20
170.9797510564747
 30
0.0
 40
1.996742819207334
 50
90.008723873097097
 51
179.99127612689639
  0
ARC
  8
DETAIL
  6
CONTINUOUS
 62
     5
 10
-171.01376303720099
 20
-194.1744491675274
 30
0.0
 40
1.9943317160326739
 50
180.0048280499025
 51
269.99404230920038
  0
ARC
  8
DETAIL
  6
CONTINUOUS
 62
     5
 10
-170.47920025930199
 20
-189.45970261812559
 30
0.0
 40
1.9971552793965719
 50
180.109019379703
 51
269.85662599680091
  0
ARC
  8
DETAIL
  6
CONTINUOUS
 62
     5
 10
-170.7704967760383
 20
-193.93345802176299
 30
0.0
 40
1.997173091940353
 50
180.02092268879949
 51
269.97907731320021
  0
LINE
  8
DETAIL
  6
CONTINUOUS
 62
     5
 10
-171.4782108223597
 20
170.98005508114579
 30
0.0
 11
-172.47643020799711
 21
170.98005508114579
 31
0.0
  0
LINE
  8
DETAIL
  6
CONTINUOUS
 62
     5
 10
-173.00810191914459
 20
171.52749157166431
 30
0.0
 11
-173.00817077452669
 21
-108.8795405236398
 31
0.0
  0
LINE
  8
DETAIL
  6
CONTINUOUS
 62
     5
 10
170.4858193488935
 20
-190.4924242773715
 30
0.0
 11
170.48581934899369
 21
-191.45677703792191
 31
0.0
  0
LINE
  8
DETAIL
  6
CONTINUOUS
 62
     5
 10
172.47805191109549
 20
-189.46350284624091
 30
0.0
 11
172.7692865559579
 21
-193.93418732731081
 31
0.0
  0
LINE
  8
DETAIL
  6
CONTINUOUS
 62
     5
 10
170.4858193488935
 20
-191.45677703792191
 30
0.0
 11
170.77284778458349
 21
-195.8628928484124
 31
0.0
  0
LINE
  8
DETAIL
  6
CONTINUOUS
 62
     5
 10
119.2889236719012
 20
-187.3776475290899
 30
0.0
 11
119.2889236719012
 21
-169.3325932254331
 31
0.0
  0
LINE
  8
DETAIL
  6
CONTINUOUS
 62
     5
 10
118.2907042862639
 20
-187.37762945237699
 30
0.0
 11
118.2907042862639
 21
-169.65599299134439
 31
0.0
  0
LINE
  8
DETAIL
  6
CONTINUOUS
 62
     5
 10
116.33455023978129
 20
-167.49804152623
 30
0.0
 11
116.33455023978129
 21
-166.88338269104329
 31
0.0
  0
LINE
  8
DETAIL
  6
CONTINUOUS
 62
     5
 10
116.2798220704389
 20
-189.49405283487081
 30
0.0
 11
116.2798220667448
 21
-190.4924242773715
 31
0.0
  0
LINE
  8
DETAIL
  6
CONTINUOUS
 62
     5
 10
-170.47999143662241
 20
172.97649385252021
 30
0.0
 11
-171.01165597477089
 21
173.50815839066831
 31
0.0
  0
LINE
  8
DETAIL
  6
CONTINUOUS
 62
     5
 10
-172.47643020799711
 20
170.98005508114579
 30
0.0
 11
-173.0080947461453
 21
171.5117196192939
 31
0.0
  0
LINE
  8
DETAIL
  6
CONTINUOUS
 62
     5
 10
172.7692865559579
 20
-193.93418732731081
 30
0.0
 11
173.00971644924391
 21
-194.17461722059599
 31
0.0
  0
LINE
  8
DETAIL
  6
CONTINUOUS
 62
     5
 10
170.77284778458349
 20
-195.9306260986852
 30
0.0
 11
171.01327767786921
 21
-196.17105599197041
 31
0.0
  0
LINE
  8
DETAIL
  6
CONTINUOUS
 62
     5
 10
116.33455023978129
 20
-166.88338269104329
 30
0.0
 11
-116.3329285366828
 21
-166.88338269104329
 31
0.0
  0
LINE
  8
DETAIL
  6
CONTINUOUS
 62
     5
 10
116.3346060389608
 20
-167.49804152623
 30
0.0
 11
-116.3329830651351
 21
-167.49804152623
 31
0.0
  0
LINE
  8
DETAIL
  6
CONTINUOUS
 62
     5
 10
-170.771226081485
 20
-195.8628928484124
 30
0.0
 11
-170.48419764579509
 21
-191.45677703792191
 31
0.0
  0
LINE
  8
DETAIL
  6
CONTINUOUS
 62
     5
 10
-172.7676648528593
 20
-193.93418732731081
 30
0.0
 11
-172.47643020799711
 21
-189.46350284624091
 31
0.0
  0
LINE
  8
DETAIL
  6
CONTINUOUS
 62
     5
 10
118.2907042862639
 20
-187.3776475290899
 30
0.0
 11
119.2889236719012
 21
-187.3776475290899
 31
0.0
  0
LINE
  8
DETAIL
  6
CONTINUOUS
 62
     5
 10
171.47983252545819
 20
-189.46350284624091
 30
0.0
 11
172.47805191109549
 21
-189.46350284624091
 31
0.0
  0
LINE
  8
DETAIL
  6
CONTINUOUS
 62
     5
 10
-171.4782108223597
 20
-189.46350284624091
 30
0.0
 11
-172.47643020799711
 21
-189.4635028461409
 31
0.0
  0
LINE
  8
DETAIL
  6
CONTINUOUS
 62
     5
 10
-116.278200363746
 20
-189.49405283487081
 30
0.0
 11
116.2798220704389
 21
-189.49405283487081
 31
0.0
  0
LINE
  8
DETAIL
  6
CONTINUOUS
 62
     5
 10
116.2798220668446
 20
-190.4924242773715
 30
0.0
 11
170.4858193488935
 21
-190.4924242773715
 31
0.0
  0
LINE
  8
DETAIL
  6
CONTINUOUS
 62
     5
 10
-170.48419764579509
 20
-190.4924242773715
 30
0.0
 11
-116.278200363746
 21
-190.4924242773715
 31
0.0
  0
LINE
  8
DETAIL
  6
CONTINUOUS
 62
     5
 10
-170.48419764579509
 20
-191.45677703792191
 30
0.0
 11
170.4858193488935
 21
-191.45677703792191
 31
0.0
  0
LINE
  8
DETAIL
  6
CONTINUOUS
 62
     5
 10
-170.47999143662241
 20
171.9782744668826
 30
0.0
 11
-170.47999143672251
 21
172.97649385252021
 31
0.0
  0
LINE
  8
DETAIL
  6
CONTINUOUS
 62
     5
 10
-170.48419764579509
 20
-190.4924242773715
 30
0.0
 11
-170.48419764579509
 21
-191.45677703792191
 31
0.0
  0
LINE
  8
DETAIL
  6
CONTINUOUS
 62
     5
 10
-171.4782108223597
 20
170.98005508114579
 30
0.0
 11
-171.4782108223597
 21
-189.46350284624091
 31
0.0
  0
LINE
  8
DETAIL
  6
CONTINUOUS
 62
     5
 10
-172.47643020799711
 20
170.98005508114579
 30
0.0
 11
-172.47643020799711
 21
-189.46350284624091
 31
0.0
  0
LINE
  8
DETAIL
  6
CONTINUOUS
 62
     5
 10
-172.79991860199129
 20
-111.87441687802421
 30
0.0
 11
-172.79905111434951
 21
-123.2464034715906
 31
0.0
  0
LINE
  8
DETAIL
  6
CONTINUOUS
 62
     5
 10
-173.00817077452669
 20
-194.17461722059599
 30
0.0
 11
-173.00817077452669
 21
-126.7359857629137
 31
0.0
  0
LINE
  8
DETAIL
  6
CONTINUOUS
 62
     5
 10
-44.096864209484409
 20
-195.96218046186479
 30
0.0
 11
44.279394349403447
 21
-195.96274067164279
 31
0.0
  0
LINE
  8
DETAIL
  6
CONTINUOUS
 62
     5
 10
-151.17904168297261
 20
-195.93065300489451
 30
0.0
 11
-170.771226081485
 21
-195.9306260986852
 31
0.0
  0
LINE
  8
DETAIL
  6
CONTINUOUS
 62
     5
 10
-127.9064318991696
 20
-196.17089899217009
 30
0.0
 11
-45.416401939032369
 21
-196.17113202035139
 31
0.0
  0
LINE
  8
DETAIL
  6
CONTINUOUS
 62
     5
 10
-133.78096244345059
 20
-195.6378444818649
 30
0.0
 11
-147.75816263845061
 21
-195.6378444818649
 31
0.0
  0
LINE
  8
DETAIL
  6
CONTINUOUS
 62
     5
 10
-133.78096244345059
 20
-195.65485382278911
 30
0.0
 11
-147.75816263855049
 21
-195.65485382278911
 31
0.0
  0
LINE
  8
DETAIL
  6
CONTINUOUS
 62
     5
 10
-170.771226081485
 20
-195.8628928484124
 30
0.0
 11
-150.6767721082478
 21
-195.8628911837279
 31
0.0
  0
LINE
  8
DETAIL
  6
CONTINUOUS
 62
     5
 10
-130.86235311801829
 20
-195.862891162463
 30
0.0
 11
170.77284778458349
 21
-195.8628928484124
 31
0.0
  0
LINE
  8
DETAIL
  6
CONTINUOUS
 62
     5
 10
-130.36008335569929
 20
-195.93065375676829
 30
0.0
 11
170.77284778458349
 21
-195.9306260986852
 31
0.0
  0
LINE
  8
DETAIL
  6
CONTINUOUS
 62
     5
 10
-153.62587518354769
 20
-196.17087029298469
 30
0.0
 11
-171.01165597457111
 21
-196.17113202035139
 31
0.0
  0
LINE
  8
DETAIL
  6
CONTINUOUS
 62
     5
 10
171.01327767786921
 20
-196.17113202035139
 30
0.0
 11
45.418023642130947
 21
-196.17113202035139
 31
0.0
  0
LINE
  8
DETAIL
  6
CONTINUOUS
 62
     5
 10
171.01327767796931
 20
-196.17112518110861
 30
0.0
 11
171.04080117285821
 21
-196.1709361825053
 31
0.0
  0
CIRCLE
  8
DETAIL
  6
CONTINUOUS
 62
     5
 10
-0.0032074467582106
 20
0.0000002499116931
 30
0.0
 40
39.842398388625497
  0
ARC
  8
DETAIL
  6
CONTINUOUS
 62
     5
 10
-0.0032074467582106
 20
0.0000002499116931
 30
0.0
 40
42.059572858832027
 50
279.73685493269591
 51
260.26176850740228
  0
LINE
  8
DETAIL
  6
CONTINUOUS
 62
     5
 10
-0.0080550641885111
 20
173.50816350271609
 30
0.0
 11
-171.01165597477089
 21
173.50815839066831
 31
0.0
  0
LINE
  8
DETAIL
  6
CONTINUOUS
 62
     5
 10
-0.0080546594433599
 20
172.97649385252021
 30
0.0
 11
-170.47999143662241
 21
172.97649385252021
 31
0.0
  0
LINE
  8
DETAIL
  6
CONTINUOUS
 62
     5
 10
-0.0080546594332418
 20
171.97823576378121
 30
0.0
 11
-170.47999143662241
 21
171.9782744668826
 31
0.0
  0
LINE
  8
DETAIL
  6
CONTINUOUS
 62
     5
 10
171.47983252545819
 20
-189.46350284624091
 30
0.0
 11
171.47983252545819
 21
92.156014243452603
 31
0.0
  0
LINE
  8
DETAIL
  6
CONTINUOUS
 62
     5
 10
172.47805191109549
 20
-189.46350284624091
 30
0.0
 11
172.47805191109549
 21
92.036947595314643
 31
0.0
  0
LINE
  8
DETAIL
  6
CONTINUOUS
 62
     5
 10
173.0097374907383
 20
91.977432515597513
 30
0.0
 11
173.00979247762521
 21
-115.8663044512252
 31
0.0
  0
LINE
  8
DETAIL
  6
CONTINUOUS
 62
     5
 10
173.00972362224309
 20
-194.19038917296641
 30
0.0
 11
173.00979247762521
 21
-126.7378219328268
 31
0.0
  0
LINE
  8
DETAIL
  6
CONTINUOUS
 62
     5
 10
172.8356988119543
 20
-123.710105053866
 30
0.0
 11
172.8355462346409
 21
-119.036362731995
 31
0.0
  0
LINE
  8
DETAIL
  6
CONTINUOUS
 62
     5
 10
-216.23423235423039
 20
-210.3168149092173
 30
0.0
 11
-217.98224254506479
 21
-209.8757883969831
 31
0.0
  0
LINE
  8
DETAIL
  6
CONTINUOUS
 62
     5
 10
-217.98224254506479
 20
-209.8757883969831
 30
0.0
 11
-219.58217084127909
 21
-209.8017474496784
 31
0.0
  0
LINE
  8
DETAIL
  6
CONTINUOUS
 62
     5
 10
-219.58217084127909
 20
-209.8017474496784
 30
0.0
 11
-219.58217084127909
 21
-209.8017474496784
 31
0.0
  0
LINE
  8
DETAIL
  6
CONTINUOUS
 62
     5
 10
-219.58217084127909
 20
-209.8017474496784
 30
0.0
 11
-220.93744209420811
 21
-210.27174650651989
 31
0.0
  0
LINE
  8
DETAIL
  6
CONTINUOUS
 62
     5
 10
-220.93744209420811
 20
-210.27174650651989
 30
0.0
 11
-222.15750813900439
 21
-210.7031155038932
 31
0.0
  0
LINE
  8
DETAIL
  6
CONTINUOUS
 62
     5
 10
-222.15750813900439
 20
-210.7031155038932
 30
0.0
 11
-222.15750813900439
 21
-210.7031155038932
 31
0.0
  0
LINE
  8
DETAIL
  6
CONTINUOUS
 62
     5
 10
-222.15750813900439
 20
-210.7031155038932
 30
0.0
 11
-223.3743550121774
 21
-210.5196227214239
 31
0.0
  0
LINE
  8
DETAIL
  6
CONTINUOUS
 62
     5
 10
-223.3743550121774
 20
-210.5196227214239
 30
0.0
 11
-224.6040785718381
 21
-209.93051431455501
 31
0.0
  0
LINE
  8
DETAIL
  6
CONTINUOUS
 62
     5
 10
-216.23423235423039
 20
-213.39640207866361
 30
0.0
 11
-217.98224254506479
 21
-212.95537556643029
 31
0.0
  0
LINE
  8
DETAIL
  6
CONTINUOUS
 62
     5
 10
-217.98224254506479
 20
-212.95537556643029
 30
0.0
 11
-219.58217084127909
 21
-212.88133461912469
 31
0.0
  0
LINE
  8
DETAIL
  6
CONTINUOUS
 62
     5
 10
-219.58217084127909
 20
-212.88133461912469
 30
0.0
 11
-219.58217084127909
 21
-212.88133461912469
 31
0.0
  0
LINE
  8
DETAIL
  6
CONTINUOUS
 62
     5
 10
-219.58217084127909
 20
-212.88133461912469
 30
0.0
 11
-220.93744209420811
 21
-213.35133367596811
 31
0.0
  0
LINE
  8
DETAIL
  6
CONTINUOUS
 62
     5
 10
-220.93744209420811
 20
-213.35133367596811
 30
0.0
 11
-222.15750813900439
 21
-213.78270267334051
 31
0.0
  0
LINE
  8
DETAIL
  6
CONTINUOUS
 62
     5
 10
-222.15750813900439
 20
-213.78270267334051
 30
0.0
 11
-222.15750813900439
 21
-213.78270267334051
 31
0.0
  0
LINE
  8
DETAIL
  6
CONTINUOUS
 62
     5
 10
-222.15750813900439
 20
-213.78270267334051
 30
0.0
 11
-223.3743550121774
 21
-213.59920989087021
 31
0.0
  0
LINE
  8
DETAIL
  6
CONTINUOUS
 62
     5
 10
-223.3743550121774
 20
-213.59920989087021
 30
0.0
 11
-224.6040785718381
 21
-213.01010148400221
 31
0.0
  0
LINE
  8
DETAIL
  6
CONTINUOUS
 62
     5
 10
-211.3258238712223
 20
-267.46001326753611
 30
0.0
 11
-211.3258238712223
 21
-252.06207742030091
 31
0.0
  0
LINE
  8
DETAIL
  6
CONTINUOUS
 62
     5
 10
-227.75028877494071
 20
-264.50473625929061
 30
0.0
 11
-227.75028877494071
 21
-255.01735442854641
 31
0.0
  0
LINE
  8
DETAIL
  6
CONTINUOUS
 62
     5
 10
-225.8252969084397
 20
-252.96829448512671
 30
0.0
 11
-211.3258238712223
 21
-252.06207742030091
 31
0.0
  0
LINE
  8
DETAIL
  6
CONTINUOUS
 62
     5
 10
-194.7919172565133
 20
-256.52747881599879
 30
0.0
 11
-211.3258238712223
 21
-256.52747881599879
 31
0.0
  0
ARC
  8
DETAIL
  6
CONTINUOUS
 62
     5
 10
-200.03400424991679
 20
-259.76104534391851
 30
0.0
 40
6.1591743388940543
 50
328.33175674645059
 51
31.66824325354942
  0
LINE
  8
DETAIL
  6
CONTINUOUS
 62
     5
 10
-194.7919172565133
 20
-262.99461187183817
 30
0.0
 11
-194.7919172565133
 21
-256.52747881599879
 31
0.0
  0
ARC
  8
DETAIL
  6
CONTINUOUS
 62
     5
 10
-225.6972306619756
 20
-255.01735442854641
 30
0.0
 40
2.0530581129647119
 50
93.576334375004677
 51
180.0
  0
LINE
  8
DETAIL
  6
CONTINUOUS
 62
     5
 10
-225.6972306619756
 20
-252.11389180085209
 30
0.0
 11
-225.6972306619756
 21
-248.9824902508546
 31
0.0
  0
LINE
  8
DETAIL
  6
CONTINUOUS
 62
     5
 10
-215.43194009715231
 20
-251.2260195764795
 30
0.0
 11
-215.43194009715231
 21
-248.98249025085369
 31
0.0
  0
LINE
  8
DETAIL
  6
CONTINUOUS
 62
     5
 10
-217.94141847352529
 20
-231.53149629065339
 30
0.0
 11
-223.18775228560261
 21
-231.53149629065339
 31
0.0
  0
LINE
  8
DETAIL
  6
CONTINUOUS
 62
     5
 10
-225.6972306619756
 20
-248.9824902508546
 30
0.0
 11
-223.69750126200279
 21
-231.98479035108281
 31
0.0
  0
LINE
  8
DETAIL
  6
CONTINUOUS
 62
     5
 10
-215.43194009715231
 20
-248.98249025085369
 30
0.0
 11
-217.4316694971252
 21
-231.98479035108281
 31
0.0
  0
ARC
  8
DETAIL
  6
CONTINUOUS
 62
     5
 10
-226.72375971845801
 20
-252.11389180085209
 30
0.0
 40
1.0265290564826131
 50
289.47122063445852
 51
0.0
  0
ARC
  8
DETAIL
  6
CONTINUOUS
 62
     5
 10
-214.40541104067009
 20
-251.2260195764795
 30
0.0
 40
1.026529056482214
 50
180.0
 51
273.57633437501778
  0
ARC
  8
DETAIL
  6
CONTINUOUS
 62
     5
 10
-223.18775228560261
 20
-232.04476081889439
 30
0.0
 40
0.5132645282412209
 50
90.0
 51
173.29016319222771
  0
ARC
  8
DETAIL
  6
CONTINUOUS
 62
     5
 10
-217.94141847352529
 20
-232.04476081889439
 30
0.0
 40
0.5132645282410332
 50
6.7098368077722972
 51
90.0
  0
LINE
  8
DETAIL
  6
CONTINUOUS
 62
     5
 10
-217.24346196153229
 20
-233.58455440361851
 30
0.0
 11
-220.56458537956411
 21
-233.58455440361851
 31
0.0
  0
LINE
  8
DETAIL
  6
CONTINUOUS
 62
     5
 10
-217.06230977509401
 20
-235.12434798834161
 30
0.0
 11
-220.56458537956411
 21
-235.12434798834161
 31
0.0
  0
LINE
  8
DETAIL
  6
CONTINUOUS
 62
     5
 10
-220.56458537956411
 20
-236.66414157306571
 30
0.0
 11
-224.24801317047121
 21
-236.66414157306571
 31
0.0
  0
LINE
  8
DETAIL
  6
CONTINUOUS
 62
     5
 10
-216.51885321578001
 20
-239.74372874251199
 30
0.0
 11
-220.56458537956411
 21
-239.74372874251199
 31
0.0
  0
LINE
  8
DETAIL
  6
CONTINUOUS
 62
     5
 10
-216.33770102934201
 20
-241.28352232723611
 30
0.0
 11
-220.56458537956411
 21
-241.28352232723611
 31
0.0
  0
LINE
  8
DETAIL
  6
CONTINUOUS
 62
     5
 10
-220.56458537956411
 20
-242.82331591196021
 30
0.0
 11
-224.97262191622349
 21
-242.82331591196021
 31
0.0
  0
LINE
  8
DETAIL
  6
CONTINUOUS
 62
     5
 10
-220.56458537956411
 20
-244.36310949668331
 30
0.0
 11
-225.15377410266171
 21
-244.36310949668331
 31
0.0
  0
LINE
  8
DETAIL
  6
CONTINUOUS
 62
     5
 10
-215.79424447002819
 20
-245.9029030814074
 30
0.0
 11
-220.56458537956411
 21
-245.9029030814074
 31
0.0
  0
LINE
  8
DETAIL
  6
CONTINUOUS
 62
     5
 10
-215.6130922835903
 20
-247.4426966661305
 30
0.0
 11
-220.56458537956411
 21
-247.4426966661305
 31
0.0
  0
LINE
  8
DETAIL
  6
CONTINUOUS
 62
     5
 10
-221.5911144360463
 20
-244.36310949668331
 30
0.0
 11
-221.5911144360463
 21
-242.82331591196021
 31
0.0
  0
LINE
  8
DETAIL
  6
CONTINUOUS
 62
     5
 10
-219.53805632308169
 20
-247.4426966661305
 30
0.0
 11
-219.53805632308169
 21
-245.9029030814074
 31
0.0
  0
LINE
  8
DETAIL
  6
CONTINUOUS
 62
     5
 10
-221.5911144360463
 20
-238.20393515778889
 30
0.0
 11
-221.5911144360463
 21
-236.66414157306571
 31
0.0
  0
LINE
  8
DETAIL
  6
CONTINUOUS
 62
     5
 10
-219.53805632308169
 20
-235.12434798834161
 30
0.0
 11
-219.53805632308169
 21
-233.58455440361851
 31
0.0
  0
LINE
  8
DETAIL
  6
CONTINUOUS
 62
     5
 10
-219.53805632308169
 20
-241.28352232723611
 30
0.0
 11
-219.53805632308169
 21
-239.74372874251199
 31
0.0
  0
LINE
  8
DETAIL
  6
CONTINUOUS
 62
     5
 10
-211.3258238712223
 20
-255.1416645897481
 30
0.0
 11
-222.61764349252871
 21
-255.1416645897481
 31
0.0
  0
LINE
  8
DETAIL
  6
CONTINUOUS
 62
     5
 10
-222.61764349252871
 20
-264.38042609808889
 30
0.0
 11
-222.61764349252871
 21
-255.1416645897481
 31
0.0
  0
LINE
  8
DETAIL
  6
CONTINUOUS
 62
     5
 10
-222.10437896428729
 20
-231.53149629065339
 30
0.0
 11
-222.10437896428729
 21
-231.4153547589614
 31
0.0
  0
LINE
  8
DETAIL
  6
CONTINUOUS
 62
     5
 10
-219.0247917948407
 20
-231.53149629065339
 30
0.0
 11
-219.0247917948407
 21
-231.4153547589614
 31
0.0
  0
LINE
  8
DETAIL
  6
CONTINUOUS
 62
     5
 10
-211.3258238712223
 20
-267.46001326753611
 30
0.0
 11
-225.8252969084397
 21
-266.55379620271032
 31
0.0
  0
LINE
  8
DETAIL
  6
CONTINUOUS
 62
     5
 10
-194.7919172565133
 20
-262.99461187183817
 30
0.0
 11
-211.3258238712223
 21
-262.99461187183817
 31
0.0
  0
CIRCLE
  8
DETAIL
  6
CONTINUOUS
 62
     5
 10
-199.31543391037869
 20
-259.76104534391851
 30
0.0
 40
1.591120037547648
  0
CIRCLE
  8
DETAIL
  6
CONTINUOUS
 62
     5
 10
-199.31543391037869
 20
-259.76104534391851
 30
0.0
 40
2.001731660140555
  0
ARC
  8
DETAIL
  6
CONTINUOUS
 62
     5
 10
-225.6972306619756
 20
-264.50473625929061
 30
0.0
 40
2.0530581129653389
 50
180.0
 51
266.42366562499529
  0
LINE
  8
DETAIL
  6
CONTINUOUS
 62
     5
 10
-211.3258238712223
 20
-264.38042609808889
 30
0.0
 11
-222.61764349252871
 21
-264.38042609808889
 31
0.0
  0
LINE
  8
DETAIL
  6
CONTINUOUS
 62
     5
 10
-219.0247917948407
 20
-231.53149629065339
 30
0.0
 11
-219.0247917948407
 21
-212.84265159689241
 31
0.0
  0
LINE
  8
DETAIL
  6
CONTINUOUS
 62
     5
 10
-222.10437896428729
 20
-231.53149629065339
 30
0.0
 11
-222.10437896428729
 21
-213.77511647615859
 31
0.0
  0
LINE
  8
NOTE
  6
CONTINUOUS
 62
     4
 10
-229.84336398549891
 20
-119.7462166045563
 30
0.0
 11
-162.58860102648219
 21
-119.7462166045563
 31
0.0
  0
LINE
  8
DETAIL
  6
CONTINUOUS
 62
     5
 10
-221.79642024734309
 20
-210.62382480681771
 30
0.0
 11
-221.79642024734309
 21
-131.42227124308121
 31
0.0
  0
LINE
  8
DETAIL
  6
CONTINUOUS
 62
     5
 10
-219.3327509033744
 20
-209.77307846967071
 30
0.0
 11
-219.3327509033744
 21
-131.42227124308121
 31
0.0
  0
ARC
  8
DETAIL
  6
CONTINUOUS
 62
     5
 10
-209.06745994696161
 20
-131.42227124308121
 30
0.0
 40
12.728960300381519
 50
90.0
 51
180.0
  0
ARC
  8
DETAIL
  6
CONTINUOUS
 62
     5
 10
-209.06746033855151
 20
-131.42227124308121
 30
0.0
 40
10.265290564823561
 50
90.0
 51
180.0
  0
LINE
  8
DETAIL
  6
CONTINUOUS
 62
     5
 10
-209.06746033855151
 20
-121.1569806782574
 30
0.0
 11
-189.48426871921731
 21
-121.1569806782574
 31
0.0
  0
LINE
  8
DETAIL
  6
CONTINUOUS
 62
     5
 10
-209.06745994696161
 20
-118.69331094270019
 30
0.0
 11
-189.48426871921731
 21
-118.69331094270019
 31
0.0
  0
LINE
  8
DETAIL
  6
CONTINUOUS
 62
     5
 10
-189.48426871921731
 20
-117.3588231692722
 30
0.0
 11
-189.48426871921731
 21
-122.4914684516845
 31
0.0
  0
LINE
  8
DETAIL
  6
CONTINUOUS
 62
     5
 10
-189.48426871921731
 20
-117.3588231692722
 30
0.0
 11
-172.799652553058
 21
-117.3588231692722
 31
0.0
  0
LINE
  8
DETAIL
  6
CONTINUOUS
 62
     5
 10
-189.48426871921731
 20
-122.4914684516845
 30
0.0
 11
-172.79926102020531
 21
-122.4914684516845
 31
0.0
  0
ARC
  8
DETAIL
  6
CONTINUOUS
 62
     5
 10
170.46394224294011
 20
170.98020487796089
 30
0.0
 40
0.9981570782739202
 50
359.99660936100071
 51
90.003451272802408
  0
ARC
  8
DETAIL
  6
CONTINUOUS
 62
     5
 10
170.99537884853791
 20
171.5139171622466
 30
0.0
 40
1.994331716332145
 50
0.0059880070009588
 51
89.995202266109942
  0
ARC
  8
DETAIL
  6
CONTINUOUS
 62
     5
 10
170.4635786213772
 20
170.9798412560128
 30
0.0
 40
1.996742819207334
 50
0.0087541893052145
 51
89.991306443104492
  0
LINE
  8
DETAIL
  6
CONTINUOUS
 62
     5
 10
171.46210203162411
 20
170.9801458090194
 30
0.0
 11
172.4603214172615
 21
170.98014633719481
 31
0.0
  0
LINE
  8
DETAIL
  6
CONTINUOUS
 62
     5
 10
172.99199283875049
 20
171.52758310902911
 30
0.0
 11
172.99221006242061
 21
-108.8794489861977
 31
0.0
  0
LINE
  8
DETAIL
  6
CONTINUOUS
 62
     5
 10
170.4638815895363
 20
172.9765840522175
 30
0.0
 11
170.99554584637141
 21
173.50824887167869
 31
0.0
  0
LINE
  8
DETAIL
  6
CONTINUOUS
 62
     5
 10
172.4603214172615
 20
170.98014633719481
 30
0.0
 11
172.99198567409641
 21
171.51181115665511
 31
0.0
  0
LINE
  8
DETAIL
  6
CONTINUOUS
 62
     5
 10
170.4638821177119
 20
171.97836466657989
 30
0.0
 11
170.46388158963609
 21
172.9765840522175
 31
0.0
  0
LINE
  8
DETAIL
  6
CONTINUOUS
 62
     5
 10
171.46210203162411
 20
170.9801458090194
 30
0.0
 11
171.4622927486447
 21
-189.46341211831731
 31
0.0
  0
LINE
  8
DETAIL
  6
CONTINUOUS
 62
     5
 10
172.4603214172615
 20
170.98014633719481
 30
0.0
 11
172.46051213428149
 21
-189.4634115901419
 31
0.0
  0
LINE
  8
DETAIL
  6
CONTINUOUS
 62
     5
 10
-0.0080550641886248
 20
173.50816197681681
 30
0.0
 11
170.99554584637141
 21
173.50824887167869
 31
0.0
  0
LINE
  8
DETAIL
  6
CONTINUOUS
 62
     5
 10
-0.0080549235311764
 20
172.97649385252021
 30
0.0
 11
170.4638815895363
 21
172.9765840522175
 31
0.0
  0
LINE
  8
DETAIL
  6
CONTINUOUS
 62
     5
 10
-0.0080546594433599
 20
171.97823576378121
 30
0.0
 11
170.4638821177119
 21
171.97836466657989
 31
0.0
  0
ARC
  8
DETAIL
  6
CONTINUOUS
 62
     5
 10
52.87283654579187
 20
60.285653763199491
 30
0.0
 40
94.521849777488143
 50
133.14296608810781
 51
197.7967205786484
  0
ARC
  8
DETAIL
  6
CONTINUOUS
 62
     5
 10
-38.202435732505592
 20
30.57031588352794
 30
0.0
 40
3.105585611130421
 50
307.90220910335779
 51
25.66332126380065
  0
ARC
  8
DETAIL
  6
CONTINUOUS
 62
     5
 10
-2.0081863095234098
 20
-7.1805019186264758
 30
0.0
 40
136.7823056296769
 50
54.667510572875798
 51
94.089251872849005
  0
ARC
  8
DETAIL
  6
CONTINUOUS
 62
     5
 10
73.422555477293372
 20
99.654373521352966
 30
0.0
 40
6.0073444671286094
 50
280.90344426029691
 51
52.304924928698213
  0
ARC
  8
DETAIL
  6
CONTINUOUS
 62
     5
 10
79.348931141890944
 20
67.349834445169392
 30
0.0
 40
26.836591814979151
 50
100.28181093879169
 51
122.5454876497968
  0
ARC
  8
DETAIL
  6
CONTINUOUS
 62
     5
 10
52.843970381951067
 20
115.3269881262655
 30
0.0
 40
28.080211377330631
 50
267.23705132502641
 51
295.45222671699179
  0
ARC
  8
DETAIL
  6
CONTINUOUS
 62
     5
 10
60.748926364150073
 20
30.601894817811232
 30
0.0
 40
57.428757542831526
 50
99.277581394530628
 51
130.24633528171131
  0
ARC
  8
DETAIL
  6
CONTINUOUS
 62
     5
 10
62.842950793100158
 20
29.063891648599171
 30
0.0
 40
59.958621072152482
 50
130.8241401725918
 51
157.93344709997311
  0
ARC
  8
DETAIL
  6
CONTINUOUS
 62
     5
 10
11.70524886822813
 20
49.469201095820672
 30
0.0
 40
4.9101531001429004
 50
154.41892039883029
 51
256.80954505715351
  0
ARC
  8
DETAIL
  6
CONTINUOUS
 62
     5
 10
-41.002703738719838
 20
68.921448244812439
 30
0.0
 40
94.521849777488143
 50
205.14296608811421
 51
269.79672057864428
  0
ARC
  8
DETAIL
  6
CONTINUOUS
 62
     5
 10
-40.885544915665378
 20
-26.878827327229772
 30
0.0
 40
3.105585611130421
 50
19.902209103365049
 51
97.663321263799901
  0
ARC
  8
DETAIL
  6
CONTINUOUS
 62
     5
 10
6.2022545208917563
 20
-4.1216948135083271
 30
0.0
 40
136.78230562967681
 50
126.6675105728763
 51
166.08925187284601
  0
ARC
  8
DETAIL
  6
CONTINUOUS
 62
     5
 10
-72.094368823446871
 20
100.6309957947051
 30
0.0
 40
6.0073444671286076
 50
352.90344426029441
 51
124.3049249286906
  0
ARC
  8
DETAIL
  6
CONTINUOUS
 62
     5
 10
-39.539575633720347
 20
96.284662418543405
 30
0.0
 40
26.836591814979151
 50
172.28181093879439
 51
194.54548764979651
  0
ARC
  8
DETAIL
  6
CONTINUOUS
 62
     5
 10
-93.359043585483221
 20
85.902702602852344
 30
0.0
 40
28.080211377330631
 50
339.23705132503
 51
7.4522267169817153
  0
ARC
  8
DETAIL
  6
CONTINUOUS
 62
     5
 10
-10.337925762477539
 20
67.239268818433686
 30
0.0
 40
57.428757542831526
 50
171.2775813945324
 51
202.24633528171211
  0
ARC
  8
DETAIL
  6
CONTINUOUS
 62
     5
 10
-8.2281086911339116
 20
68.755535280178776
 30
0.0
 40
59.958621072152482
 50
202.82414017259489
 51
229.933447099962
  0
ARC
  8
DETAIL
  6
CONTINUOUS
 62
     5
 10
-43.437130155998943
 20
26.426278030841161
 30
0.0
 40
4.9101531001429004
 50
226.4189203988295
 51
328.80954505715567
  0
ARC
  8
DETAIL
  6
CONTINUOUS
 62
     5
 10
-78.224969657886959
 20
-17.690888808752049
 30
0.0
 40
94.521849777488114
 50
277.14296608811071
 51
341.79672057864718
  0
ARC
  8
DETAIL
  6
CONTINUOUS
 62
     5
 10
12.92271075514032
 20
-47.183377364209427
 30
0.0
 40
3.1055856111304201
 50
91.90220910336042
 51
169.6633212638009
  0
ARC
  8
DETAIL
  6
CONTINUOUS
 62
     5
 10
5.830321839388489
 20
4.6321218179103312
 30
0.0
 40
136.78230562967681
 50
198.66751057287209
 51
238.08925187284669
  0
ARC
  8
DETAIL
  6
CONTINUOUS
 62
     5
 10
-117.9903943785778
 20
-37.462030413191258
 30
0.0
 40
6.0073444671286076
 50
64.903444260298116
 51
196.30492492870241
  0
ARC
  8
DETAIL
  6
CONTINUOUS
 62
     5
 10
-103.7968013552009
 20
-7.8436730899135796
 30
0.0
 40
26.836591814979151
 50
244.28181093878729
 51
266.54548764979978
  0
ARC
  8
DETAIL
  6
CONTINUOUS
 62
     5
 10
-110.554101045886
 20
-62.23723080694225
 30
0.0
 40
28.08021137733062
 50
51.237051325024687
 51
79.452226716982366
  0
ARC
  8
DETAIL
  6
CONTINUOUS
 62
     5
 10
-67.149184429457875
 20
10.953226075958179
 30
0.0
 40
57.428757542831526
 50
243.27758139452999
 51
274.24633528171921
  0
ARC
  8
DETAIL
  6
CONTINUOUS
 62
     5
 10
-67.939270198273164
 20
13.428333454530099
 30
0.0
 40
59.958621072152461
 50
274.82414017260197
 51
301.93344709995688
  0
ARC
  8
DETAIL
  6
CONTINUOUS
 62
     5
 10
-38.561940249312158
 20
-33.137895691319898
 30
0.0
 40
4.9101531001429004
 50
298.41892039883197
 51
40.809545057167
  0
ARC
  8
DETAIL
  6
CONTINUOUS
 62
     5
 10
73.668845234712649
 20
-31.663897799859281
 30
0.0
 40
94.521849777488143
 50
61.14296608811857
 51
125.7967205786483
  0
ARC
  8
DETAIL
  6
CONTINUOUS
 62
     5
 10
17.264072609019308
 20
45.771288975358907
 30
0.0
 40
3.105585611130421
 50
235.90220910336251
 51
313.6633212638007
  0
ARC
  8
DETAIL
  6
CONTINUOUS
 62
     5
 10
-7.4544504868437116
 20
-0.3171320431985691
 30
0.0
 40
136.7823056296769
 50
342.66751057287678
 51
22.089251872842659
  0
ARC
  8
DETAIL
  6
CONTINUOUS
 62
     5
 10
117.4609350783647
 20
-39.042238445643477
 30
0.0
 40
6.0073444671286094
 50
208.90344426029509
 51
340.30492492870673
  0
ARC
  8
DETAIL
  6
CONTINUOUS
 62
     5
 10
88.568843479459588
 20
-54.661208209462252
 30
0.0
 40
26.836591814979151
 50
28.281810938791789
 51
50.545487649796819
  0
ARC
  8
DETAIL
  6
CONTINUOUS
 62
     5
 10
126.0073448110976
 20
-14.6277367353768
 30
0.0
 40
28.080211377330631
 50
195.23705132503491
 51
223.4522267169794
  0
ARC
  8
DETAIL
  6
CONTINUOUS
 62
     5
 10
47.871758464662783
 20
-48.327290315589103
 30
0.0
 40
57.428757542831526
 50
27.27758139452742
 51
58.24633528170331
  0
ARC
  8
DETAIL
  6
CONTINUOUS
 62
     5
 10
47.056119663682807
 20
-50.794095010712397
 30
0.0
 40
59.958621072152482
 50
58.824140172606313
 51
85.933447099967012
  0
ARC
  8
DETAIL
  6
CONTINUOUS
 62
     5
 10
50.660303232415913
 20
4.1463370279673768
 30
0.0
 40
4.9101531001429004
 50
82.418920398826529
 51
184.80954505715991
  0
ARC
  8
DETAIL
  6
CONTINUOUS
 62
     5
 10
-7.3540548497077793
 20
-79.856051434529888
 30
0.0
 40
94.521849777488143
 50
349.14296608811412
 51
53.796720578653357
  0
ARC
  8
DETAIL
  6
CONTINUOUS
 62
     5
 10
48.861150818201743
 20
-2.2831362025771682
 30
0.0
 40
3.105585611130421
 50
163.9022091033697
 51
241.66332126380311
  0
ARC
  8
DETAIL
  6
CONTINUOUS
 62
     5
 10
-2.609986029722791
 20
6.9834709222937477
 30
0.0
 40
136.7823056296769
 50
270.66751057287962
 51
310.08925187284387
  0
ARC
  8
DETAIL
  6
CONTINUOUS
 62
     5
 10
-0.838773819442963
 20
-123.7848364923524
 30
0.0
 40
6.0073444671286094
 50
136.90344426029239
 51
268.3049249287111
  0
ARC
  8
DETAIL
  6
CONTINUOUS
 62
     5
 10
-24.621444098239071
 20
-101.133351599466
 30
0.0
 40
26.836591814979151
 50
316.28181093879311
 51
338.54548764979262
  0
ARC
  8
DETAIL
  6
CONTINUOUS
 62
     5
 10
25.021782972511179
 20
-124.36845922192801
 30
0.0
 40
28.080211377330631
 50
123.2370513250281
 51
151.4522267169738
  0
ARC
  8
DETAIL
  6
CONTINUOUS
 62
     5
 10
-31.17362110268704
 20
-60.470835431743069
 30
0.0
 40
57.428757542831526
 50
315.2775813945297
 51
346.2463352817183
  0
ARC
  8
DETAIL
  6
CONTINUOUS
 62
     5
 10
-33.77173803318567
 20
-60.457401407725172
 30
0.0
 40
59.958621072152482
 50
346.824140172608
 51
13.933447099962169
  0
ARC
  8
DETAIL
  6
CONTINUOUS
 62
     5
 10
19.59347183885723
 20
-46.907656498438833
 30
0.0
 40
4.9101531001429004
 50
10.41892039882784
 51
112.8095450571666
  0
LINE
  8
DETAIL
  6
CONTINUOUS
 62
     5
 10
173.00979247762521
 20
-115.8663044512252
 30
0.0
 11
172.8355462346409
 21
-119.036362731995
 31
0.0
  0
LINE
  8
DETAIL
  6
CONTINUOUS
 62
     5
 10
172.8356988119543
 20
-123.710105053866
 30
0.0
 11
173.00979247762521
 21
-126.7378219328268
 31
0.0
  0
ARC
  8
DETAIL
  6
CONTINUOUS
 62
     5
 10
170.22534136190859
 20
-189.24617780311189
 30
0.0
 40
1.273176442522596
 50
281.80541735905348
 51
350.17176103714979
  0
ARC
  8
DETAIL
  6
CONTINUOUS
 62
     5
 10
115.8107858893472
 20
-169.93840276750001
 30
0.0
 40
2.4959468217562879
 50
6.4967787181816457
 51
77.885364816969457
  0
ARC
  8
DETAIL
  6
CONTINUOUS
 62
     5
 10
116.0593013716375
 20
-170.2218728443178
 30
0.0
 40
3.3498176730867479
 50
15.394944606116781
 51
85.286788611158656
  0
ARC
  8
DETAIL
  6
CONTINUOUS
 62
     5
 10
115.9729535087539
 20
-187.1889717277256
 30
0.0
 40
2.3254176452131921
 50
277.58302823547439
 51
355.34611628874632
  0
ARC
  8
DETAIL
  6
CONTINUOUS
 62
     5
 10
116.2440371497441
 20
-187.44695920918909
 30
0.0
 40
3.045675301441638
 50
270.67320764502051
 51
1.3040160929068161
  0
LINE
  8
DETAIL
  6
CONTINUOUS
 62
     5
 10
45.418023642130947
 20
-196.17113202035139
 30
0.0
 11
44.279394349403447
 21
-195.96274067164279
 31
0.0
  0
LINE
  8
DETAIL
  6
CONTINUOUS
 62
     5
 10
-119.3048428492378
 20
-187.37771065116721
 30
0.0
 11
-119.3048523971932
 21
-169.33265634751311
 31
0.0
  0
LINE
  8
DETAIL
  6
CONTINUOUS
 62
     5
 10
-118.30662346361019
 20
-187.3776920462789
 30
0.0
 11
-118.30663284043951
 21
-169.65605558524879
 31
0.0
  0
LINE
  8
DETAIL
  6
CONTINUOUS
 62
     5
 10
-116.3504799357672
 20
-167.49810308509939
 30
0.0
 11
-116.350480260994
 21
-166.8834442499128
 31
0.0
  0
LINE
  8
DETAIL
  6
CONTINUOUS
 62
     5
 10
-116.2957401279487
 20
-189.49411436477959
 30
0.0
 11
-116.2957395959988
 21
-190.49248580728019
 31
0.0
  0
LINE
  8
DETAIL
  6
CONTINUOUS
 62
     5
 10
-118.3066234636007
 20
-187.3777101229918
 30
0.0
 11
-119.3048428492378
 21
-187.37771065116721
 31
0.0
  0
ARC
  8
DETAIL
  6
CONTINUOUS
 62
     5
 10
-115.8267142940952
 20
-169.93846404923599
 30
0.0
 40
2.4959468217562879
 50
102.1146654992328
 51
173.50325159802551
  0
ARC
  8
DETAIL
  6
CONTINUOUS
 62
     5
 10
-116.07522962639651
 20
-170.22193425754779
 30
0.0
 40
3.3498176730867479
 50
94.713241705051288
 51
164.60508571008859
  0
ARC
  8
DETAIL
  6
CONTINUOUS
 62
     5
 10
-115.9888727859226
 20
-187.1890330952651
 30
0.0
 40
2.3254176452131921
 50
184.65391402745379
 51
262.41700208072729
  0
ARC
  8
DETAIL
  6
CONTINUOUS
 62
     5
 10
-116.2599562904072
 20
-187.44702072016341
 30
0.0
 40
3.045675301441638
 50
178.69601422329649
 51
269.32682267118241
  0
LINE
  8
DETAIL
  6
CONTINUOUS
 62
     5
 10
-44.096864209484409
 20
-195.96218046186479
 30
0.0
 11
-45.416401939032369
 21
-196.17113202035139
 31
0.0
  0
LINE
  8
DETAIL
  6
CONTINUOUS
 62
     5
 10
-147.75816263845061
 20
-195.6378444818649
 30
0.0
 11
-153.62587518354769
 21
-196.17087029298469
 31
0.0
  0
LINE
  8
DETAIL
  6
CONTINUOUS
 62
     5
 10
-133.78096244345059
 20
-195.6378444818649
 30
0.0
 11
-127.9064318991696
 21
-196.17089899217009
 31
0.0
  0
ARC
  8
DETAIL
  6
CONTINUOUS
 62
     5
 10
-170.28962346364469
 20
-189.309846077157
 30
0.0
 40
1.198478331878414
 50
187.36616064013779
 51
260.65661562112462
  0
LINE
  8
DETAIL
  6
CONTINUOUS
 62
     5
 10
-173.00817077452669
 20
-108.8795405236398
 30
0.0
 11
-172.79991860199129
 21
-111.87441687802421
 31
0.0
  0
LINE
  8
DETAIL
  6
CONTINUOUS
 62
     5
 10
-172.79905111434951
 20
-123.2464034715906
 30
0.0
 11
-173.00817077452669
 21
-126.7359857629137
 31
0.0
  0
ARC
  8
OUTLINE
  6
CONTINUOUS
 62
     3
 10
171.01302425592769
 20
-194.1768096520893
 30
0.0
 40
1.9943317159327929
 50
270.00482804988951
 51
359.99404230909619
  0
ARC
  8
OUTLINE
  6
CONTINUOUS
 62
     3
 10
-171.01157329057369
 20
171.51374131236281
 30
0.0
 40
1.994331716332145
 50
90.004828050097942
 51
179.99404230920041
  0
ARC
  8
OUTLINE
  6
CONTINUOUS
 62
     3
 10
-171.01384840607329
 20
-194.17453453649
 30
0.0
 40
1.9943317160326739
 50
180.0048280499025
 51
269.99404230920038
  0
LINE
  8
OUTLINE
  6
CONTINUOUS
 62
     3
 10
-173.0081872880169
 20
171.52740620270171
 30
0.0
 11
-173.008256143399
 21
-108.8796258926025
 31
0.0
  0
LINE
  8
OUTLINE
  6
CONTINUOUS
 62
     3
 10
-172.8000039708636
 20
-111.87450224698679
 30
0.0
 11
-172.79913648322179
 21
-123.2464888405532
 31
0.0
  0
LINE
  8
OUTLINE
  6
CONTINUOUS
 62
     3
 10
-173.008256143399
 20
-194.17470258955859
 30
0.0
 11
-173.008256143399
 21
-126.7360711318763
 31
0.0
  0
LINE
  8
OUTLINE
  6
CONTINUOUS
 62
     3
 10
-44.096949578356657
 20
-195.96226583082739
 30
0.0
 11
44.279308980531141
 21
-195.96282604060551
 31
0.0
  0
LINE
  8
OUTLINE
  6
CONTINUOUS
 62
     3
 10
-127.9065172680419
 20
-196.1709843611327
 30
0.0
 11
-45.416487307904617
 21
-196.17121738931411
 31
0.0
  0
LINE
  8
OUTLINE
  6
CONTINUOUS
 62
     3
 10
-133.7810478123229
 20
-195.65493919175171
 30
0.0
 11
-147.75824800742279
 21
-195.65493919175171
 31
0.0
  0
LINE
  8
OUTLINE
  6
CONTINUOUS
 62
     3
 10
-153.62596055242
 20
-196.17095566194729
 30
0.0
 11
-171.01174134344339
 21
-196.17121738931411
 31
0.0
  0
LINE
  8
OUTLINE
  6
CONTINUOUS
 62
     3
 10
171.01319230899679
 20
-196.17121738931411
 30
0.0
 11
45.417938273258642
 21
-196.17121738931411
 31
0.0
  0
LINE
  8
OUTLINE
  6
CONTINUOUS
 62
     3
 10
171.01319230909701
 20
-196.17121055007121
 30
0.0
 11
171.04071580398599
 21
-196.1710215514679
 31
0.0
  0
LINE
  8
OUTLINE
  6
CONTINUOUS
 62
     3
 10
-0.0081404330608734
 20
173.5080781337534
 30
0.0
 11
-171.01174134364319
 21
173.50807302170571
 31
0.0
  0
LINE
  8
OUTLINE
  6
CONTINUOUS
 62
     3
 10
173.009652121866
 20
91.977347146634884
 30
0.0
 11
173.00970710875279
 21
-115.86638982018781
 31
0.0
  0
LINE
  8
OUTLINE
  6
CONTINUOUS
 62
     3
 10
173.00963825337081
 20
-194.19047454192901
 30
0.0
 11
173.00970710875279
 21
-126.73790730178941
 31
0.0
  0
LINE
  8
OUTLINE
  6
CONTINUOUS
 62
     3
 10
172.835613443082
 20
-123.7101904228286
 30
0.0
 11
172.8354608657686
 21
-119.0364481009576
 31
0.0
  0
ARC
  8
OUTLINE
  6
CONTINUOUS
 62
     3
 10
170.99529347966561
 20
171.513831793284
 30
0.0
 40
1.994331716332145
 50
0.0059880070009588
 51
89.995202266109942
  0
LINE
  8
OUTLINE
  6
CONTINUOUS
 62
     3
 10
172.99190746987821
 20
171.52749774006659
 30
0.0
 11
172.99212469354819
 21
-108.8795343551603
 31
0.0
  0
LINE
  8
OUTLINE
  6
CONTINUOUS
 62
     3
 10
-0.0081404330609871
 20
173.50807660785429
 30
0.0
 11
170.99546047749911
 21
173.50816350271609
 31
0.0
  0
LINE
  8
OUTLINE
  6
CONTINUOUS
 62
     3
 10
173.00970710875279
 20
-115.86638982018781
 30
0.0
 11
172.8354608657686
 21
-119.0364481009576
 31
0.0
  0
LINE
  8
OUTLINE
  6
CONTINUOUS
 62
     3
 10
172.835613443082
 20
-123.7101904228286
 30
0.0
 11
173.00970710875279
 21
-126.73790730178941
 31
0.0
  0
LINE
  8
OUTLINE
  6
CONTINUOUS
 62
     3
 10
45.417938273258642
 20
-196.17121738931411
 30
0.0
 11
44.279308980531141
 21
-195.96282604060551
 31
0.0
  0
LINE
  8
OUTLINE
  6
CONTINUOUS
 62
     3
 10
-44.096949578356657
 20
-195.96226583082739
 30
0.0
 11
-45.416487307904617
 21
-196.17121738931411
 31
0.0
  0
LINE
  8
OUTLINE
  6
CONTINUOUS
 62
     3
 10
-147.75824800732289
 20
-195.6379298508275
 30
0.0
 11
-153.62596055242
 21
-196.17095566194729
 31
0.0
  0
LINE
  8
OUTLINE
  6
CONTINUOUS
 62
     3
 10
-133.7810478123229
 20
-195.6379298508275
 30
0.0
 11
-127.9065172680419
 21
-196.1709843611327
 31
0.0
  0
LINE
  8
OUTLINE
  6
CONTINUOUS
 62
     3
 10
-173.008256143399
 20
-108.8796258926025
 30
0.0
 11
-172.8000039708636
 21
-111.87450224698679
 31
0.0
  0
LINE
  8
OUTLINE
  6
CONTINUOUS
 62
     3
 10
-172.79913648322179
 20
-123.2464888405532
 30
0.0
 11
-173.008256143399
 21
-126.7360711318763
 31
0.0
  0
LINE
  8
NOTE
  6
CONTINUOUS
 62
     4
 10
-260.72723684372602
 20
-227.5212638579471
 30
0.0
 11
-180.3759942737783
 21
-129.05187467670089
 31
0.0
  0
LINE
  8
NOTE
  6
CONTINUOUS
 62
     4
 10
-380.53381584372619
 20
-227.5212638579471
 30
0.0
 11
-260.72723684372602
 21
-227.5212638579471
 31
0.0
  0
TEXT
  8
NOTE
  6
CONTINUOUS
 62
     4
 10
-363.52257327229768
 20
-206.23101785794731
 30
0.0
 40
64.0
  1
EL
 41
0.9
  0
LINE
  8
NOTE
  6
CONTINUOUS
 62
     4
 10
-175.34097334366999
 20
-125.41411939035039
 30
0.0
 11
-172.79940349399291
 21
-119.7462166045563
 31
0.0
  0
LINE
  8
NOTE
  6
CONTINUOUS
 62
     4
 10
-172.79940349399291
 20
-119.7462166045563
 30
0.0
 11
-177.83442442410109
 21
-123.38397189090691
 31
0.0
  0
LINE
  8
NOTE
  6
CONTINUOUS
 62
     4
 10
-172.79940349399291
 20
-119.7462166045563
 30
0.0
 11
-180.37599427377839
 21
-129.05187467670089
 31
0.0
  0
LINE
  8
SIZE
  6
CONTINUOUS
 62
    30
 10
-190.74582370569669
 20
173.24232612159429
 30
0.0
 11
-409.85389946215122
 21
173.24232612159429
 31
0.0
  0
LINE
  8
SIZE
  6
CONTINUOUS
 62
    30
 10
-236.20320074577111
 20
0.5
 30
0.0
 11
-409.85389946215128
 21
0.5000000000000568
 31
0.0
  0
LINE
  8
SIZE
  6
CONTINUOUS
 62
    30
 10
-389.85389946215128
 20
12.50000000000006
 30
0.0
 11
-389.85389946215122
 21
161.24232612159429
 31
0.0
  0
LINE
  8
SIZE
  6
CONTINUOUS
 62
    30
 10
-389.85389946215122
 20
173.24232612159429
 30
0.0
 11
-389.85389946215122
 21
372.3851832644516
 31
0.0
  0
CIRCLE
  8
SIZE
  6
CONTINUOUS
 62
    30
 10
-389.85389946215128
 20
0.5000000000000568
 30
0.0
 40
6.0
  0
LINE
  8
SIZE
  6
CONTINUOUS
 62
    30
 10
-389.85389946215128
 20
0.5000000000000568
 30
0.0
 11
-389.85389946215128
 21
12.50000000000006
 31
0.0
  0
CIRCLE
  8
SIZE
  6
CONTINUOUS
 62
    30
 10
-389.85389946215122
 20
173.24232612159429
 30
0.0
 40
6.0
  0
LINE
  8
SIZE
  6
CONTINUOUS
 62
    30
 10
-389.85389946215122
 20
173.24232612159429
 30
0.0
 11
-389.85389946215122
 21
161.24232612159429
 31
0.0
  0
TEXT
  8
SIZE
  6
CONTINUOUS
 62
    30
 10
-414.85389946215128
 20
210.2423261215944
 30
0.0
 40
64.0
  1
173
 50
90.0
 41
0.9
 72
     1
 11
-414.85389946215128
 21
278.81375469302287
 31
0.0
  0
ENDSEC
  0
EOF
