  0
SECTION
  2
HEADER
  9
$ACADVER
  1
AC1009
  9
$DWGCODEPAGE
  3
dos932
  9
$INSBASE
 10
0.0
 20
0.0
 30
0.0
  9
$EXTMIN
 10
-235.20353523223281
 20
-348.63280068225322
 30
-0.0032900185003228
  9
$EXTMAX
 10
1344.6029782465209
 20
564.60572088207664
 30
0.0011208907433655
  9
$LIMMIN
 10
-2970.0
 20
-2100.0
  9
$LIMMAX
 10
2970.0
 20
2100.0
  9
$ORTHOMODE
 70
     1
  9
$REGENMODE
 70
     1
  9
$FILLMODE
 70
     1
  9
$QTEXTMODE
 70
     0
  9
$MIRRTEXT
 70
     0
  9
$LTSCALE
 40
20.0
  9
$ATTMODE
 70
     1
  9
$TEXTSIZE
 40
64.0
  9
$TRACEWID
 40
0.05
  9
$TEXTSTYLE
  7
STANDARD
  9
$CLAYER
  8
NOTE
  9
$CELTYPE
  6
CONTINUOUS
  9
$CECOLOR
 62
     7
  9
$DIMSCALE
 40
1.0
  9
$DIMASZ
 40
12.0
  9
$DIMEXO
 40
20.0
  9
$DIMDLI
 40
200.0
  9
$DIMRND
 40
0.0
  9
$DIMDLE
 40
0.0
  9
$DIMEXE
 40
20.0
  9
$DIMTP
 40
0.0
  9
$DIMTM
 40
0.0
  9
$DIMTXT
 40
64.0
  9
$DIMCEN
 40
0.09
  9
$DIMTSZ
 40
0.0
  9
$DIMTOL
 70
     0
  9
$DIMLIM
 70
     0
  9
$DIMTIH
 70
     0
  9
$DIMTOH
 70
     0
  9
$DIMSE1
 70
     0
  9
$DIMSE2
 70
     0
  9
$DIMTAD
 70
     1
  9
$DIMZIN
 70
     8
  9
$DIMBLK
  1

  9
$DIMASO
 70
     1
  9
$DIMSHO
 70
     0
  9
$DIMPOST
  1

  9
$DIMAPOST
  1

  9
$DIMALT
 70
     0
  9
$DIMALTD
 70
     2
  9
$DIMALTF
 40
25.399999999999999
  9
$DIMLFAC
 40
1.0
  9
$DIMTOFL
 70
     1
  9
$DIMTVP
 40
0.0
  9
$DIMTIX
 70
     1
  9
$DIMSOXD
 70
     0
  9
$DIMSAH
 70
     0
  9
$DIMBLK1
  1

  9
$DIMBLK2
  1

  9
$DIMSTYLE
  2
STANDARD
  9
$DIMCLRD
 70
     7
  9
$DIMCLRE
 70
     7
  9
$DIMCLRT
 70
     7
  9
$DIMTFAC
 40
1.0
  9
$DIMGAP
 40
25.0
  9
$LUNITS
 70
     2
  9
$LUPREC
 70
     4
  9
$SKETCHINC
 40
0.1
  9
$FILLETRAD
 40
3.0
  9
$AUNITS
 70
     1
  9
$AUPREC
 70
     3
  9
$MENU
  1
ACAD
  9
$ELEVATION
 40
0.0
  9
$PELEVATION
 40
0.0
  9
$THICKNESS
 40
50.0
  9
$LIMCHECK
 70
     0
  9
$CHAMFERA
 40
0.0
  9
$CHAMFERB
 40
0.0
  9
$SKPOLY
 70
     0
  9
$TDCREATE
 40
2453019.62301037
  9
$TDUPDATE
 40
2459017.511091597
  9
$TDINDWG
 40
1.7272954861
  9
$TDUSRTIMER
 40
1.7272954861
  9
$USRTIMER
 70
     1
  9
$ANGBASE
 50
0.0
  9
$ANGDIR
 70
     0
  9
$PDMODE
 70
     3
  9
$PDSIZE
 40
-2.0
  9
$PLINEWID
 40
0.0
  9
$SPLFRAME
 70
     0
  9
$SPLINETYPE
 70
     6
  9
$SPLINESEGS
 70
     8
  9
$SURFTAB1
 70
     6
  9
$SURFTAB2
 70
     6
  9
$SURFTYPE
 70
     6
  9
$SURFU
 70
     6
  9
$SURFV
 70
     6
  9
$UCSNAME
  2

  9
$UCSORG
 10
0.0
 20
0.0
 30
0.0
  9
$UCSXDIR
 10
1.0
 20
0.0
 30
0.0
  9
$UCSYDIR
 10
0.0
 20
1.0
 30
0.0
  9
$PUCSNAME
  2

  9
$PUCSORG
 10
0.0
 20
0.0
 30
0.0
  9
$PUCSXDIR
 10
1.0
 20
0.0
 30
0.0
  9
$PUCSYDIR
 10
0.0
 20
1.0
 30
0.0
  9
$USERI1
 70
     0
  9
$USERI2
 70
     0
  9
$USERI3
 70
     0
  9
$USERI4
 70
     0
  9
$USERI5
 70
     0
  9
$USERR1
 40
20.0
  9
$USERR2
 40
0.0
  9
$USERR3
 40
0.0
  9
$USERR4
 40
0.0
  9
$USERR5
 40
0.0
  9
$WORLDVIEW
 70
     1
  9
$SHADEDGE
 70
     3
  9
$SHADEDIF
 70
    70
  9
$TILEMODE
 70
     1
  9
$MAXACTVP
 70
    48
  9
$PINSBASE
 10
0.0
 20
0.0
 30
0.0
  9
$PLIMCHECK
 70
     0
  9
$PEXTMIN
 10
-100000000000000000000.0
 20
-100000000000000000000.0
 30
-100000000000000000000.0
  9
$PEXTMAX
 10
100000000000000000000.0
 20
100000000000000000000.0
 30
100000000000000000000.0
  9
$PLIMMIN
 10
0.0
 20
0.0
  9
$PLIMMAX
 10
12.0
 20
9.0
  9
$UNITMODE
 70
     0
  9
$VISRETAIN
 70
     0
  9
$PLINEGEN
 70
     0
  9
$PSLTSCALE
 70
     0
  9
$TREEDEPTH
 70
  3020
  9
$ATTDIA
 70
     0
  9
$ATTREQ
 70
     1
  9
$BLIPMODE
 70
     1
  9
$COORDS
 70
     1
  9
$DRAGMODE
 70
     2
  9
$OSMODE
 70
     0
  9
$HANDLING
 70
     0
  9
$HANDSEED
  5
EBD9
  0
ENDSEC
  0
SECTION
  2
TABLES
  0
TABLE
  2
LTYPE
 70
     2
  0
LTYPE
  2
CONTINUOUS
 70
     0
  3
実線
 72
    65
 73
     0
 40
0.0
  0
LTYPE
  2
DASHDOT
 70
     0
  3
____ _ ____ _ ____ _ ____ _ ____ _ ____ _ ____
 72
    65
 73
     4
 40
5.5
 49
4.0
 49
-0.6
 49
0.3
 49
-0.6
  0
ENDTAB
  0
TABLE
  2
LAYER
 70
    12
  0
LAYER
  2
0
 70
     0
 62
     7
  6
CONTINUOUS
  0
LAYER
  2
BASIS
 70
     0
 62
     6
  6
DASHDOT
  0
LAYER
  2
OUTLINE
 70
     0
 62
     3
  6
CONTINUOUS
  0
LAYER
  2
DETAIL
 70
     0
 62
     5
  6
CONTINUOUS
  0
LAYER
  2
SIZE
 70
     0
 62
    30
  6
CONTINUOUS
  0
LAYER
  2
ARRANGE
 70
     0
 62
     1
  6
CONTINUOUS
  0
LAYER
  2
ETC
 70
     0
 62
    61
  6
CONTINUOUS
  0
LAYER
  2
FIX
 70
     0
 62
    11
  6
CONTINUOUS
  0
LAYER
  2
NOTE
 70
     0
 62
     4
  6
CONTINUOUS
  0
LAYER
  2
DEFPOINTS
 70
    64
 62
     7
  6
CONTINUOUS
  0
LAYER
  2
SERVICESPACE
 70
    64
 62
     2
  6
DASHDOT
  0
LAYER
  2
SYMBOLLINE
 70
    64
 62
    15
  6
CONTINUOUS
  0
ENDTAB
  0
TABLE
  2
STYLE
 70
     1
  0
STYLE
  2
STANDARD
 70
     0
 40
64.0
 41
0.9
 50
0.0
 71
     0
 42
64.0
  3
SIMPLEX.shx
  4
BIGFONT.shx
  0
ENDTAB
  0
TABLE
  2
APPID
 70
    17
  0
APPID
  2
ACAD
 70
     0
  0
APPID
  2
AUTOCAD_POSTSCRIPT_FIGURE
 70
     0
  0
APPID
  2
ACAD_EXEMPT_FROM_CAD_STANDARDS
 70
     0
  0
APPID
  2
ACAD_PSEXT
 70
     0
  0
APPID
  2
ACAUTHENVIRON
 70
     0
  0
APPID
  2
GENIUS_GENOENT_13
 70
     0
  0
APPID
  2
GENIUS_GENCFG_13
 70
     0
  0
APPID
  2
GENIUS_GENCFG0_13
 70
     0
  0
APPID
  2
GENIUS_GENCFG1_13
 70
     0
  0
APPID
  2
GENIUS_GENCFG2_13
 70
     0
  0
APPID
  2
GENIUS_GENCFG3_13
 70
     0
  0
APPID
  2
GENIUS_GENCFG4_13
 70
     0
  0
APPID
  2
GENIUS_GEVCFG0_13
 70
     0
  0
APPID
  2
CONTENTBLOCKICON
 70
     0
  0
APPID
  2
CONTENTBLOCKDESCRIPTION
 70
     0
  0
APPID
  2
ACAD_NAV_VCDISPLAY
 70
     0
  0
APPID
  2
ACAD_MLEADERVER
 70
     0
  0
ENDTAB
  0
TABLE
  2
DIMSTYLE
 70
     1
  0
DIMSTYLE
  2
STANDARD
 70
     0
  3

  4

  5
_ORIGIN
  6

  7

 40
1.0
 41
12.0
 42
20.0
 43
200.0
 44
20.0
 45
0.0
 46
0.0
 47
0.0
 48
0.0
140
64.0
141
0.09
142
0.0
143
25.399999999999999
144
1.0
145
0.0
146
1.0
147
25.0
 71
     0
 72
     0
 73
     0
 74
     0
 75
     0
 76
     0
 77
     1
 78
     8
170
     0
171
     2
172
     1
173
     0
174
     1
175
     0
176
     7
177
     7
178
     7
  0
ENDTAB
  0
TABLE
  2
VIEW
 70
     1
  0
VIEW
  2
ALL
 70
     0
 40
4282.6198079999986
 10
0.0
 20
41.309904000000003
 41
5940.0
 11
0.0
 21
0.0
 31
1.0
 12
0.0
 22
0.0
 32
0.0
 42
50.0
 43
0.0
 44
0.0
 50
0.0
 71
     0
  0
ENDTAB
  0
TABLE
  2
UCS
 70
     0
  0
ENDTAB
  0
TABLE
  2
VPORT
 70
     1
  0
VPORT
  2
*ACTIVE
 70
     0
 10
0.0
 20
0.0
 11
1.0
 21
1.0
 12
554.6997215071442
 22
107.9864600999117
 13
0.0
 23
0.0
 14
1.0
 24
1.0
 15
0.0
 25
0.0
 16
0.0
 26
0.0
 36
1.0
 17
0.0
 27
0.0
 37
0.0
 40
587.12865839000074
 41
2.2114384748700169
 42
50.0
 43
0.0
 44
0.0
 50
0.0
 51
0.0
 71
     0
 72
  1000
 73
     1
 74
     3
 75
     0
 76
     0
 77
     0
 78
     0
  0
ENDTAB
  0
ENDSEC
  0
SECTION
  2
BLOCKS
  0
BLOCK
  8
0
  2
_ORIGIN
 70
     0
 10
0.0
 20
0.0
 30
0.0
  3
_ORIGIN
  1
_ORIGIN
  0
CIRCLE
  8
0
  6
CONTINUOUS
 62
     7
 10
0.0
 20
0.0
 30
0.0
 40
0.5
  0
LINE
  8
0
  6
CONTINUOUS
 62
     7
 10
0.0
 20
0.0
 30
0.0
 11
-1.0
 21
0.0
 31
0.0
  0
ENDBLK
  8
0
  0
ENDSEC
  0
SECTION
  2
ENTITIES
  0
CIRCLE
  8
ARRANGE
  6
CONTINUOUS
 62
     1
 10
0.0
 20
0.0
 30
0.0
 40
40.0
  0
POINT
  8
ARRANGE
  6
CONTINUOUS
 62
     1
 10
0.0
 20
0.0
 30
0.0
  0
LINE
  8
SIZE
  6
CONTINUOUS
 62
    30
 10
-31.543316869062441
 20
183.6696035639084
 30
0.0
 11
-31.543316869062441
 21
424.01129067666352
 31
0.0
  0
LINE
  8
SIZE
  6
CONTINUOUS
 62
    30
 10
-0.0000000000001137
 20
192.50979590482621
 30
0.0
 11
0.0
 21
424.01129067666352
 31
0.0
  0
LINE
  8
SIZE
  6
CONTINUOUS
 62
    30
 10
12.0
 20
404.01129067666352
 30
0.0
 11
24.0
 21
404.01129067666352
 31
0.0
  0
LINE
  8
SIZE
  6
CONTINUOUS
 62
    30
 10
-43.543316869062437
 20
404.01129067666352
 30
0.0
 11
-222.15670972620521
 21
404.01129067666352
 31
0.0
  0
LINE
  8
SIZE
  6
CONTINUOUS
 62
    30
 10
0.0
 20
404.01129067666352
 30
0.0
 11
-31.543316869062441
 21
404.01129067666352
 31
0.0
  0
CIRCLE
  8
SIZE
  6
CONTINUOUS
 62
    30
 10
0.0
 20
404.01129067666352
 30
0.0
 40
6.0
  0
LINE
  8
SIZE
  6
CONTINUOUS
 62
    30
 10
0.0
 20
404.01129067666352
 30
0.0
 11
12.0
 21
404.01129067666352
 31
0.0
  0
CIRCLE
  8
SIZE
  6
CONTINUOUS
 62
    30
 10
-31.543316869062441
 20
404.01129067666352
 30
0.0
 40
6.0
  0
LINE
  8
SIZE
  6
CONTINUOUS
 62
    30
 10
-31.543316869062441
 20
404.01129067666352
 30
0.0
 11
-43.543316869062437
 21
404.01129067666352
 31
0.0
  0
TEXT
  8
SIZE
  6
CONTINUOUS
 62
    30
 10
-197.15670972620529
 20
429.01129067666352
 30
0.0
 40
64.0
  1
32
 41
0.9
 72
     1
 11
-150.52813829763389
 21
429.01129067666352
 31
0.0
  0
LINE
  8
SIZE
  6
CONTINUOUS
 62
    30
 10
-0.0000000000001137
 20
192.50979590482621
 30
0.0
 11
0.0
 21
281.93665448490037
 31
0.0
  0
LINE
  8
SIZE
  6
CONTINUOUS
 62
    30
 10
29.633861499843931
 20
162.85711512750731
 30
0.0
 11
29.633861499843931
 21
281.93665448490037
 31
0.0
  0
LINE
  8
SIZE
  6
CONTINUOUS
 62
    30
 10
41.633861499843931
 20
261.93665448490037
 30
0.0
 11
53.633861499843931
 21
261.93665448490037
 31
0.0
  0
LINE
  8
SIZE
  6
CONTINUOUS
 62
    30
 10
-12.0
 20
261.93665448490037
 30
0.0
 11
-167.25714285714281
 21
261.93665448490037
 31
0.0
  0
LINE
  8
SIZE
  6
CONTINUOUS
 62
    30
 10
29.633861499843931
 20
261.93665448490037
 30
0.0
 11
0.0
 21
261.93665448490037
 31
0.0
  0
CIRCLE
  8
SIZE
  6
CONTINUOUS
 62
    30
 10
29.633861499843931
 20
261.93665448490037
 30
0.0
 40
6.0
  0
LINE
  8
SIZE
  6
CONTINUOUS
 62
    30
 10
29.633861499843931
 20
261.93665448490037
 30
0.0
 11
41.633861499843931
 21
261.93665448490037
 31
0.0
  0
CIRCLE
  8
SIZE
  6
CONTINUOUS
 62
    30
 10
0.0
 20
261.93665448490037
 30
0.0
 40
6.0
  0
LINE
  8
SIZE
  6
CONTINUOUS
 62
    30
 10
0.0
 20
261.93665448490037
 30
0.0
 11
-12.0
 21
261.93665448490037
 31
0.0
  0
TEXT
  8
SIZE
  6
CONTINUOUS
 62
    30
 10
-142.2571428571429
 20
286.93665448490037
 30
0.0
 40
64.0
  1
30
 41
0.9
 72
     1
 11
-95.628571428571433
 21
286.93665448490037
 31
0.0
  0
LINE
  8
SIZE
  6
CONTINUOUS
 62
    30
 10
-0.0000000000001137
 20
192.50979590482621
 30
0.0
 11
0.0
 21
424.01129067666352
 31
0.0
  0
LINE
  8
SIZE
  6
CONTINUOUS
 62
    30
 10
89.85829217265632
 20
159.11434531321669
 30
0.0
 11
89.85829217265632
 21
424.01129067666352
 31
0.0
  0
LINE
  8
SIZE
  6
CONTINUOUS
 62
    30
 10
12.0
 20
404.01129067666352
 30
0.0
 11
77.85829217265632
 21
404.01129067666352
 31
0.0
  0
CIRCLE
  8
SIZE
  6
CONTINUOUS
 62
    30
 10
0.0
 20
404.01129067666352
 30
0.0
 40
6.0
  0
LINE
  8
SIZE
  6
CONTINUOUS
 62
    30
 10
0.0
 20
404.01129067666352
 30
0.0
 11
12.0
 21
404.01129067666352
 31
0.0
  0
CIRCLE
  8
SIZE
  6
CONTINUOUS
 62
    30
 10
89.85829217265632
 20
404.01129067666352
 30
0.0
 40
6.0
  0
LINE
  8
SIZE
  6
CONTINUOUS
 62
    30
 10
89.85829217265632
 20
404.01129067666352
 30
0.0
 11
77.85829217265632
 21
404.01129067666352
 31
0.0
  0
TEXT
  8
SIZE
  6
CONTINUOUS
 62
    30
 10
-1.6994253422432659
 20
429.01129067666352
 30
0.0
 40
64.0
  1
90
 41
0.9
 72
     1
 11
44.92914608632816
 21
429.01129067666352
 31
0.0
  0
LINE
  8
SIZE
  6
CONTINUOUS
 62
    30
 10
89.853429824999807
 20
164.7139405903763
 30
0.0
 11
89.853429824999807
 21
424.01129067666352
 31
0.0
  0
LINE
  8
SIZE
  6
CONTINUOUS
 62
    30
 10
157.9515873085841
 20
112.9008146082939
 30
0.0
 11
157.9515873085841
 21
424.01129067666352
 31
0.0
  0
LINE
  8
SIZE
  6
CONTINUOUS
 62
    30
 10
77.853429824999807
 20
404.01129067666352
 30
0.0
 11
65.853429824999807
 21
404.01129067666352
 31
0.0
  0
LINE
  8
SIZE
  6
CONTINUOUS
 62
    30
 10
169.9515873085841
 20
404.01129067666352
 30
0.0
 11
325.20873016572682
 21
404.01129067666352
 31
0.0
  0
LINE
  8
SIZE
  6
CONTINUOUS
 62
    30
 10
89.853429824999807
 20
404.01129067666352
 30
0.0
 11
157.9515873085841
 21
404.01129067666352
 31
0.0
  0
CIRCLE
  8
SIZE
  6
CONTINUOUS
 62
    30
 10
89.853429824999807
 20
404.01129067666352
 30
0.0
 40
6.0
  0
LINE
  8
SIZE
  6
CONTINUOUS
 62
    30
 10
89.853429824999807
 20
404.01129067666352
 30
0.0
 11
77.853429824999807
 21
404.01129067666352
 31
0.0
  0
CIRCLE
  8
SIZE
  6
CONTINUOUS
 62
    30
 10
157.9515873085841
 20
404.01129067666352
 30
0.0
 40
6.0
  0
LINE
  8
SIZE
  6
CONTINUOUS
 62
    30
 10
157.9515873085841
 20
404.01129067666352
 30
0.0
 11
169.9515873085841
 21
404.01129067666352
 31
0.0
  0
TEXT
  8
SIZE
  6
CONTINUOUS
 62
    30
 10
206.9515873085841
 20
429.01129067666352
 30
0.0
 40
64.0
  1
68
 41
0.9
 72
     1
 11
253.5801587371555
 21
429.01129067666352
 31
0.0
  0
LINE
  8
SIZE
  6
CONTINUOUS
 62
    30
 10
109.85342982499979
 20
144.7139405903763
 30
0.0
 11
469.51412911823041
 21
144.71394059037621
 31
0.0
  0
LINE
  8
SIZE
  6
CONTINUOUS
 62
    30
 10
109.85342982499979
 20
-145.21394059037451
 30
0.0
 11
469.51412911823041
 21
-145.21394059037459
 31
0.0
  0
LINE
  8
SIZE
  6
CONTINUOUS
 62
    30
 10
449.51412911823041
 20
132.71394059037621
 30
0.0
 11
449.51412911823041
 21
-133.21394059037459
 31
0.0
  0
CIRCLE
  8
SIZE
  6
CONTINUOUS
 62
    30
 10
449.51412911823041
 20
144.71394059037621
 30
0.0
 40
6.0
  0
LINE
  8
SIZE
  6
CONTINUOUS
 62
    30
 10
449.51412911823041
 20
144.71394059037621
 30
0.0
 11
449.51412911823041
 21
132.71394059037621
 31
0.0
  0
CIRCLE
  8
SIZE
  6
CONTINUOUS
 62
    30
 10
449.51412911823041
 20
-145.21394059037459
 30
0.0
 40
6.0
  0
LINE
  8
SIZE
  6
CONTINUOUS
 62
    30
 10
449.51412911823041
 20
-145.21394059037459
 30
0.0
 11
449.51412911823041
 21
-133.21394059037459
 31
0.0
  0
TEXT
  8
SIZE
  6
CONTINUOUS
 62
    30
 10
424.51412911823041
 20
-116.34282138959411
 30
0.0
 40
64.0
  1
□290
 50
90.0
 41
0.9
 72
     1
 11
424.51412911823041
 21
-5.8056785324512816
 31
0.0
  0
LINE
  8
SIZE
  6
CONTINUOUS
 62
    30
 10
-35.815217010339268
 20
-47.217096601164883
 30
0.0
 11
-35.815217010339268
 21
-342.80592568564822
 31
0.0
  0
LINE
  8
SIZE
  6
CONTINUOUS
 62
    30
 10
0.0000000000001137
 20
-216.17119909207489
 30
0.0
 11
0.0
 21
-342.80592568564822
 31
0.0
  0
LINE
  8
SIZE
  6
CONTINUOUS
 62
    30
 10
12.0
 20
-322.80592568564822
 30
0.0
 11
24.0
 21
-322.80592568564822
 31
0.0
  0
LINE
  8
SIZE
  6
CONTINUOUS
 62
    30
 10
-47.815217010339268
 20
-322.80592568564822
 30
0.0
 11
-234.94906682795011
 21
-322.80592568564822
 31
0.0
  0
LINE
  8
SIZE
  6
CONTINUOUS
 62
    30
 10
0.0
 20
-322.80592568564822
 30
0.0
 11
-35.815217010339268
 21
-322.80592568564822
 31
0.0
  0
CIRCLE
  8
SIZE
  6
CONTINUOUS
 62
    30
 10
0.0
 20
-322.80592568564822
 30
0.0
 40
6.0
  0
LINE
  8
SIZE
  6
CONTINUOUS
 62
    30
 10
0.0
 20
-322.80592568564822
 30
0.0
 11
12.0
 21
-322.80592568564822
 31
0.0
  0
CIRCLE
  8
SIZE
  6
CONTINUOUS
 62
    30
 10
-35.815217010339268
 20
-322.80592568564822
 30
0.0
 40
6.0
  0
LINE
  8
SIZE
  6
CONTINUOUS
 62
    30
 10
-35.815217010339268
 20
-322.80592568564822
 30
0.0
 11
-47.815217010339268
 21
-322.80592568564822
 31
0.0
  0
TEXT
  8
SIZE
  6
CONTINUOUS
 62
    30
 10
-209.94906682795011
 20
-297.80592568564822
 30
0.0
 40
64.0
  1
36
 41
0.9
 72
     1
 11
-164.69192397080721
 21
-297.80592568564822
 31
0.0
  0
LINE
  8
SIZE
  6
CONTINUOUS
 62
    30
 10
19.492102286673461
 20
173.00890559769499
 30
0.0
 11
717.56570900367569
 21
173.00890559769479
 31
0.0
  0
LINE
  8
SIZE
  6
CONTINUOUS
 62
    30
 10
20.0
 20
-196.67917417250709
 30
0.0
 11
717.56570900367569
 21
-196.67917417250729
 31
0.0
  0
LINE
  8
SIZE
  6
CONTINUOUS
 62
    30
 10
697.56570900367569
 20
161.00890559769479
 30
0.0
 11
697.56570900367569
 21
-184.67917417250729
 31
0.0
  0
CIRCLE
  8
SIZE
  6
CONTINUOUS
 62
    30
 10
697.56570900367569
 20
173.00890559769479
 30
0.0
 40
6.0
  0
LINE
  8
SIZE
  6
CONTINUOUS
 62
    30
 10
697.56570900367569
 20
173.00890559769479
 30
0.0
 11
697.56570900367569
 21
161.00890559769479
 31
0.0
  0
CIRCLE
  8
SIZE
  6
CONTINUOUS
 62
    30
 10
697.56570900367569
 20
-196.67917417250729
 30
0.0
 40
6.0
  0
LINE
  8
SIZE
  6
CONTINUOUS
 62
    30
 10
697.56570900367569
 20
-196.67917417250729
 30
0.0
 11
697.56570900367569
 21
-184.67917417250729
 31
0.0
  0
TEXT
  8
SIZE
  6
CONTINUOUS
 62
    30
 10
672.56570900367558
 20
-93.385500677270358
 30
0.0
 40
64.0
  1
370
 50
90.0
 41
0.9
 72
     1
 11
672.56570900367558
 21
-19.328357820127511
 31
0.0
  0
CIRCLE
  8
FIX
  6
CONTINUOUS
 62
    11
 10
0.0
 20
157.5
 30
0.0
 40
5.78125
  0
CIRCLE
  8
FIX
  6
CONTINUOUS
 62
    11
 10
0.0
 20
-157.50000000000011
 30
0.0
 40
5.78125
  0
LINE
  8
BASIS
  6
DASHDOT
 62
     6
 10
-13.343672752751671
 20
-157.50000000000011
 30
0.0
 11
13.34367275275179
 21
-157.50000000000011
 31
0.0
  0
LINE
  8
SIZE
  6
CONTINUOUS
 62
    30
 10
30.044326892209821
 20
157.5
 30
0.0
 11
599.22917599876882
 21
157.4999999999998
 31
0.0
  0
LINE
  8
SIZE
  6
CONTINUOUS
 62
    30
 10
33.343672752751793
 20
-157.50000000000011
 30
0.0
 11
599.22917599876882
 21
-157.50000000000031
 31
0.0
  0
LINE
  8
SIZE
  6
CONTINUOUS
 62
    30
 10
579.22917599876882
 20
145.4999999999998
 30
0.0
 11
579.22917599876882
 21
-145.50000000000031
 31
0.0
  0
CIRCLE
  8
SIZE
  6
CONTINUOUS
 62
    30
 10
579.22917599876882
 20
157.4999999999998
 30
0.0
 40
6.0
  0
LINE
  8
SIZE
  6
CONTINUOUS
 62
    30
 10
579.22917599876882
 20
157.4999999999998
 30
0.0
 11
579.22917599876882
 21
145.4999999999998
 31
0.0
  0
CIRCLE
  8
SIZE
  6
CONTINUOUS
 62
    30
 10
579.22917599876882
 20
-157.50000000000031
 30
0.0
 40
6.0
  0
LINE
  8
SIZE
  6
CONTINUOUS
 62
    30
 10
579.22917599876882
 20
-157.50000000000031
 30
0.0
 11
579.22917599876882
 21
-145.50000000000031
 31
0.0
  0
TEXT
  8
SIZE
  6
CONTINUOUS
 62
    30
 10
554.22917599876882
 20
-65.68820754595238
 30
0.0
 40
64.0
  1
315
 50
90.0
 41
0.9
 72
     1
 11
554.22917599876882
 21
2.883221025476189
 31
0.0
  0
TEXT
  8
NOTE
  6
CONTINUOUS
 62
     4
 10
137.2839526822068
 20
-319.66658045885288
 30
0.0
 40
64.0
  1
4-φ5×8
 41
0.9
  0
LINE
  8
NOTE
  6
CONTINUOUS
 62
     4
 10
1.998909605023528
 20
-164.39846268882289
 30
0.0
 11
0.0
 21
-157.50000000000011
 31
0.0
  0
LINE
  8
NOTE
  6
CONTINUOUS
 62
     4
 10
0.0
 20
-157.50000000000011
 30
0.0
 11
5.180345338951895
 21
-162.47478132658469
 31
0.0
  0
LINE
  8
NOTE
  6
CONTINUOUS
 62
     4
 10
0.0
 20
-157.50000000000011
 30
0.0
 11
7.1792549439753657
 21
-169.37324401540741
 31
0.0
  0
LINE
  8
NOTE
  6
CONTINUOUS
 62
     4
 10
7.1792549439753657
 20
-169.37324401540741
 30
0.0
 11
116.391578497816
 21
-348.61748237713073
 31
0.0
  0
LINE
  8
NOTE
  6
CONTINUOUS
 62
     4
 10
116.391578497816
 20
-348.61748237713073
 30
0.0
 11
502.10383034491588
 21
-348.61748237713073
 31
0.0
  0
LINE
  8
BASIS
  6
DASHDOT
 62
     6
 10
184.2001575612112
 20
0.0
 30
0.0
 11
-65.806499800701204
 21
0.0
 31
0.0
  0
ARC
  8
DETAIL
  6
CONTINUOUS
 62
     5
 10
157.32031641139841
 20
7.0787772328931169
 30
0.0
 40
0.2695602894748322
 50
231.56687775723569
 51
336.00000000000472
  0
ARC
  8
DETAIL
  6
CONTINUOUS
 62
     5
 10
157.45907615256189
 20
7.3904367142749834
 30
0.0
 40
0.2695602894751238
 50
336.00000000000472
 51
65.999999999952649
  0
ARC
  8
DETAIL
  6
CONTINUOUS
 62
     5
 10
157.45907615256189
 20
7.3904367142749834
 30
0.0
 40
0.5391205789502516
 50
336.00000000000472
 51
65.999999999988191
  0
ARC
  8
DETAIL
  6
CONTINUOUS
 62
     5
 10
157.32031641139841
 20
7.0787772328931169
 30
0.0
 40
0.539120578949992
 50
231.5668777572028
 51
336.00000000000472
  0
LINE
  8
DETAIL
  6
CONTINUOUS
 62
     5
 10
154.41299657050061
 20
9.0417091940462342
 30
0.0
 11
157.15275754037879
 21
6.8676214268043623
 31
0.0
  0
LINE
  8
DETAIL
  6
CONTINUOUS
 62
     5
 10
156.9851986694589
 20
6.6564656208174711
 30
0.0
 11
154.24543769948099
 21
8.8305533879574796
 31
0.0
  0
LINE
  8
DETAIL
  6
CONTINUOUS
 62
     5
 10
157.95158730855661
 20
7.1711566197409411
 30
0.0
 11
157.81282756739259
 21
6.8594971383581651
 31
0.0
  0
LINE
  8
DETAIL
  6
CONTINUOUS
 62
     5
 10
157.56657198944549
 20
6.9691371856752076
 30
0.0
 11
157.70533173050941
 21
7.2807966669588504
 31
0.0
  0
LINE
  8
DETAIL
  6
CONTINUOUS
 62
     5
 10
157.6783562469964
 20
7.8829478702700726
 30
0.0
 11
157.5687161997794
 21
7.6366922922225058
 31
0.0
  0
LINE
  8
DETAIL
  6
CONTINUOUS
 62
     5
 10
157.5687161997794
 20
7.6366922922225058
 30
0.0
 11
143.9243330626268
 21
13.71156305832392
 31
0.0
  0
LINE
  8
DETAIL
  6
CONTINUOUS
 62
     5
 10
154.24543769948099
 20
8.8305533879574796
 30
0.0
 11
154.41299657050061
 21
9.0417091940462342
 31
0.0
  0
LINE
  8
DETAIL
  6
CONTINUOUS
 62
     5
 10
142.8157503626758
 20
11.221645547290789
 30
0.0
 11
144.0339731098438
 21
13.95781863627144
 31
0.0
  0
ARC
  8
DETAIL
  6
CONTINUOUS
 62
     5
 10
157.32031641139841
 20
-79.150066476871871
 30
0.0
 40
0.2695602894748322
 50
231.56687775723569
 51
336.00000000000472
  0
ARC
  8
DETAIL
  6
CONTINUOUS
 62
     5
 10
157.4590761525624
 20
-78.838406995489095
 30
0.0
 40
0.2695602894751238
 50
336.00000000000472
 51
65.999999999952649
  0
ARC
  8
DETAIL
  6
CONTINUOUS
 62
     5
 10
157.4590761525624
 20
-78.838406995489095
 30
0.0
 40
0.5391205789502516
 50
336.00000000000472
 51
65.999999999988191
  0
ARC
  8
DETAIL
  6
CONTINUOUS
 62
     5
 10
157.32031641139841
 20
-79.150066476871871
 30
0.0
 40
0.539120578949992
 50
231.5668777572028
 51
336.00000000000472
  0
LINE
  8
DETAIL
  6
CONTINUOUS
 62
     5
 10
154.41299657050061
 20
-77.187134515718753
 30
0.0
 11
157.15275754037879
 21
-79.361222282959716
 31
0.0
  0
LINE
  8
DETAIL
  6
CONTINUOUS
 62
     5
 10
156.98519866945941
 20
-79.572378088946607
 30
0.0
 11
154.24543769948099
 21
-77.398290321805689
 31
0.0
  0
LINE
  8
DETAIL
  6
CONTINUOUS
 62
     5
 10
157.95158730855661
 20
-79.057687090023137
 30
0.0
 11
157.81282756739299
 21
-79.369346571405913
 31
0.0
  0
LINE
  8
DETAIL
  6
CONTINUOUS
 62
     5
 10
157.56657198944549
 20
-79.25970652408887
 30
0.0
 11
157.7053317305099
 21
-78.948047042806138
 31
0.0
  0
LINE
  8
DETAIL
  6
CONTINUOUS
 62
     5
 10
157.6783562469968
 20
-78.345895839494915
 30
0.0
 11
157.5687161997798
 21
-78.592151417541572
 31
0.0
  0
LINE
  8
DETAIL
  6
CONTINUOUS
 62
     5
 10
157.5687161997798
 20
-78.592151417541572
 30
0.0
 11
143.9243330626268
 21
-72.51728065144016
 31
0.0
  0
LINE
  8
DETAIL
  6
CONTINUOUS
 62
     5
 10
154.24543769948099
 20
-77.398290321805689
 30
0.0
 11
154.41299657050061
 21
-77.187134515718753
 31
0.0
  0
LINE
  8
DETAIL
  6
CONTINUOUS
 62
     5
 10
142.8157503626758
 20
-75.007198162473287
 30
0.0
 11
144.0339731098438
 21
-72.271025073492638
 31
0.0
  0
ARC
  8
DETAIL
  6
CONTINUOUS
 62
     5
 10
157.32031641139841
 20
92.808435221407308
 30
0.0
 40
0.2695602894748322
 50
231.56687775723569
 51
336.00000000000472
  0
ARC
  8
DETAIL
  6
CONTINUOUS
 62
     5
 10
157.4590761525624
 20
93.120094702789174
 30
0.0
 40
0.2695602894751238
 50
336.00000000000472
 51
65.999999999952649
  0
ARC
  8
DETAIL
  6
CONTINUOUS
 62
     5
 10
157.4590761525624
 20
93.120094702789174
 30
0.0
 40
0.5391205789502516
 50
336.00000000000472
 51
65.999999999988191
  0
ARC
  8
DETAIL
  6
CONTINUOUS
 62
     5
 10
157.32031641139841
 20
92.808435221407308
 30
0.0
 40
0.539120578949992
 50
231.5668777572028
 51
336.00000000000472
  0
LINE
  8
DETAIL
  6
CONTINUOUS
 62
     5
 10
154.41299657050061
 20
94.771367182560425
 30
0.0
 11
157.15275754037879
 21
92.597279415320372
 31
0.0
  0
LINE
  8
DETAIL
  6
CONTINUOUS
 62
     5
 10
156.98519866945941
 20
92.386123609331662
 30
0.0
 11
154.24543769948099
 21
94.56021137647349
 31
0.0
  0
LINE
  8
DETAIL
  6
CONTINUOUS
 62
     5
 10
157.95158730855661
 20
92.900814608255132
 30
0.0
 11
157.81282756739299
 21
92.589155126872356
 31
0.0
  0
LINE
  8
DETAIL
  6
CONTINUOUS
 62
     5
 10
157.56657198944549
 20
92.698795174189399
 30
0.0
 11
157.7053317305099
 21
93.01045465547304
 31
0.0
  0
LINE
  8
DETAIL
  6
CONTINUOUS
 62
     5
 10
157.6783562469968
 20
93.612605858784264
 30
0.0
 11
157.5687161997798
 21
93.366350280736697
 31
0.0
  0
LINE
  8
DETAIL
  6
CONTINUOUS
 62
     5
 10
157.5687161997798
 20
93.366350280736697
 30
0.0
 11
143.9243330626268
 21
99.441221046838109
 31
0.0
  0
LINE
  8
DETAIL
  6
CONTINUOUS
 62
     5
 10
154.24543769948099
 20
94.56021137647349
 30
0.0
 11
154.41299657050061
 21
94.771367182560425
 31
0.0
  0
LINE
  8
DETAIL
  6
CONTINUOUS
 62
     5
 10
142.8157503626758
 20
96.951303535804982
 30
0.0
 11
144.0339731098438
 21
99.687476624785631
 31
0.0
  0
ARC
  8
DETAIL
  6
CONTINUOUS
 62
     5
 10
91.972041238646511
 20
30.66518614016422
 30
0.0
 40
0.2995114327500679
 50
65.999999999966946
 51
155.9999999999998
  0
ARC
  8
DETAIL
  6
CONTINUOUS
 62
     5
 10
91.424806620830736
 20
30.90883068965741
 30
0.0
 40
0.299511432749976
 50
246.0000000000168
 51
335.99999999999977
  0
ARC
  8
DETAIL
  6
CONTINUOUS
 62
     5
 10
0.4492671491249212
 20
145.16320773950059
 30
0.0
 40
0.449267149125044
 50
180.0
 51
270.0
  0
ARC
  8
DETAIL
  6
CONTINUOUS
 62
     5
 10
-0.4991857212500008
 20
172.50979097486831
 30
0.0
 40
0.4991857212500559
 50
0.000565857803922
 51
90.999990124707651
  0
ARC
  8
DETAIL
  6
CONTINUOUS
 62
     5
 10
-30.949514717500161
 20
171.4790216739093
 30
0.0
 40
0.9983714425000121
 50
91.000000000001776
 51
180.0
  0
ARC
  8
DETAIL
  6
CONTINUOUS
 62
     5
 10
0.4492671491249212
 20
-145.66320773949971
 30
0.0
 40
0.4492671491249881
 50
90.0
 51
180.0
  0
ARC
  8
DETAIL
  6
CONTINUOUS
 62
     5
 10
-0.4991857212500008
 20
-196.17119909207489
 30
0.0
 40
0.499185721250008
 50
268.99999999999818
 51
0.0
  0
ARC
  8
DETAIL
  6
CONTINUOUS
 62
     5
 10
-30.949514717500161
 20
-190.99167318657959
 30
0.0
 40
0.998371442500064
 50
180.00022289139611
 51
255.0000576869075
  0
ARC
  8
DETAIL
  6
CONTINUOUS
 62
     5
 10
-7.9869715400001269
 20
-123.9877742793624
 30
0.0
 40
1.996742884999932
 50
180.00063880499499
 51
264.28995116519729
  0
ARC
  8
DETAIL
  6
CONTINUOUS
 62
     5
 10
-7.9869715400001269
 20
-119.6148576906362
 30
0.0
 40
1.9967428850000239
 50
95.71123663290463
 51
180.0005372488047
  0
ARC
  8
DETAIL
  6
CONTINUOUS
 62
     5
 10
-14.247269105505101
 20
-194.4334401202841
 30
0.0
 40
1.9967428850000279
 50
254.99981308559509
 51
269.00020859669388
  0
LINE
  8
DETAIL
  6
CONTINUOUS
 62
     5
 10
-30.96693870165279
 20
172.47724105954691
 30
0.0
 11
-0.5078977133265425
 21
173.00890559769499
 31
0.0
  0
LINE
  8
DETAIL
  6
CONTINUOUS
 62
     5
 10
0.4492671491249212
 20
144.7139405903763
 30
0.0
 11
1.9967428849998901
 21
144.7139405903763
 31
0.0
  0
LINE
  8
DETAIL
  6
CONTINUOUS
 62
     5
 10
89.853429824999807
 20
36.744864636428247
 30
0.0
 11
157.6783562469964
 21
7.8829478702700726
 31
0.0
  0
LINE
  8
DETAIL
  6
CONTINUOUS
 62
     5
 10
93.644361597122384
 20
30.248477225690291
 30
0.0
 11
92.09386351344358
 21
30.938803449072111
 31
0.0
  0
LINE
  8
DETAIL
  6
CONTINUOUS
 62
     5
 10
89.853429824999807
 20
31.280596634434001
 30
0.0
 11
91.30298434613394
 21
30.635213380749519
 31
0.0
  0
LINE
  8
DETAIL
  6
CONTINUOUS
 62
     5
 10
140.17948647819961
 20
10.209678649886881
 30
0.0
 11
93.400717047728563
 21
29.70124260787361
 31
0.0
  0
LINE
  8
DETAIL
  6
CONTINUOUS
 62
     5
 10
89.853429824999807
 20
-144.76032219196799
 30
0.0
 11
89.853429824999807
 21
144.7139405903763
 31
0.0
  0
LINE
  8
DETAIL
  6
CONTINUOUS
 62
     5
 10
89.853429824999807
 20
-144.7646734412501
 30
0.0
 11
89.853429824999807
 21
-145.21394059037451
 31
0.0
  0
LINE
  8
DETAIL
  6
CONTINUOUS
 62
     5
 10
93.400717047728563
 20
29.70124260787361
 30
0.0
 11
93.644361597122384
 21
30.248477225690291
 31
0.0
  0
LINE
  8
DETAIL
  6
CONTINUOUS
 62
     5
 10
140.17948647131109
 20
10.209678652583531
 30
0.0
 11
142.8157503626758
 21
11.221645547290789
 31
0.0
  0
LINE
  8
DETAIL
  6
CONTINUOUS
 62
     5
 10
-0.0000000000001137
 20
-126.7931731974995
 30
0.0
 11
-0.0000000000001137
 21
-116.80945877249999
 31
0.0
  0
LINE
  8
DETAIL
  6
CONTINUOUS
 62
     5
 10
-0.0000000000001137
 20
-126.7931731974995
 30
0.0
 11
-0.0000000000001137
 21
-196.17119909207489
 31
0.0
  0
LINE
  8
DETAIL
  6
CONTINUOUS
 62
     5
 10
-0.0000000000001137
 20
172.50979590482621
 30
0.0
 11
-0.0000000000001137
 21
-116.80945877249999
 31
0.0
  0
LINE
  8
DETAIL
  6
CONTINUOUS
 62
     5
 10
-9.9837144250001302
 20
-123.9877742793624
 30
0.0
 11
-9.9837144250001302
 21
-119.6148576907362
 31
0.0
  0
LINE
  8
DETAIL
  6
CONTINUOUS
 62
     5
 10
-31.94788616000017
 20
-190.99167707034479
 30
0.0
 11
-31.94788616000017
 21
171.4790216739093
 31
0.0
  0
LINE
  8
DETAIL
  6
CONTINUOUS
 62
     5
 10
-8.1856771973447167
 20
-117.6280264922534
 30
0.0
 11
-0.0000000000001137
 21
-116.80945877249999
 31
0.0
  0
LINE
  8
DETAIL
  6
CONTINUOUS
 62
     5
 10
-0.0000000000001137
 20
-126.7931731974995
 30
0.0
 11
-8.1856360083328354
 21
-125.97460959662661
 31
0.0
  0
LINE
  8
DETAIL
  6
CONTINUOUS
 62
     5
 10
-31.207912260903068
 20
-191.9560298308952
 30
0.0
 11
-14.76406419231137
 21
-196.36214564138569
 31
0.0
  0
LINE
  8
DETAIL
  6
CONTINUOUS
 62
     5
 10
-14.282117073910401
 20
-196.42987889165849
 30
0.0
 11
-0.5078977133265425
 21
-196.6703087849437
 31
0.0
  0
ARC
  8
DETAIL
  6
CONTINUOUS
 62
     5
 10
91.972041238646739
 20
-55.563657569599847
 30
0.0
 40
0.2995114327500679
 50
65.999999999966946
 51
155.9999999999998
  0
ARC
  8
DETAIL
  6
CONTINUOUS
 62
     5
 10
91.424806620830964
 20
-55.320013020106671
 30
0.0
 40
0.299511432749976
 50
246.0000000000168
 51
335.99999999999977
  0
LINE
  8
DETAIL
  6
CONTINUOUS
 62
     5
 10
89.853429825000035
 20
-49.483979073336741
 30
0.0
 11
157.6783562469968
 21
-78.345895839494915
 31
0.0
  0
LINE
  8
DETAIL
  6
CONTINUOUS
 62
     5
 10
93.644361597122611
 20
-55.980366484073777
 30
0.0
 11
92.093863513443807
 21
-55.290040260691967
 31
0.0
  0
LINE
  8
DETAIL
  6
CONTINUOUS
 62
     5
 10
89.853429825000035
 20
-54.948247075330073
 30
0.0
 11
91.302984346134167
 21
-55.593630329015468
 31
0.0
  0
LINE
  8
DETAIL
  6
CONTINUOUS
 62
     5
 10
140.1794864782
 20
-76.019165059876286
 30
0.0
 11
93.40071704772879
 21
-56.527601101890468
 31
0.0
  0
LINE
  8
DETAIL
  6
CONTINUOUS
 62
     5
 10
93.40071704772879
 20
-56.527601101890468
 30
0.0
 11
93.644361597122611
 21
-55.980366484073777
 31
0.0
  0
LINE
  8
DETAIL
  6
CONTINUOUS
 62
     5
 10
140.17948647131109
 20
-76.019165057181453
 30
0.0
 11
142.8157503626758
 21
-75.007198162473287
 31
0.0
  0
LINE
  8
DETAIL
  6
CONTINUOUS
 62
     5
 10
89.853429825000035
 20
122.4745226249424
 30
0.0
 11
157.6783562469968
 21
93.612605858784264
 31
0.0
  0
LINE
  8
DETAIL
  6
CONTINUOUS
 62
     5
 10
93.644361597122611
 20
115.9781352142045
 30
0.0
 11
92.093863513443807
 21
116.6684614375872
 31
0.0
  0
LINE
  8
DETAIL
  6
CONTINUOUS
 62
     5
 10
140.1794864782
 20
95.939336638402892
 30
0.0
 11
93.40071704772879
 21
115.4309005963887
 31
0.0
  0
LINE
  8
DETAIL
  6
CONTINUOUS
 62
     5
 10
93.40071704772879
 20
115.4309005963887
 30
0.0
 11
93.644361597122611
 21
115.9781352142045
 31
0.0
  0
LINE
  8
DETAIL
  6
CONTINUOUS
 62
     5
 10
140.17948647131109
 20
95.939336641097725
 30
0.0
 11
142.8157503626758
 21
96.951303535804982
 31
0.0
  0
ARC
  8
DETAIL
  6
CONTINUOUS
 62
     5
 10
91.972041238646739
 20
116.3948441286784
 30
0.0
 40
0.2995114327500679
 50
65.999999999966946
 51
155.9999999999998
  0
ARC
  8
DETAIL
  6
CONTINUOUS
 62
     5
 10
91.424806620830964
 20
116.6384886781716
 30
0.0
 40
0.299511432749976
 50
246.0000000000168
 51
335.99999999999977
  0
LINE
  8
DETAIL
  6
CONTINUOUS
 62
     5
 10
89.853429825000035
 20
117.01025462294911
 30
0.0
 11
91.302984346134167
 21
116.3648713692637
 31
0.0
  0
LINE
  8
DETAIL
  6
CONTINUOUS
 62
     5
 10
0.4492671491249212
 20
-145.21394059037451
 30
0.0
 11
89.853429824999807
 21
-145.21394059037451
 31
0.0
  0
ARC
  8
DETAIL
  6
CONTINUOUS
 62
     5
 10
-32.826453029399893
 20
-23.54774183414338
 30
0.0
 40
2.9951143275000001
 50
180.0
 51
195.70863782899869
  0
ARC
  8
DETAIL
  6
CONTINUOUS
 62
     5
 10
-32.826453029399893
 20
23.54774183414429
 30
0.0
 40
2.995114327500116
 50
164.29136217100131
 51
180.0
  0
LINE
  8
DETAIL
  6
CONTINUOUS
 62
     5
 10
-35.821567356899891
 20
-23.54774183414338
 30
0.0
 11
-35.821567356899891
 21
23.54774183414429
 31
0.0
  0
LINE
  8
DETAIL
  6
CONTINUOUS
 62
     5
 10
-32.151434862280333
 20
-37.010274600834236
 30
0.0
 11
-35.709702652674757
 21
-24.358655790722882
 31
0.0
  0
LINE
  8
DETAIL
  6
CONTINUOUS
 62
     5
 10
-31.94788616000017
 20
37.734003319831572
 30
0.0
 11
-35.821567356899891
 21
23.960914620157379
 31
0.0
  0
LINE
  8
DETAIL
  6
CONTINUOUS
 62
     5
 10
33.698623798687208
 20
144.7139405903763
 30
0.0
 11
33.698623798687208
 21
151.61161968851681
 31
0.0
  0
LINE
  8
DETAIL
  6
CONTINUOUS
 62
     5
 10
32.444544088374982
 20
152.86550891149361
 30
0.0
 11
33.698533859615402
 21
151.61151914025319
 31
0.0
  0
LINE
  8
DETAIL
  6
CONTINUOUS
 62
     5
 10
32.444500043961973
 20
152.86574344324251
 30
0.0
 11
29.936252534511251
 21
152.86574344324251
 31
0.0
  0
LINE
  8
DETAIL
  6
CONTINUOUS
 62
     5
 10
33.698623798687208
 20
151.61161968851681
 30
0.0
 11
29.936252534511251
 21
151.61161968851681
 31
0.0
  0
LINE
  8
DETAIL
  6
CONTINUOUS
 62
     5
 10
27.428005025060319
 20
152.86574344324251
 30
0.0
 11
29.936252534511251
 21
152.86574344324251
 31
0.0
  0
LINE
  8
DETAIL
  6
CONTINUOUS
 62
     5
 10
27.427962555105179
 20
152.86569835228241
 30
0.0
 11
26.17397278386477
 21
151.611708581042
 31
0.0
  0
LINE
  8
DETAIL
  6
CONTINUOUS
 62
     5
 10
26.17388127033507
 20
151.61161968851681
 30
0.0
 11
29.936252534511251
 21
151.61161968851681
 31
0.0
  0
LINE
  8
DETAIL
  6
CONTINUOUS
 62
     5
 10
26.17388127033507
 20
144.7139405903763
 30
0.0
 11
26.17388127033507
 21
151.61161968851681
 31
0.0
  0
LINE
  8
DETAIL
  6
CONTINUOUS
 62
     5
 10
29.936252534511251
 20
139.63278811578951
 30
0.0
 11
29.936252534511251
 21
163.56714128671589
 31
0.0
  0
LINE
  8
DETAIL
  6
CONTINUOUS
 62
     5
 10
89.853429824999807
 20
144.7139405903763
 30
0.0
 11
1.9967428849998901
 21
144.7139405903763
 31
0.0
  0
LINE
  8
DETAIL
  6
CONTINUOUS
 62
     5
 10
61.300006569499708
 20
-145.21394059037451
 30
0.0
 11
61.399843713749867
 21
-145.21394059037451
 31
0.0
  0
LINE
  8
DETAIL
  6
CONTINUOUS
 62
     5
 10
72.450028798155813
 20
-123.2092008412228
 30
0.0
 11
72.450028798155813
 21
123.10915428305999
 31
0.0
  0
LINE
  8
DETAIL
  6
CONTINUOUS
 62
     5
 10
86.524853369510879
 20
123.10915428305999
 30
0.0
 11
86.524853369510879
 21
-123.2092008412228
 31
0.0
  0
LINE
  8
DETAIL
  6
CONTINUOUS
 62
     5
 10
78.294534674577449
 20
128.95366015948281
 30
0.0
 11
80.680347493296608
 21
128.95366015948281
 31
0.0
  0
LINE
  8
DETAIL
  6
CONTINUOUS
 62
     5
 10
80.680347493296608
 20
-129.05370671764561
 30
0.0
 11
78.294534674577449
 21
-129.05370671764561
 31
0.0
  0
LINE
  8
DETAIL
  6
CONTINUOUS
 62
     5
 10
80.627139037630172
 20
120.4766917466832
 30
0.0
 11
78.472157096145907
 21
118.32171670794121
 31
0.0
  0
LINE
  8
DETAIL
  6
CONTINUOUS
 62
     5
 10
78.472160547517092
 20
120.4766951980546
 30
0.0
 11
80.627135586259442
 21
118.3217132565705
 31
0.0
  0
CIRCLE
  8
DETAIL
  6
CONTINUOUS
 62
     5
 10
79.549648066888153
 20
119.3992042273121
 30
0.0
 40
3.410410157442866
  0
CIRCLE
  8
DETAIL
  6
CONTINUOUS
 62
     5
 10
79.549648066888153
 20
33.66954623879883
 30
0.0
 40
3.410410157442866
  0
LINE
  8
DETAIL
  6
CONTINUOUS
 62
     5
 10
80.627139037630172
 20
34.747033758168982
 30
0.0
 11
78.472157096145907
 21
32.592058719426859
 31
0.0
  0
LINE
  8
DETAIL
  6
CONTINUOUS
 62
     5
 10
78.472160547517092
 20
34.747037209540387
 30
0.0
 11
80.627135586259442
 21
32.592055268055447
 31
0.0
  0
CIRCLE
  8
DETAIL
  6
CONTINUOUS
 62
     5
 10
79.549648066888153
 20
-52.559297470966158
 30
0.0
 40
3.410410157442866
  0
LINE
  8
DETAIL
  6
CONTINUOUS
 62
     5
 10
80.627139037630172
 20
-51.481809951595103
 30
0.0
 11
78.472157096145907
 21
-53.636784990337219
 31
0.0
  0
LINE
  8
DETAIL
  6
CONTINUOUS
 62
     5
 10
78.472160547517092
 20
-51.481806500223684
 30
0.0
 11
80.627135586259442
 21
-53.636788441707722
 31
0.0
  0
ARC
  8
DETAIL
  6
CONTINUOUS
 62
     5
 10
78.252653745442103
 20
123.15103521219631
 30
0.0
 40
5.8027760848662586
 50
89.586470117096397
 51
180.4135298829101
  0
ARC
  8
DETAIL
  6
CONTINUOUS
 62
     5
 10
80.571320400978152
 20
123.0001271909539
 30
0.0
 40
5.9545311918084272
 50
1.0491407509989199
 51
88.950859246955403
  0
ARC
  8
DETAIL
  6
CONTINUOUS
 62
     5
 10
79.932855823375917
 20
-122.4617091715368
 30
0.0
 40
6.6342426428720769
 50
276.46935278494129
 51
353.53064721709109
  0
ARC
  8
DETAIL
  6
CONTINUOUS
 62
     5
 10
79.237972148453309
 20
-122.2657633673475
 30
0.0
 40
6.8531926278166289
 50
187.91269077592739
 51
262.08730922406608
  0
ARC
  8
OUTLINE
  6
CONTINUOUS
 62
     3
 10
0.4492671491246938
 20
145.16320773950059
 30
0.0
 40
0.449267149125044
 50
180.0
 51
270.0
  0
ARC
  8
OUTLINE
  6
CONTINUOUS
 62
     3
 10
-0.4991857212500008
 20
172.50979097486831
 30
0.0
 40
0.4991857212500559
 50
0.000565857803922
 51
90.999990124707651
  0
ARC
  8
OUTLINE
  6
CONTINUOUS
 62
     3
 10
-30.949514717500389
 20
171.4790216739093
 30
0.0
 40
0.9983714425000121
 50
91.000000000001776
 51
180.0
  0
ARC
  8
OUTLINE
  6
CONTINUOUS
 62
     3
 10
0.4492671491246938
 20
-145.66320773949971
 30
0.0
 40
0.4492671491249881
 50
90.0
 51
180.0
  0
ARC
  8
OUTLINE
  6
CONTINUOUS
 62
     3
 10
-0.4991857212500008
 20
-196.17119909207489
 30
0.0
 40
0.499185721250008
 50
268.99999999999818
 51
0.0
  0
ARC
  8
OUTLINE
  6
CONTINUOUS
 62
     3
 10
-30.949514717500389
 20
-190.99167318657959
 30
0.0
 40
0.998371442500064
 50
180.00022289139611
 51
255.0000576869075
  0
ARC
  8
OUTLINE
  6
CONTINUOUS
 62
     3
 10
-14.247269105505101
 20
-194.4334401202841
 30
0.0
 40
1.9967428850000279
 50
254.99981308559509
 51
269.00020859669388
  0
LINE
  8
OUTLINE
  6
CONTINUOUS
 62
     3
 10
-30.966938701653021
 20
172.47724105954691
 30
0.0
 11
-0.5078977133267699
 21
173.00890559769499
 31
0.0
  0
LINE
  8
OUTLINE
  6
CONTINUOUS
 62
     3
 10
0.4492671491246938
 20
144.7139405903763
 30
0.0
 11
1.9967428849998901
 21
144.7139405903763
 31
0.0
  0
LINE
  8
OUTLINE
  6
CONTINUOUS
 62
     3
 10
89.85342982499958
 20
-144.76032219196799
 30
0.0
 11
89.85342982499958
 21
144.7139405903763
 31
0.0
  0
LINE
  8
OUTLINE
  6
CONTINUOUS
 62
     3
 10
89.85342982499958
 20
-144.7646734412501
 30
0.0
 11
89.85342982499958
 21
-145.21394059037451
 31
0.0
  0
LINE
  8
OUTLINE
  6
CONTINUOUS
 62
     3
 10
-0.0000000000001137
 20
172.50979590482621
 30
0.0
 11
-0.0000000000001137
 21
145.16320773950059
 31
0.0
  0
LINE
  8
OUTLINE
  6
CONTINUOUS
 62
     3
 10
0.0000000000001137
 20
-145.66320773949971
 30
0.0
 11
0.0000000000001137
 21
-196.17119909207489
 31
0.0
  0
LINE
  8
OUTLINE
  6
CONTINUOUS
 62
     3
 10
-31.94788616000017
 20
-190.99167707034479
 30
0.0
 11
-31.94788616000017
 21
-37.734003320042291
 31
0.0
  0
LINE
  8
OUTLINE
  6
CONTINUOUS
 62
     3
 10
-31.94788616000017
 20
37.734003319831572
 30
0.0
 11
-31.94788616000017
 21
171.4790216739093
 31
0.0
  0
LINE
  8
OUTLINE
  6
CONTINUOUS
 62
     3
 10
-31.207912260903068
 20
-191.9560298308952
 30
0.0
 11
-14.76406419231137
 21
-196.36214564138569
 31
0.0
  0
LINE
  8
OUTLINE
  6
CONTINUOUS
 62
     3
 10
-14.282117073910401
 20
-196.42987889165849
 30
0.0
 11
-0.5078977133267699
 21
-196.6703087849437
 31
0.0
  0
LINE
  8
OUTLINE
  6
CONTINUOUS
 62
     3
 10
0.4492671491246938
 20
-145.21394059037451
 30
0.0
 11
89.85342982499958
 21
-145.21394059037451
 31
0.0
  0
LINE
  8
OUTLINE
  6
CONTINUOUS
 62
     3
 10
89.85342982499958
 20
144.7139405903763
 30
0.0
 11
1.9967428849998901
 21
144.7139405903763
 31
0.0
  0
LINE
  8
OUTLINE
  6
CONTINUOUS
 62
     3
 10
61.300006569499487
 20
-145.21394059037451
 30
0.0
 11
61.399843713749647
 21
-145.21394059037451
 31
0.0
  0
LINE
  8
SIZE
  6
CONTINUOUS
 62
    30
 10
-20.50789762732018
 20
173.00890066921681
 30
0.0
 11
-155.0782603192242
 21
173.00890066921681
 31
0.0
  0
LINE
  8
SIZE
  6
CONTINUOUS
 62
    30
 10
-80.963442932160888
 20
0.0000000000000568
 30
0.0
 11
-155.0782603192242
 21
0.0000000000001137
 31
0.0
  0
LINE
  8
SIZE
  6
CONTINUOUS
 62
    30
 10
-135.0782603192242
 20
161.00890066921681
 30
0.0
 11
-135.0782603192242
 21
12.00000000000011
 31
0.0
  0
CIRCLE
  8
SIZE
  6
CONTINUOUS
 62
    30
 10
-135.0782603192242
 20
173.00890066921681
 30
0.0
 40
6.0
  0
LINE
  8
SIZE
  6
CONTINUOUS
 62
    30
 10
-135.0782603192242
 20
173.00890066921681
 30
0.0
 11
-135.0782603192242
 21
161.00890066921681
 31
0.0
  0
CIRCLE
  8
SIZE
  6
CONTINUOUS
 62
    30
 10
-135.0782603192242
 20
0.0000000000001137
 30
0.0
 40
6.0
  0
LINE
  8
SIZE
  6
CONTINUOUS
 62
    30
 10
-135.0782603192242
 20
0.0000000000001137
 30
0.0
 11
-135.0782603192242
 21
12.00000000000011
 31
0.0
  0
TEXT
  8
SIZE
  6
CONTINUOUS
 62
    30
 10
-160.0782603192242
 20
17.933021763179848
 30
0.0
 40
64.0
  1
173
 50
90.0
 41
0.9
 72
     1
 11
-160.0782603192242
 21
86.504450334608407
 31
0.0
  0
LINE
  8
BASIS
  6
DASHDOT
 62
     6
 10
0.0
 20
-144.15635000000009
 30
0.0
 11
0.0
 21
-170.84365000000011
 31
0.0
  0
LINE
  8
BASIS
  6
DASHDOT
 62
     6
 10
-13.343672752751729
 20
157.5
 30
0.0
 11
13.343672752751729
 21
157.5
 31
0.0
  0
LINE
  8
BASIS
  6
DASHDOT
 62
     6
 10
0.0
 20
170.84365
 30
0.0
 11
0.0
 21
144.15635
 31
0.0
  0
ARC
  8
OUTLINE
  6
CONTINUOUS
 62
     3
 10
-32.826453029399893
 20
-23.54774183414338
 30
0.0
 40
2.9951143275000001
 50
180.0
 51
195.70863782899869
  0
ARC
  8
OUTLINE
  6
CONTINUOUS
 62
     3
 10
-32.826453029399893
 20
23.54774183414429
 30
0.0
 40
2.995114327500116
 50
164.29136217100131
 51
180.0
  0
LINE
  8
OUTLINE
  6
CONTINUOUS
 62
     3
 10
-35.821567356899891
 20
-23.54774183414338
 30
0.0
 11
-35.821567356899891
 21
23.54774183414429
 31
0.0
  0
LINE
  8
OUTLINE
  6
CONTINUOUS
 62
     3
 10
-31.94788616000017
 20
-37.734003320042291
 30
0.0
 11
-35.709702652674757
 21
-24.358655790722882
 31
0.0
  0
LINE
  8
OUTLINE
  6
CONTINUOUS
 62
     3
 10
-31.94788616000017
 20
37.734003319831572
 30
0.0
 11
-35.821567356899891
 21
23.960914620157379
 31
0.0
  0
TEXT
  8
ETC
  6
CONTINUOUS
 62
    61
 10
782.26513079136134
 20
500.44425221486631
 30
0.0
 40
64.0
  1
EX-25EH8_4
 41
0.9
  0
TEXT
  8
ETC
  6
CONTINUOUS
 62
    61
 10
778.07913679136095
 20
382.48894220003513
 30
0.0
 40
64.0
  1
換気扇
 41
0.9
  0
TEXT
  8
ETC
  6
CONTINUOUS
 62
    61
 10
828.78053503991691
 20
274.34016931380978
 30
0.0
 40
40.0
  1
EX-25EH8
 50
0.0
 41
0.9
 51
0.0
  7
STANDARD
 71
     0
 11
0.0
 21
0.0
 31
0.0
210
0.0
220
0.0
230
1.0
  0
TEXT
  8
ETC
  6
CONTINUOUS
 62
    61
 10
828.78053503991691
 20
208.34016931380978
 30
0.0
 40
40.0
  1
EX-25LH8
 50
0.0
 41
0.9
 51
0.0
  7
STANDARD
 71
     0
 11
0.0
 21
0.0
 31
0.0
210
0.0
220
0.0
230
1.0
  0
TEXT
  8
ETC
  6
CONTINUOUS
 62
    61
 10
828.78053503991691
 20
142.34016931380978
 30
0.0
 40
40.0
  1
EX-25FH8
 50
0.0
 41
0.9
 51
0.0
  7
STANDARD
 71
     0
 11
0.0
 21
0.0
 31
0.0
210
0.0
220
0.0
230
1.0
  0
TEXT
  8
ETC
  6
CONTINUOUS
 62
    61
 10
828.78053503991691
 20
76.340169313809781
 30
0.0
 40
40.0
  1
EX-25RH8
 50
0.0
 41
0.9
 51
0.0
  7
STANDARD
 71
     0
 11
0.0
 21
0.0
 31
0.0
210
0.0
220
0.0
230
1.0
  0
ENDSEC
  0
EOF
