  0
SECTION
  2
HEADER
  9
$ACADVER
  1
AC1009
  9
$INSBASE
 10
0.0
 20
0.0
 30
0.0
  9
$EXTMIN
 10
-572.22106400000007
 20
-293.06105999999988
 30
0.0
  9
$EXTMAX
 10
1028.522894489525
 20
622.56369249892884
 30
50.0
  9
$LIMMIN
 10
-2970.0
 20
-2100.0
  9
$LIMMAX
 10
2970.0
 20
2100.0
  9
$ORTHOMODE
 70
     1
  9
$REGENMODE
 70
     0
  9
$FILLMODE
 70
     1
  9
$QTEXTMODE
 70
     0
  9
$MIRRTEXT
 70
     0
  9
$DRAGMODE
 70
     2
  9
$LTSCALE
 40
20.0
  9
$OSMODE
 70
   171
  9
$ATTMODE
 70
     1
  9
$TEXTSIZE
 40
64.0
  9
$TRACEWID
 40
0.05
  9
$TEXTSTYLE
  7
STANDARD
  9
$CLAYER
  8
SIZE
  9
$CELTYPE
  6
CONTINUOUS
  9
$CECOLOR
 62
     8
  9
$DIMSCALE
 40
1.0
  9
$DIMASZ
 40
12.0
  9
$DIMEXO
 40
20.0
  9
$DIMDLI
 40
200.0
  9
$DIMRND
 40
0.0
  9
$DIMDLE
 40
0.0
  9
$DIMEXE
 40
20.0
  9
$DIMTP
 40
0.0
  9
$DIMTM
 40
0.0
  9
$DIMTXT
 40
64.0
  9
$DIMCEN
 40
0.09
  9
$DIMTSZ
 40
0.0
  9
$DIMTOL
 70
     0
  9
$DIMLIM
 70
     0
  9
$DIMTIH
 70
     0
  9
$DIMTOH
 70
     0
  9
$DIMSE1
 70
     0
  9
$DIMSE2
 70
     0
  9
$DIMTAD
 70
     1
  9
$DIMZIN
 70
     8
  9
$DIMBLK
  1
DOT1
  9
$DIMASO
 70
     1
  9
$DIMSHO
 70
     0
  9
$DIMPOST
  1

  9
$DIMAPOST
  1

  9
$DIMALT
 70
     0
  9
$DIMALTD
 70
     2
  9
$DIMALTF
 40
25.399999999999999
  9
$DIMLFAC
 40
1.0
  9
$DIMTOFL
 70
     1
  9
$DIMTVP
 40
0.0
  9
$DIMTIX
 70
     1
  9
$DIMSOXD
 70
     0
  9
$DIMSAH
 70
     1
  9
$DIMBLK1
  1
ORIGIN
  9
$DIMBLK2
  1
ORIGIN
  9
$DIMSTYLE
  2
STANDARD
  9
$DIMCLRD
 70
     0
  9
$DIMCLRE
 70
     0
  9
$DIMCLRT
 70
     0
  9
$DIMTFAC
 40
1.0
  9
$DIMGAP
 40
0.09
  9
$LUNITS
 70
     2
  9
$LUPREC
 70
     4
  9
$SKETCHINC
 40
0.1
  9
$FILLETRAD
 40
15.0
  9
$AUNITS
 70
     1
  9
$AUPREC
 70
     3
  9
$MENU
  1
ACAD
  9
$ELEVATION
 40
0.0
  9
$PELEVATION
 40
0.0
  9
$THICKNESS
 40
50.0
  9
$LIMCHECK
 70
     0
  9
$BLIPMODE
 70
     0
  9
$CHAMFERA
 40
0.0
  9
$CHAMFERB
 40
0.0
  9
$SKPOLY
 70
     0
  9
$TDCREATE
 40
2451453.4938508091
  9
$TDUPDATE
 40
2453761.8496274529
  9
$TDINDWG
 40
0.7828087731
  9
$TDUSRTIMER
 40
0.7828087731
  9
$USRTIMER
 70
     1
  9
$ANGBASE
 50
0.0
  9
$ANGDIR
 70
     0
  9
$PDMODE
 70
     3
  9
$PDSIZE
 40
-2.0
  9
$PLINEWID
 40
0.0
  9
$COORDS
 70
     2
  9
$SPLFRAME
 70
     0
  9
$SPLINETYPE
 70
     6
  9
$SPLINESEGS
 70
     8
  9
$ATTDIA
 70
     0
  9
$ATTREQ
 70
     1
  9
$HANDLING
 70
 22529
  9
$HANDSEED
  5
26C
  9
$SURFTAB1
 70
     6
  9
$SURFTAB2
 70
     6
  9
$SURFTYPE
 70
     6
  9
$SURFU
 70
     6
  9
$SURFV
 70
     6
  9
$UCSNAME
  2

  9
$UCSORG
 10
0.0
 20
0.0
 30
0.0
  9
$UCSXDIR
 10
1.0
 20
0.0
 30
0.0
  9
$UCSYDIR
 10
0.0
 20
1.0
 30
0.0
  9
$PUCSNAME
  2

  9
$PUCSORG
 10
0.0
 20
0.0
 30
0.0
  9
$PUCSXDIR
 10
1.0
 20
0.0
 30
0.0
  9
$PUCSYDIR
 10
0.0
 20
1.0
 30
0.0
  9
$USERI1
 70
     0
  9
$USERI2
 70
     0
  9
$USERI3
 70
     0
  9
$USERI4
 70
     0
  9
$USERI5
 70
     0
  9
$USERR1
 40
20.0
  9
$USERR2
 40
0.0
  9
$USERR3
 40
0.0
  9
$USERR4
 40
0.0
  9
$USERR5
 40
0.0
  9
$WORLDVIEW
 70
     1
  9
$SHADEDGE
 70
     3
  9
$SHADEDIF
 70
    70
  9
$TILEMODE
 70
     1
  9
$MAXACTVP
 70
    64
  9
$PLIMCHECK
 70
     0
  9
$PEXTMIN
 10
1.0000000000000000E+020
 20
1.0000000000000000E+020
 30
1.0000000000000000E+020
  9
$PEXTMAX
 10
-1.0000000000000000E+020
 20
-1.0000000000000000E+020
 30
-1.0000000000000000E+020
  9
$PLIMMIN
 10
0.0
 20
0.0
  9
$PLIMMAX
 10
12.0
 20
9.0
  9
$UNITMODE
 70
     0
  9
$VISRETAIN
 70
     1
  9
$PLINEGEN
 70
     0
  9
$PSLTSCALE
 70
     1
  0
ENDSEC
  0
SECTION
  2
TABLES
  0
TABLE
  2
VPORT
 70
    13
  0
VPORT
  2
*ACTIVE
 70
     0
 10
0.0
 20
0.0
 11
1.0
 21
1.0
 12
12.685746198689911
 22
164.89071360301909
 13
0.0
 23
0.0
 14
1.0
 24
1.0
 15
0.0
 25
0.0
 16
0.0
 26
0.0
 36
1.0
 17
0.0
 27
0.0
 37
0.0
 40
1849.947005704257
 41
1.445431472081218
 42
50.0
 43
0.0
 44
0.0
 50
0.0
 51
0.0
 71
     0
 72
   100
 73
     1
 74
     0
 75
     0
 76
     0
 77
     0
 78
     0
  0
ENDTAB
  0
TABLE
  2
LTYPE
 70
     2
  0
LTYPE
  2
CONTINUOUS
 70
     0
  3
実線
 72
    65
 73
     0
 40
0.0
  0
LTYPE
  2
DASHDOT
 70
     0
  3
____ _ ____ _ ____ _ ____ _ ____ _ ____ _ ____
 72
    65
 73
     4
 40
5.5
 49
4.0
 49
-0.6
 49
0.3
 49
-0.6
  0
ENDTAB
  0
TABLE
  2
LAYER
 70
    12
  0
LAYER
  2
0
 70
     0
 62
     7
  6
CONTINUOUS
  0
LAYER
  2
SIZE
 70
     0
 62
    30
  6
CONTINUOUS
  0
LAYER
  2
BASIS
 70
     0
 62
     6
  6
DASHDOT
  0
LAYER
  2
OUTLINE
 70
     0
 62
     3
  6
CONTINUOUS
  0
LAYER
  2
DETAIL
 70
     0
 62
     5
  6
CONTINUOUS
  0
LAYER
  2
ARRANGE
 70
     0
 62
     1
  6
CONTINUOUS
  0
LAYER
  2
DEFPOINTS
 70
     0
 62
     7
  6
CONTINUOUS
  0
LAYER
  2
ETC
 70
     0
 62
    61
  6
CONTINUOUS
  0
LAYER
  2
FIX
 70
     0
 62
    11
  6
CONTINUOUS
  0
LAYER
  2
NOTE
 70
     0
 62
     4
  6
CONTINUOUS
  0
LAYER
  2
SERVICESPACE
 70
     0
 62
     2
  6
DASHDOT
  0
LAYER
  2
SYMBOLLINE
 70
     0
 62
    15
  6
CONTINUOUS
  0
ENDTAB
  0
TABLE
  2
STYLE
 70
     1
  0
STYLE
  2
STANDARD
 70
     0
 40
64.0
 41
0.9
 50
0.0
 71
     0
 42
64.0
  3
SIMPLEX.shx
  4
BIGFONT.shx
  0
ENDTAB
  0
TABLE
  2
VIEW
 70
     1
  0
VIEW
  2
ALL
 70
     0
 40
4282.6198079999986
 10
0.0
 20
41.309903999999989
 41
5940.0
 11
0.0
 21
0.0
 31
1.0
 12
0.0
 22
0.0
 32
0.0
 42
50.0
 43
0.0
 44
0.0
 50
0.0
 71
     0
  0
ENDTAB
  0
TABLE
  2
UCS
 70
     0
  0
ENDTAB
  0
TABLE
  2
APPID
 70
     1
  0
APPID
  2
ACAD
 70
     0
  0
ENDTAB
  0
TABLE
  2
DIMSTYLE
 70
     1
  0
DIMSTYLE
  2
STANDARD
 70
     0
  3

  4

  5

  6

  7

 40
1.0
 41
0.18
 42
0.0625
 43
0.38
 44
0.18
 45
0.0
 46
0.0
 47
0.0
 48
0.0
140
0.18
141
0.09
142
0.0
143
25.399999999999999
144
1.0
145
0.0
146
1.0
147
0.09
 71
     0
 72
     0
 73
     1
 74
     1
 75
     0
 76
     0
 77
     0
 78
     0
170
     0
171
     2
172
     0
173
     0
174
     0
175
     0
176
     0
177
     0
178
     0
  0
ENDTAB
  0
ENDSEC
  0
SECTION
  2
BLOCKS
  0
BLOCK
  8
0
  2
$MODEL_SPACE
 70
     0
 10
0.0
 20
0.0
 30
0.0
  3
$MODEL_SPACE
  1

  0
ENDBLK
  5
20
  8
0
  0
BLOCK
 67
     1
  8
0
  2
$PAPER_SPACE
 70
     0
 10
0.0
 20
0.0
 30
0.0
  3
$PAPER_SPACE
  1

  0
ENDBLK
  5
1C
 67
     1
  8
0
  0
BLOCK
  8
0
  2
DOT1
 70
     0
 10
0.0
 20
0.0
 30
0.0
  3
DOT1
  1

  0
CIRCLE
  5
34
  8
SIZE
  6
CONTINUOUS
 62
     7
 10
0.0
 20
0.0
 30
0.0
 40
3.0
  0
ENDBLK
  5
35
  8
0
  0
BLOCK
  8
0
  2
_ORIGIN
 70
     0
 10
0.0
 20
0.0
 30
0.0
  3
_ORIGIN
  1

  0
CIRCLE
  5
38
  8
0
  6
CONTINUOUS
 62
     7
 10
0.0
 20
0.0
 30
0.0
 40
0.5
  0
LINE
  5
39
  8
0
  6
CONTINUOUS
 62
     7
 10
0.0
 20
0.0
 30
0.0
 11
-1.0
 21
0.0
 31
0.0
  0
ENDBLK
  5
3A
  8
0
  0
ENDSEC
  0
SECTION
  2
ENTITIES
  0
LINE
  5
3D
  8
BASIS
  6
DASHDOT
 62
     6
 10
129.8948419999999
 20
0.0
 30
0.0
 11
-178.75115099999991
 21
0.0
 31
0.0
  0
POINT
  5
3E
  8
ARRANGE
  6
CONTINUOUS
 62
     1
 10
0.0
 20
0.0
 30
0.0
 39
50.0
  0
CIRCLE
  5
3F
  8
ARRANGE
  6
CONTINUOUS
 62
     1
 39
50.0
 10
0.0
 20
0.0
 30
0.0
 40
40.0
  0
LINE
  5
40
  8
DETAIL
  6
CONTINUOUS
 62
     5
 10
-120.0
 20
145.0
 30
0.0
 11
0.0
 21
145.0
 31
0.0
  0
LINE
  5
41
  8
DETAIL
  6
CONTINUOUS
 62
     5
 10
-96.5
 20
131.49999999999989
 30
0.0
 11
-96.5
 21
0.0
 31
0.0
  0
LINE
  5
42
  8
DETAIL
  6
CONTINUOUS
 62
     5
 10
-114.5
 20
131.49999999999989
 30
0.0
 11
-114.5
 21
0.0
 31
0.0
  0
LINE
  5
43
  8
DETAIL
  6
CONTINUOUS
 62
     5
 10
-99.500000000000014
 20
134.49999999999989
 30
0.0
 11
-111.4999999999999
 21
134.49999999999989
 31
0.0
  0
ARC
  5
44
  8
DETAIL
  6
CONTINUOUS
 62
     5
 10
-111.4999999999999
 20
131.49999999999989
 30
0.0
 40
3.0
 50
90.0
 51
180.0
  0
ARC
  5
45
  8
DETAIL
  6
CONTINUOUS
 62
     5
 10
-99.500000000000014
 20
131.49999999999989
 30
0.0
 40
3.0
 50
0.0
 51
90.0
  0
LINE
  5
46
  8
DETAIL
  6
CONTINUOUS
 62
     5
 10
-120.0
 20
145.0
 30
0.0
 11
-120.0
 21
-145.0
 31
0.0
  0
ARC
  5
47
  8
DETAIL
  6
CONTINUOUS
 62
     5
 10
-111.4999999999999
 20
-131.49999999999989
 30
0.0
 40
3.0
 50
180.0
 51
270.0
  0
LINE
  5
48
  8
DETAIL
  6
CONTINUOUS
 62
     5
 10
-99.500000000000014
 20
-134.49999999999989
 30
0.0
 11
-111.4999999999999
 21
-134.49999999999989
 31
0.0
  0
ARC
  5
49
  8
DETAIL
  6
CONTINUOUS
 62
     5
 10
-99.500000000000014
 20
-131.49999999999989
 30
0.0
 40
3.0
 50
270.0
 51
0.0
  0
LINE
  5
4A
  8
DETAIL
  6
CONTINUOUS
 62
     5
 10
-114.5
 20
-131.49999999999989
 30
0.0
 11
-114.5
 21
0.0
 31
0.0
  0
LINE
  5
4B
  8
DETAIL
  6
CONTINUOUS
 62
     5
 10
-96.5
 20
-131.49999999999989
 30
0.0
 11
-96.5
 21
0.0
 31
0.0
  0
LINE
  5
4C
  8
DETAIL
  6
CONTINUOUS
 62
     5
 10
-120.0
 20
-145.0
 30
0.0
 11
0.0
 21
-145.0
 31
0.0
  0
CIRCLE
  5
4D
  8
FIX
  6
CONTINUOUS
 62
    11
 39
50.0
 10
0.0
 20
157.5
 30
0.0
 40
2.5
  0
LINE
  5
4E
  8
NOTE
  6
CONTINUOUS
 62
     4
 10
0.0
 20
177.5
 30
0.0
 11
0.0
 21
137.5
 31
0.0
  0
LINE
  5
4F
  8
NOTE
  6
CONTINUOUS
 62
     4
 10
20.0
 20
157.5
 30
0.0
 11
-20.0
 21
157.5
 31
0.0
  0
CIRCLE
  5
50
  8
FIX
  6
CONTINUOUS
 62
    11
 39
50.0
 10
0.0
 20
-157.5
 30
0.0
 40
2.5
  0
LINE
  5
51
  8
NOTE
  6
CONTINUOUS
 62
     4
 10
0.0
 20
-137.5
 30
0.0
 11
0.0
 21
-177.5
 31
0.0
  0
LINE
  5
52
  8
NOTE
  6
CONTINUOUS
 62
     4
 10
20.0
 20
-157.5
 30
0.0
 11
-20.0
 21
-157.5
 31
0.0
  0
LINE
  5
53
  8
SIZE
  6
CONTINUOUS
 62
    30
 10
-140.0
 20
145.0
 30
0.0
 11
-264.35284899999999
 21
145.0
 31
0.0
  0
LINE
  5
54
  8
SIZE
  6
CONTINUOUS
 62
    30
 10
-140.0
 20
-145.0
 30
0.0
 11
-264.35284899999999
 21
-145.0
 31
0.0
  0
LINE
  5
55
  8
SIZE
  6
CONTINUOUS
 62
    30
 10
-244.35284899999999
 20
133.0
 30
0.0
 11
-244.35284899999999
 21
-133.0
 31
0.0
  0
CIRCLE
  5
56
  8
SIZE
  6
CONTINUOUS
 62
    30
 10
-244.35284899999999
 20
145.0
 30
0.0
 40
6.0
  0
LINE
  5
57
  8
SIZE
  6
CONTINUOUS
 62
    30
 10
-244.35284899999999
 20
145.0
 30
0.0
 11
-244.35284899999999
 21
133.0
 31
0.0
  0
CIRCLE
  5
58
  8
SIZE
  6
CONTINUOUS
 62
    30
 10
-244.35284899999999
 20
-145.0
 30
0.0
 40
6.0
  0
LINE
  5
59
  8
SIZE
  6
CONTINUOUS
 62
    30
 10
-244.35284899999999
 20
-145.0
 30
0.0
 11
-244.35284899999999
 21
-133.0
 31
0.0
  0
TEXT
  5
5A
  8
SIZE
  6
CONTINUOUS
 62
    30
 10
-269.35284899999999
 20
-110.5371428571428
 30
0.0
 40
64.0
  1
□290
 50
90.0
 41
0.9
 72
     1
 11
-269.35284899999999
 21
0.0
 31
0.0
  0
POINT
  5
5B
  8
DEFPOINTS
  6
CONTINUOUS
 62
    30
 10
-120.0
 20
145.0
 30
0.0
  0
POINT
  5
5C
  8
DEFPOINTS
  6
CONTINUOUS
 62
    30
 10
-120.0
 20
-145.0
 30
0.0
  0
POINT
  5
5D
  8
DEFPOINTS
  6
CONTINUOUS
 62
    30
 10
-244.35284899999999
 20
-145.0
 30
0.0
  0
LINE
  5
5E
  8
SIZE
  6
CONTINUOUS
 62
    30
 10
-40.0
 20
157.5
 30
0.0
 11
-381.63624700000003
 21
157.5
 31
0.0
  0
LINE
  5
5F
  8
SIZE
  6
CONTINUOUS
 62
    30
 10
-40.0
 20
-157.5
 30
0.0
 11
-381.63624700000003
 21
-157.5
 31
0.0
  0
LINE
  5
60
  8
SIZE
  6
CONTINUOUS
 62
    30
 10
-361.63624700000003
 20
145.5
 30
0.0
 11
-361.63624700000003
 21
-145.5
 31
0.0
  0
CIRCLE
  5
61
  8
SIZE
  6
CONTINUOUS
 62
    30
 10
-361.63624700000003
 20
157.5
 30
0.0
 40
6.0
  0
LINE
  5
62
  8
SIZE
  6
CONTINUOUS
 62
    30
 10
-361.63624700000003
 20
157.5
 30
0.0
 11
-361.63624700000003
 21
145.5
 31
0.0
  0
CIRCLE
  5
63
  8
SIZE
  6
CONTINUOUS
 62
    30
 10
-361.63624700000003
 20
-157.5
 30
0.0
 40
6.0
  0
LINE
  5
64
  8
SIZE
  6
CONTINUOUS
 62
    30
 10
-361.63624700000003
 20
-157.5
 30
0.0
 11
-361.63624700000003
 21
-145.5
 31
0.0
  0
TEXT
  5
65
  8
SIZE
  6
CONTINUOUS
 62
    30
 10
-386.63624700000003
 20
-68.571428571428569
 30
0.0
 40
64.0
  1
315
 50
90.0
 41
0.9
 72
     1
 11
-386.63624700000003
 21
0.0
 31
0.0
  0
POINT
  5
66
  8
DEFPOINTS
  6
CONTINUOUS
 62
    30
 10
-20.0
 20
157.5
 30
0.0
  0
POINT
  5
67
  8
DEFPOINTS
  6
CONTINUOUS
 62
    30
 10
-20.0
 20
-157.5
 30
0.0
  0
POINT
  5
68
  8
DEFPOINTS
  6
CONTINUOUS
 62
    30
 10
-361.63624700000003
 20
-157.5
 30
0.0
  0
LINE
  5
69
  8
SIZE
  6
CONTINUOUS
 62
    30
 10
0.0
 20
192.518508
 30
0.0
 11
0.0
 21
408.55883899999998
 31
0.0
  0
LINE
  5
6A
  8
SIZE
  6
CONTINUOUS
 62
    30
 10
-120.0
 20
165.0
 30
0.0
 11
-120.0
 21
408.55883899999998
 31
0.0
  0
LINE
  5
6B
  8
SIZE
  6
CONTINUOUS
 62
    30
 10
12.0
 20
388.55883899999998
 30
0.0
 11
24.0
 21
388.55883899999998
 31
0.0
  0
LINE
  5
6C
  8
SIZE
  6
CONTINUOUS
 62
    30
 10
-132.0
 20
388.55883899999998
 30
0.0
 11
-144.0
 21
388.55883899999998
 31
0.0
  0
LINE
  5
6D
  8
SIZE
  6
CONTINUOUS
 62
    30
 10
0.0
 20
388.55883899999998
 30
0.0
 11
-120.0
 21
388.55883899999998
 31
0.0
  0
CIRCLE
  5
6E
  8
SIZE
  6
CONTINUOUS
 62
    30
 10
0.0
 20
388.55883899999998
 30
0.0
 40
6.0
  0
LINE
  5
6F
  8
SIZE
  6
CONTINUOUS
 62
    30
 10
0.0
 20
388.55883899999998
 30
0.0
 11
12.0
 21
388.55883899999998
 31
0.0
  0
CIRCLE
  5
70
  8
SIZE
  6
CONTINUOUS
 62
    30
 10
-120.0
 20
388.55883899999998
 30
0.0
 40
6.0
  0
LINE
  5
71
  8
SIZE
  6
CONTINUOUS
 62
    30
 10
-120.0
 20
388.55883899999998
 30
0.0
 11
-132.0
 21
388.55883899999998
 31
0.0
  0
TEXT
  5
72
  8
SIZE
  6
CONTINUOUS
 62
    30
 10
-128.5714285714285
 20
413.55883899999998
 30
0.0
 40
64.0
  1
120
 41
0.9
 72
     1
 11
-60.0
 21
413.55883899999998
 31
0.0
  0
POINT
  5
73
  8
DEFPOINTS
  6
CONTINUOUS
 62
    30
 10
0.0
 20
172.51850799999991
 30
0.0
  0
POINT
  5
74
  8
DEFPOINTS
  6
CONTINUOUS
 62
    30
 10
-120.0
 20
145.0
 30
0.0
  0
POINT
  5
75
  8
DEFPOINTS
  6
CONTINUOUS
 62
    30
 10
-120.0
 20
388.55883899999998
 30
0.0
  0
LINE
  5
76
  8
NOTE
  6
CONTINUOUS
 62
     4
 39
50.0
 10
0.0
 20
157.5
 30
0.0
 11
-162.93896199999989
 21
241.39381800000001
 31
0.0
  0
LINE
  5
77
  8
NOTE
  6
CONTINUOUS
 62
     4
 39
50.0
 10
-162.93896199999989
 20
241.39381800000001
 30
0.0
 11
-425.04107099999987
 21
241.39381800000001
 31
0.0
  0
TEXT
  5
78
  8
NOTE
  6
CONTINUOUS
 62
     4
 10
-414.22350599999987
 20
259.88315899999992
 30
0.0
 40
64.0
  1
4-φ5
 41
0.9
  0
LINE
  5
79
  8
NOTE
  6
CONTINUOUS
 62
     4
 10
-39.144671000000002
 20
165.72768199999999
 30
0.0
 11
0.0
 21
157.5
 31
0.0
  0
LINE
  5
7A
  8
NOTE
  6
CONTINUOUS
 62
     4
 10
0.0
 20
157.5
 30
0.0
 11
-29.786438
 21
184.1977169999999
 31
0.0
  0
LINE
  5
7B
  8
SIZE
  6
CONTINUOUS
 62
    30
 10
0.0
 20
192.518508
 30
0.0
 11
0.0
 21
408.55883899999998
 31
0.0
  0
LINE
  5
7C
  8
SIZE
  6
CONTINUOUS
 62
    30
 10
57.0
 20
175.709754
 30
0.0
 11
57.0
 21
408.55883899999998
 31
0.0
  0
LINE
  5
7D
  8
SIZE
  6
CONTINUOUS
 62
    30
 10
-12.0
 20
388.55883899999998
 30
0.0
 11
-24.0
 21
388.55883899999998
 31
0.0
  0
LINE
  5
7E
  8
SIZE
  6
CONTINUOUS
 62
    30
 10
69.0
 20
388.55883899999998
 30
0.0
 11
81.0
 21
388.55883899999998
 31
0.0
  0
LINE
  5
7F
  8
SIZE
  6
CONTINUOUS
 62
    30
 10
261.47665499999999
 20
388.55883899999998
 30
0.0
 11
57.0
 21
388.55883899999998
 31
0.0
  0
TEXT
  5
80
  8
SIZE
  6
CONTINUOUS
 62
    30
 10
143.2195125714286
 20
413.55883899999998
 30
0.0
 40
64.0
  1
57
 41
0.9
 72
     1
 11
189.84808399999989
 21
413.55883899999998
 31
0.0
  0
LINE
  5
81
  8
SIZE
  6
CONTINUOUS
 62
    30
 10
0.0
 20
388.55883899999998
 30
0.0
 11
57.0
 21
388.55883899999998
 31
0.0
  0
LINE
  5
82
  8
SIZE
  6
CONTINUOUS
 62
    30
 10
0.0
 20
388.55883899999998
 30
0.0
 11
57.0
 21
388.55883899999998
 31
0.0
  0
CIRCLE
  5
83
  8
SIZE
  6
CONTINUOUS
 62
    30
 10
0.0
 20
388.55883899999998
 30
0.0
 40
6.0
  0
LINE
  5
84
  8
SIZE
  6
CONTINUOUS
 62
    30
 10
0.0
 20
388.55883899999998
 30
0.0
 11
-12.0
 21
388.55883899999998
 31
0.0
  0
CIRCLE
  5
85
  8
SIZE
  6
CONTINUOUS
 62
    30
 10
57.0
 20
388.55883899999998
 30
0.0
 40
6.0
  0
LINE
  5
86
  8
SIZE
  6
CONTINUOUS
 62
    30
 10
57.0
 20
388.55883899999998
 30
0.0
 11
69.0
 21
388.55883899999998
 31
0.0
  0
POINT
  5
87
  8
DEFPOINTS
  6
CONTINUOUS
 62
    30
 10
0.0
 20
172.51850799999991
 30
0.0
  0
POINT
  5
88
  8
DEFPOINTS
  6
CONTINUOUS
 62
    30
 10
57.0
 20
155.709754
 30
0.0
  0
POINT
  5
89
  8
DEFPOINTS
  6
CONTINUOUS
 62
    30
 10
57.0
 20
388.55883899999998
 30
0.0
  0
LINE
  5
8A
  8
OUTLINE
  6
CONTINUOUS
 62
     3
 10
-120.0
 20
-145.0
 30
0.0
 11
0.0
 21
-145.0
 31
0.0
  0
LINE
  5
8B
  8
OUTLINE
  6
CONTINUOUS
 62
     3
 10
-120.0
 20
145.0
 30
0.0
 11
0.0
 21
145.0
 31
0.0
  0
LINE
  5
8C
  8
OUTLINE
  6
CONTINUOUS
 62
     3
 10
-120.0
 20
145.0
 30
0.0
 11
-120.0
 21
-145.0
 31
0.0
  0
LINE
  5
8D
  8
DETAIL
  6
CONTINUOUS
 62
     5
 10
0.0
 20
-145.0
 30
0.0
 11
0.0
 21
0.0
 31
0.0
  0
LINE
  5
8E
  8
DETAIL
  6
CONTINUOUS
 62
     5
 10
0.0
 20
-127.992948
 30
0.0
 11
0.0
 21
173.0
 31
0.0
  0
LINE
  5
8F
  8
DETAIL
  6
CONTINUOUS
 62
     5
 10
0.0
 20
-173.0
 30
0.0
 11
0.0
 21
-136.575661
 31
0.0
  0
LINE
  5
90
  8
DETAIL
  6
CONTINUOUS
 62
     5
 10
0.0
 20
0.0
 30
0.0
 11
0.0
 21
145.0
 31
0.0
  0
LINE
  5
91
  8
DETAIL
  6
CONTINUOUS
 62
     5
 10
57.0
 20
-155.458259
 30
0.0
 11
57.0
 21
155.709754
 31
0.0
  0
LINE
  5
92
  8
DETAIL
  6
CONTINUOUS
 62
     5
 10
22.133804000000001
 20
-178.809978
 30
0.0
 11
16.984156999999989
 21
-178.809978
 31
0.0
  0
LINE
  5
93
  8
DETAIL
  6
CONTINUOUS
 62
     5
 10
30.0
 20
170.9924959999999
 30
0.0
 11
30.0
 21
-170.61245199999991
 31
0.0
  0
LINE
  5
94
  8
DETAIL
  6
CONTINUOUS
 62
     5
 10
52.708902000000002
 20
168.853024
 30
0.0
 11
52.708902000000002
 21
-168.26316199999999
 31
0.0
  0
LINE
  5
95
  8
DETAIL
  6
CONTINUOUS
 62
     5
 10
48.0
 20
-151.83460699999989
 30
0.0
 11
48.0
 21
152.21465099999989
 31
0.0
  0
ARC
  5
96
  8
DETAIL
  6
CONTINUOUS
 62
     5
 10
28.283450999999989
 20
-170.61245199999991
 30
0.0
 40
1.7165490000000001
 50
271.14576299999987
 51
0.0
  0
LINE
  5
97
  8
DETAIL
  6
CONTINUOUS
 62
     5
 10
22.133804000000001
 20
-178.809978
 30
0.0
 11
22.133804000000001
 21
-172.44740300000001
 31
0.0
  0
ARC
  5
98
  8
DETAIL
  6
CONTINUOUS
 62
     5
 10
51.208502000000003
 20
-168.22765000000001
 30
0.0
 40
2.574824
 50
270.0
 51
331.99053700000002
  0
ARC
  5
99
  8
DETAIL
  6
CONTINUOUS
 62
     5
 10
26.96066699999999
 20
-155.32970999999989
 30
0.0
 40
30.039608000000001
 50
331.99053700000002
 51
0.0
  0
ARC
  5
9A
  8
DETAIL
  6
CONTINUOUS
 62
     5
 10
45.425176
 20
-151.83460699999989
 30
0.0
 40
2.574824
 50
270.0
 51
0.0
  0
LINE
  5
9B
  8
DETAIL
  6
CONTINUOUS
 62
     5
 10
45.425176
 20
-154.40943100000001
 30
0.0
 11
30.0
 21
-154.40943100000001
 31
0.0
  0
LINE
  5
9C
  8
DETAIL
  6
CONTINUOUS
 62
     5
 10
51.208502000000003
 20
-170.8024739999999
 30
0.0
 11
30.0
 21
-170.8024739999999
 31
0.0
  0
ARC
  5
9D
  8
DETAIL
  6
CONTINUOUS
 62
     5
 10
28.283450999999989
 20
170.9924959999999
 30
0.0
 40
1.7165490000000001
 50
0.0
 51
88.854237000000026
  0
ARC
  5
9E
  8
DETAIL
  6
CONTINUOUS
 62
     5
 10
51.208502000000003
 20
168.6076939999999
 30
0.0
 40
2.574824
 50
28.009463
 51
90.0
  0
ARC
  5
9F
  8
DETAIL
  6
CONTINUOUS
 62
     5
 10
26.96066699999999
 20
155.709754
 30
0.0
 40
30.039608000000001
 50
0.0
 51
28.009463
  0
ARC
  5
A0
  8
DETAIL
  6
CONTINUOUS
 62
     5
 10
45.425176
 20
152.21465099999989
 30
0.0
 40
2.574824
 50
0.0
 51
90.0
  0
LINE
  5
A1
  8
DETAIL
  6
CONTINUOUS
 62
     5
 10
45.425176
 20
154.78947500000001
 30
0.0
 11
30.0
 21
154.78947500000001
 31
0.0
  0
LINE
  5
A2
  8
DETAIL
  6
CONTINUOUS
 62
     5
 10
51.208502000000003
 20
171.1825179999999
 30
0.0
 11
30.0
 21
171.1825179999999
 31
0.0
  0
ARC
  5
A3
  8
DETAIL
  6
CONTINUOUS
 62
     5
 10
16.984156999999989
 20
-177.95170399999989
 30
0.0
 40
0.858275
 50
180.0
 51
270.0
  0
LINE
  5
A4
  8
DETAIL
  6
CONTINUOUS
 62
     5
 10
16.125882000000001
 20
-177.95170399999989
 30
0.0
 11
16.125882000000001
 21
-172.55185399999991
 31
0.0
  0
LINE
  5
A5
  8
DETAIL
  6
CONTINUOUS
 62
     5
 10
0.0
 20
-173.0
 30
0.0
 11
28.317775000000001
 21
-172.32865799999999
 31
0.0
  0
LINE
  5
A6
  8
DETAIL
  6
CONTINUOUS
 62
     5
 10
0.0
 20
173.0
 30
0.0
 11
28.317775000000001
 21
172.7087019999999
 31
0.0
  0
LINE
  5
A7
  8
SIZE
  6
CONTINUOUS
 62
    30
 10
-20.0
 20
173.0
 30
0.0
 11
-503.2210639999999
 21
173.0
 31
0.0
  0
LINE
  5
A8
  8
SIZE
  6
CONTINUOUS
 62
    30
 10
-20.0
 20
-173.0
 30
0.0
 11
-503.2210639999999
 21
-173.0
 31
0.0
  0
LINE
  5
A9
  8
SIZE
  6
CONTINUOUS
 62
    30
 10
-483.2210639999999
 20
161.0
 30
0.0
 11
-483.2210639999999
 21
-161.0
 31
0.0
  0
CIRCLE
  5
AA
  8
SIZE
  6
CONTINUOUS
 62
    30
 10
-483.2210639999999
 20
173.0
 30
0.0
 40
6.0
  0
LINE
  5
AB
  8
SIZE
  6
CONTINUOUS
 62
    30
 10
-483.2210639999999
 20
173.0
 30
0.0
 11
-483.2210639999999
 21
161.0
 31
0.0
  0
CIRCLE
  5
AC
  8
SIZE
  6
CONTINUOUS
 62
    30
 10
-483.2210639999999
 20
-173.0
 30
0.0
 40
6.0
  0
LINE
  5
AD
  8
SIZE
  6
CONTINUOUS
 62
    30
 10
-483.2210639999999
 20
-173.0
 30
0.0
 11
-483.2210639999999
 21
-161.0
 31
0.0
  0
TEXT
  5
AE
  8
SIZE
  6
CONTINUOUS
 62
    30
 10
-508.2210639999999
 20
-109.1657142857142
 30
0.0
 40
64.0
  1
□346
 50
90.0
 41
0.9
 72
     1
 11
-508.2210639999999
 21
0.0
 31
0.0
  0
POINT
  5
AF
  8
DEFPOINTS
  6
CONTINUOUS
 62
    30
 10
0.0
 20
173.0
 30
0.0
  0
POINT
  5
B0
  8
DEFPOINTS
  6
CONTINUOUS
 62
    30
 10
0.0
 20
-173.0
 30
0.0
  0
POINT
  5
B1
  8
DEFPOINTS
  6
CONTINUOUS
 62
    30
 10
-483.2210639999999
 20
-173.0
 30
0.0
  0
LINE
  5
B2
  8
OUTLINE
  6
CONTINUOUS
 62
     3
 10
30.0
 20
170.9924959999999
 30
0.0
 11
30.0
 21
-170.61245199999991
 31
0.0
  0
LINE
  5
B3
  8
OUTLINE
  6
CONTINUOUS
 62
     3
 10
48.0
 20
-151.83460699999989
 30
0.0
 11
48.0
 21
152.21465099999989
 31
0.0
  0
LINE
  5
B4
  8
OUTLINE
  6
CONTINUOUS
 62
     3
 10
57.0
 20
-155.458259
 30
0.0
 11
57.0
 21
155.709754
 31
0.0
  0
LINE
  5
B5
  8
OUTLINE
  6
CONTINUOUS
 62
     3
 10
0.0
 20
0.0
 30
0.0
 11
0.0
 21
145.0
 31
0.0
  0
LINE
  5
B6
  8
OUTLINE
  6
CONTINUOUS
 62
     3
 10
0.0
 20
-127.992948
 30
0.0
 11
0.0
 21
173.0
 31
0.0
  0
LINE
  5
B7
  8
OUTLINE
  6
CONTINUOUS
 62
     3
 10
0.0
 20
-145.0
 30
0.0
 11
0.0
 21
0.0
 31
0.0
  0
ARC
  5
B8
  8
OUTLINE
  6
CONTINUOUS
 62
     3
 10
28.283450999999989
 20
-170.61245199999991
 30
0.0
 40
1.7165490000000001
 50
271.14576299999987
 51
0.0
  0
LINE
  5
B9
  8
OUTLINE
  6
CONTINUOUS
 62
     3
 10
0.0
 20
-173.0
 30
0.0
 11
28.317775000000001
 21
-172.32865799999999
 31
0.0
  0
LINE
  5
BA
  8
OUTLINE
  6
CONTINUOUS
 62
     3
 10
51.208502000000003
 20
-170.8024739999999
 30
0.0
 11
30.0
 21
-170.8024739999999
 31
0.0
  0
LINE
  5
BB
  8
OUTLINE
  6
CONTINUOUS
 62
     3
 10
45.425176
 20
-154.40943100000001
 30
0.0
 11
30.0
 21
-154.40943100000001
 31
0.0
  0
ARC
  5
BC
  8
OUTLINE
  6
CONTINUOUS
 62
     3
 10
45.425176
 20
-151.83460699999989
 30
0.0
 40
2.574824
 50
270.0
 51
0.0
  0
ARC
  5
BD
  8
OUTLINE
  6
CONTINUOUS
 62
     3
 10
26.96066699999999
 20
-155.32970999999989
 30
0.0
 40
30.039608000000001
 50
331.99053700000002
 51
0.0
  0
ARC
  5
BE
  8
OUTLINE
  6
CONTINUOUS
 62
     3
 10
51.208502000000003
 20
-168.22765000000001
 30
0.0
 40
2.574824
 50
270.0
 51
331.99053700000002
  0
LINE
  5
BF
  8
OUTLINE
  6
CONTINUOUS
 62
     3
 10
0.0
 20
-173.0
 30
0.0
 11
0.0
 21
-136.575661
 31
0.0
  0
ARC
  5
C0
  8
OUTLINE
  6
CONTINUOUS
 62
     3
 10
28.283450999999989
 20
170.9924959999999
 30
0.0
 40
1.7165490000000001
 50
0.0
 51
88.854237000000026
  0
LINE
  5
C1
  8
OUTLINE
  6
CONTINUOUS
 62
     3
 10
0.0
 20
173.0
 30
0.0
 11
28.317775000000001
 21
172.7087019999999
 31
0.0
  0
LINE
  5
C2
  8
OUTLINE
  6
CONTINUOUS
 62
     3
 10
51.208502000000003
 20
171.1825179999999
 30
0.0
 11
30.0
 21
171.1825179999999
 31
0.0
  0
LINE
  5
C3
  8
OUTLINE
  6
CONTINUOUS
 62
     3
 10
45.425176
 20
154.78947500000001
 30
0.0
 11
30.0
 21
154.78947500000001
 31
0.0
  0
ARC
  5
C4
  8
OUTLINE
  6
CONTINUOUS
 62
     3
 10
45.425176
 20
152.21465099999989
 30
0.0
 40
2.574824
 50
0.0
 51
90.0
  0
ARC
  5
C5
  8
OUTLINE
  6
CONTINUOUS
 62
     3
 10
26.96066699999999
 20
155.709754
 30
0.0
 40
30.039608000000001
 50
0.0
 51
28.009463
  0
ARC
  5
C6
  8
OUTLINE
  6
CONTINUOUS
 62
     3
 10
51.208502000000003
 20
168.6076939999999
 30
0.0
 40
2.574824
 50
28.009463
 51
90.0
  0
LINE
  5
C7
  8
NOTE
  6
CONTINUOUS
 62
     4
 10
0.0
 20
-105.0
 30
0.0
 11
0.0
 21
-145.0
 31
0.0
  0
LINE
  5
C8
  8
NOTE
  6
CONTINUOUS
 62
     4
 10
20.0
 20
-125.0
 30
0.0
 11
-20.0
 21
-125.0
 31
0.0
  0
LINE
  5
C9
  8
NOTE
  6
CONTINUOUS
 62
     4
 39
50.0
 10
-125.66426199999999
 20
-293.06105999999988
 30
0.0
 11
-236.7685229999999
 21
-293.06105999999988
 31
0.0
  0
TEXT
  5
CA
  8
NOTE
  6
CONTINUOUS
 62
     4
 10
-225.95095699999999
 20
-266.02044099999989
 30
0.0
 40
64.0
  1
EL
 41
0.9
  0
LINE
  5
CB
  8
NOTE
  6
CONTINUOUS
 62
     4
 39
50.0
 10
0.0
 20
-125.0
 30
0.0
 11
-125.66426199999999
 21
-293.06105999999988
 31
0.0
  0
LINE
  5
CC
  8
NOTE
  6
CONTINUOUS
 62
     4
 10
-15.367323999999989
 20
-161.93027699999999
 30
0.0
 11
0.0
 21
-125.0
 31
0.0
  0
LINE
  5
CD
  8
NOTE
  6
CONTINUOUS
 62
     4
 10
0.0
 20
-125.0
 30
0.0
 11
-31.773631999999999
 21
-149.2988959999999
 31
0.0
  0
LINE
  5
CE
  8
SIZE
  6
CONTINUOUS
 62
    30
 10
40.0
 20
-125.0
 30
0.0
 11
273.02029499999998
 21
-125.0
 31
0.0
  0
LINE
  5
CF
  8
SIZE
  6
CONTINUOUS
 62
    30
 10
149.8948419999999
 20
0.0
 30
0.0
 11
273.02029499999998
 21
0.0
 31
0.0
  0
LINE
  5
D0
  8
SIZE
  6
CONTINUOUS
 62
    30
 10
253.020295
 20
-113.0
 30
0.0
 11
253.020295
 21
-12.0
 31
0.0
  0
LINE
  5
D1
  8
SIZE
  6
CONTINUOUS
 62
    30
 10
253.020295
 20
209.52980400000001
 30
0.0
 11
253.020295
 21
0.0
 31
0.0
  0
TEXT
  5
D2
  8
SIZE
  6
CONTINUOUS
 62
    30
 10
228.020295
 20
47.386946428571427
 30
0.0
 40
64.0
  1
125
 50
90.0
 41
0.9
 72
     1
 11
228.020295
 21
115.958375
 31
0.0
  0
CIRCLE
  5
D3
  8
SIZE
  6
CONTINUOUS
 62
    30
 10
253.020295
 20
-125.0
 30
0.0
 40
6.0
  0
LINE
  5
D4
  8
SIZE
  6
CONTINUOUS
 62
    30
 10
253.020295
 20
-125.0
 30
0.0
 11
253.020295
 21
-113.0
 31
0.0
  0
CIRCLE
  5
D5
  8
SIZE
  6
CONTINUOUS
 62
    30
 10
253.020295
 20
0.0
 30
0.0
 40
6.0
  0
LINE
  5
D6
  8
SIZE
  6
CONTINUOUS
 62
    30
 10
253.020295
 20
0.0
 30
0.0
 11
253.020295
 21
-12.0
 31
0.0
  0
POINT
  5
D7
  8
DEFPOINTS
  6
CONTINUOUS
 62
    30
 10
20.0
 20
-125.0
 30
0.0
  0
POINT
  5
D8
  8
DEFPOINTS
  6
CONTINUOUS
 62
    30
 10
129.8948419999999
 20
0.0
 30
0.0
  0
POINT
  5
D9
  8
DEFPOINTS
  6
CONTINUOUS
 62
    30
 10
253.020295
 20
0.0
 30
0.0
  0
TEXT
  5
E8
  8
ETC
  6
CONTINUOUS
 62
    61
 10
483.61875657285998
 20
55.336955279993617
 30
0.0
 40
50.0
  1
EX-25RK5-C
 41
0.9
  0
TEXT
  5
E9
  8
ETC
  6
CONTINUOUS
 62
    61
 10
483.61875657285998
 20
-22.683127210967541
 30
0.0
 40
50.0
  1
EX-25SK5-C
 41
0.9
  0
TEXT
  5
EA
  8
ETC
  6
CONTINUOUS
 62
    61
 10
481.1009964645059
 20
130.84026002155491
 30
0.0
 40
50.0
  1
EX-25LK5-M
 41
0.9
  0
TEXT
  5
EB
  8
ETC
  6
CONTINUOUS
 62
    61
 10
481.1009964645059
 20
211.37712026191591
 30
0.0
 40
50.0
  1
EX-25LK5-C
 41
0.9
  0
TEXT
  5
EC
  8
ETC
  6
CONTINUOUS
 62
    61
 10
481.1009964645059
 20
294.43075593997401
 30
0.0
 40
50.0
  1
EX-25EK5-M
 41
0.9
  0
TEXT
  5
ED
  8
ETC
  6
CONTINUOUS
 62
    61
 10
478.58323635615159
 20
378.5460777663024
 30
0.0
 40
50.0
  1
EX-25EK5-C
 41
0.9
  0
TEXT
  5
EE
  8
ETC
  6
CONTINUOUS
 62
    61
 10
342.80860877523997
 20
558.5636924989285
 30
0.0
 40
64.0
  1
EX-25EK5-C_5
 41
0.9
  0
TEXT
  5
EF
  8
ETC
  6
CONTINUOUS
 62
    61
 10
334.73513077524001
 20
460.54496649892849
 30
0.0
 40
64.0
  1
換気扇
 41
0.9
  0
ENDSEC
  0
EOF
