  0
SECTION
  2
HEADER
  9
$ACADVER
  1
AC1009
  9
$DWGCODEPAGE
  3
dos932
  9
$INSBASE
 10
0.0
 20
0.0
 30
0.0
  9
$EXTMIN
 10
-433.24583282606551
 20
-262.11546659715901
 30
-0.0076165016126879
  9
$EXTMAX
 10
1017.855846518481
 20
538.33008608586351
 30
50.001166808895853
  9
$LIMMIN
 10
-2970.0
 20
-2100.0
  9
$LIMMAX
 10
2970.0
 20
2100.0
  9
$ORTHOMODE
 70
     1
  9
$REGENMODE
 70
     1
  9
$FILLMODE
 70
     1
  9
$QTEXTMODE
 70
     0
  9
$MIRRTEXT
 70
     0
  9
$LTSCALE
 40
20.0
  9
$ATTMODE
 70
     1
  9
$TEXTSIZE
 40
64.0
  9
$TRACEWID
 40
0.05
  9
$TEXTSTYLE
  7
STANDARD
  9
$CLAYER
  8
NOTE
  9
$CELTYPE
  6
CONTINUOUS
  9
$CECOLOR
 62
     7
  9
$DIMSCALE
 40
1.0
  9
$DIMASZ
 40
12.0
  9
$DIMEXO
 40
20.0
  9
$DIMDLI
 40
200.0
  9
$DIMRND
 40
0.0
  9
$DIMDLE
 40
0.0
  9
$DIMEXE
 40
20.0
  9
$DIMTP
 40
0.0
  9
$DIMTM
 40
0.0
  9
$DIMTXT
 40
64.0
  9
$DIMCEN
 40
0.09
  9
$DIMTSZ
 40
0.0
  9
$DIMTOL
 70
     0
  9
$DIMLIM
 70
     0
  9
$DIMTIH
 70
     0
  9
$DIMTOH
 70
     0
  9
$DIMSE1
 70
     0
  9
$DIMSE2
 70
     0
  9
$DIMTAD
 70
     1
  9
$DIMZIN
 70
     8
  9
$DIMBLK
  1

  9
$DIMASO
 70
     1
  9
$DIMSHO
 70
     0
  9
$DIMPOST
  1

  9
$DIMAPOST
  1

  9
$DIMALT
 70
     0
  9
$DIMALTD
 70
     2
  9
$DIMALTF
 40
25.399999999999999
  9
$DIMLFAC
 40
1.0
  9
$DIMTOFL
 70
     1
  9
$DIMTVP
 40
0.0
  9
$DIMTIX
 70
     1
  9
$DIMSOXD
 70
     0
  9
$DIMSAH
 70
     0
  9
$DIMBLK1
  1

  9
$DIMBLK2
  1

  9
$DIMSTYLE
  2
STANDARD
  9
$DIMCLRD
 70
     7
  9
$DIMCLRE
 70
     7
  9
$DIMCLRT
 70
     7
  9
$DIMTFAC
 40
1.0
  9
$DIMGAP
 40
25.0
  9
$LUNITS
 70
     2
  9
$LUPREC
 70
     4
  9
$SKETCHINC
 40
0.1
  9
$FILLETRAD
 40
3.0
  9
$AUNITS
 70
     1
  9
$AUPREC
 70
     3
  9
$MENU
  1
ACAD
  9
$ELEVATION
 40
0.0
  9
$PELEVATION
 40
0.0
  9
$THICKNESS
 40
50.0
  9
$LIMCHECK
 70
     0
  9
$CHAMFERA
 40
0.0
  9
$CHAMFERB
 40
0.0
  9
$SKPOLY
 70
     0
  9
$TDCREATE
 40
2453019.62301037
  9
$TDUPDATE
 40
2458984.401748044
  9
$TDINDWG
 40
1.7184909259
  9
$TDUSRTIMER
 40
1.7184909259
  9
$USRTIMER
 70
     1
  9
$ANGBASE
 50
0.0
  9
$ANGDIR
 70
     0
  9
$PDMODE
 70
     3
  9
$PDSIZE
 40
-2.0
  9
$PLINEWID
 40
0.0
  9
$SPLFRAME
 70
     0
  9
$SPLINETYPE
 70
     6
  9
$SPLINESEGS
 70
     8
  9
$SURFTAB1
 70
     6
  9
$SURFTAB2
 70
     6
  9
$SURFTYPE
 70
     6
  9
$SURFU
 70
     6
  9
$SURFV
 70
     6
  9
$UCSNAME
  2

  9
$UCSORG
 10
0.0
 20
0.0
 30
0.0
  9
$UCSXDIR
 10
1.0
 20
0.0
 30
0.0
  9
$UCSYDIR
 10
0.0
 20
1.0
 30
0.0
  9
$PUCSNAME
  2

  9
$PUCSORG
 10
0.0
 20
0.0
 30
0.0
  9
$PUCSXDIR
 10
1.0
 20
0.0
 30
0.0
  9
$PUCSYDIR
 10
0.0
 20
1.0
 30
0.0
  9
$USERI1
 70
     0
  9
$USERI2
 70
     0
  9
$USERI3
 70
     0
  9
$USERI4
 70
     0
  9
$USERI5
 70
     0
  9
$USERR1
 40
20.0
  9
$USERR2
 40
0.0
  9
$USERR3
 40
0.0
  9
$USERR4
 40
0.0
  9
$USERR5
 40
0.0
  9
$WORLDVIEW
 70
     1
  9
$SHADEDGE
 70
     3
  9
$SHADEDIF
 70
    70
  9
$TILEMODE
 70
     1
  9
$MAXACTVP
 70
    48
  9
$PINSBASE
 10
0.0
 20
0.0
 30
0.0
  9
$PLIMCHECK
 70
     0
  9
$PEXTMIN
 10
-100000000000000000000.0
 20
-100000000000000000000.0
 30
-100000000000000000000.0
  9
$PEXTMAX
 10
100000000000000000000.0
 20
100000000000000000000.0
 30
100000000000000000000.0
  9
$PLIMMIN
 10
0.0
 20
0.0
  9
$PLIMMAX
 10
12.0
 20
9.0
  9
$UNITMODE
 70
     0
  9
$VISRETAIN
 70
     0
  9
$PLINEGEN
 70
     0
  9
$PSLTSCALE
 70
     0
  9
$TREEDEPTH
 70
  3020
  9
$ATTDIA
 70
     0
  9
$ATTREQ
 70
     1
  9
$BLIPMODE
 70
     1
  9
$COORDS
 70
     1
  9
$DRAGMODE
 70
     2
  9
$OSMODE
 70
     0
  9
$HANDLING
 70
     0
  9
$HANDSEED
  5
FB1E
  0
ENDSEC
  0
SECTION
  2
TABLES
  0
TABLE
  2
LTYPE
 70
     2
  0
LTYPE
  2
CONTINUOUS
 70
     0
  3
実線
 72
    65
 73
     0
 40
0.0
  0
LTYPE
  2
DASHDOT
 70
     0
  3
____ _ ____ _ ____ _ ____ _ ____ _ ____ _ ____
 72
    65
 73
     4
 40
5.5
 49
4.0
 49
-0.6
 49
0.3
 49
-0.6
  0
ENDTAB
  0
TABLE
  2
LAYER
 70
    12
  0
LAYER
  2
0
 70
     0
 62
     7
  6
CONTINUOUS
  0
LAYER
  2
BASIS
 70
     0
 62
     6
  6
DASHDOT
  0
LAYER
  2
OUTLINE
 70
     0
 62
     3
  6
CONTINUOUS
  0
LAYER
  2
DETAIL
 70
     0
 62
     5
  6
CONTINUOUS
  0
LAYER
  2
SIZE
 70
     0
 62
    30
  6
CONTINUOUS
  0
LAYER
  2
ARRANGE
 70
     0
 62
     1
  6
CONTINUOUS
  0
LAYER
  2
ETC
 70
     0
 62
    61
  6
CONTINUOUS
  0
LAYER
  2
FIX
 70
     0
 62
    11
  6
CONTINUOUS
  0
LAYER
  2
NOTE
 70
     0
 62
     4
  6
CONTINUOUS
  0
LAYER
  2
DEFPOINTS
 70
    64
 62
     7
  6
CONTINUOUS
  0
LAYER
  2
SERVICESPACE
 70
    64
 62
     2
  6
DASHDOT
  0
LAYER
  2
SYMBOLLINE
 70
    64
 62
    15
  6
CONTINUOUS
  0
ENDTAB
  0
TABLE
  2
STYLE
 70
     1
  0
STYLE
  2
STANDARD
 70
     0
 40
64.0
 41
0.9
 50
0.0
 71
     0
 42
64.0
  3
SIMPLEX.shx
  4
BIGFONT.shx
  0
ENDTAB
  0
TABLE
  2
APPID
 70
    17
  0
APPID
  2
ACAD
 70
     0
  0
APPID
  2
AUTOCAD_POSTSCRIPT_FIGURE
 70
     0
  0
APPID
  2
ACAD_EXEMPT_FROM_CAD_STANDARDS
 70
     0
  0
APPID
  2
ACAD_PSEXT
 70
     0
  0
APPID
  2
ACAUTHENVIRON
 70
     0
  0
APPID
  2
GENIUS_GENOENT_13
 70
     0
  0
APPID
  2
GENIUS_GENCFG_13
 70
     0
  0
APPID
  2
GENIUS_GENCFG0_13
 70
     0
  0
APPID
  2
GENIUS_GENCFG1_13
 70
     0
  0
APPID
  2
GENIUS_GENCFG2_13
 70
     0
  0
APPID
  2
GENIUS_GENCFG3_13
 70
     0
  0
APPID
  2
GENIUS_GENCFG4_13
 70
     0
  0
APPID
  2
GENIUS_GEVCFG0_13
 70
     0
  0
APPID
  2
CONTENTBLOCKICON
 70
     0
  0
APPID
  2
CONTENTBLOCKDESCRIPTION
 70
     0
  0
APPID
  2
ACAD_NAV_VCDISPLAY
 70
     0
  0
APPID
  2
ACAD_MLEADERVER
 70
     0
  0
ENDTAB
  0
TABLE
  2
DIMSTYLE
 70
     1
  0
DIMSTYLE
  2
STANDARD
 70
     0
  3

  4

  5
_ORIGIN
  6

  7

 40
1.0
 41
12.0
 42
20.0
 43
200.0
 44
20.0
 45
0.0
 46
0.0
 47
0.0
 48
0.0
140
64.0
141
0.09
142
0.0
143
25.399999999999999
144
1.0
145
0.0
146
1.0
147
25.0
 71
     0
 72
     0
 73
     0
 74
     0
 75
     0
 76
     0
 77
     1
 78
     8
170
     0
171
     2
172
     1
173
     0
174
     1
175
     0
176
     7
177
     7
178
     7
  0
ENDTAB
  0
TABLE
  2
VIEW
 70
     1
  0
VIEW
  2
ALL
 70
     0
 40
4282.6198079999986
 10
0.0
 20
41.309904000000003
 41
5940.0
 11
0.0
 21
0.0
 31
1.0
 12
0.0
 22
0.0
 32
0.0
 42
50.0
 43
0.0
 44
0.0
 50
0.0
 71
     0
  0
ENDTAB
  0
TABLE
  2
UCS
 70
     0
  0
ENDTAB
  0
TABLE
  2
VPORT
 70
     1
  0
VPORT
  2
*ACTIVE
 70
     0
 10
0.0
 20
0.0
 11
1.0
 21
1.0
 12
292.30500684620802
 22
138.10730974435231
 13
0.0
 23
0.0
 14
1.0
 24
1.0
 15
0.0
 25
0.0
 16
0.0
 26
0.0
 36
1.0
 17
0.0
 27
0.0
 37
0.0
 40
810.23818958222421
 41
1.7980884109916371
 42
50.0
 43
0.0
 44
0.0
 50
0.0
 51
0.0
 71
     0
 72
  1000
 73
     1
 74
     3
 75
     0
 76
     0
 77
     0
 78
     0
  0
ENDTAB
  0
ENDSEC
  0
SECTION
  2
BLOCKS
  0
BLOCK
  8
0
  2
_ORIGIN
 70
     0
 10
0.0
 20
0.0
 30
0.0
  3
_ORIGIN
  1
_ORIGIN
  0
CIRCLE
  8
0
  6
CONTINUOUS
 62
     7
 10
0.0
 20
0.0
 30
0.0
 40
0.5
  0
LINE
  8
0
  6
CONTINUOUS
 62
     7
 10
0.0
 20
0.0
 30
0.0
 11
-1.0
 21
0.0
 31
0.0
  0
ENDBLK
  8
0
  0
ENDSEC
  0
SECTION
  2
ENTITIES
  0
CIRCLE
  8
ARRANGE
  6
CONTINUOUS
 62
     1
 10
0.0
 20
0.0
 30
0.0
 40
40.0
  0
POINT
  8
ARRANGE
  6
CONTINUOUS
 62
     1
 10
0.0
 20
0.0
 30
0.0
 39
50.0
  0
CIRCLE
  8
FIX
  6
CONTINUOUS
 62
    11
 39
50.0
 10
85.0
 20
0.0
 30
0.0
 40
5.0
  0
LINE
  8
BASIS
  6
DASHDOT
 62
     6
 39
50.0
 10
85.0
 20
-10.0
 30
0.0
 11
85.0
 21
10.0
 31
0.0
  0
LINE
  8
BASIS
  6
DASHDOT
 62
     6
 39
50.0
 10
75.0
 20
0.0
 30
0.0
 11
95.0
 21
0.0
 31
0.0
  0
CIRCLE
  8
FIX
  6
CONTINUOUS
 62
    11
 39
50.0
 10
-85.0
 20
0.0
 30
0.0
 40
5.0
  0
LINE
  8
BASIS
  6
DASHDOT
 62
     6
 39
50.0
 10
-85.0
 20
-10.0
 30
0.0
 11
-85.0
 21
10.0
 31
0.0
  0
LINE
  8
BASIS
  6
DASHDOT
 62
     6
 39
50.0
 10
-75.0
 20
0.0
 30
0.0
 11
-95.0
 21
0.0
 31
0.0
  0
LINE
  8
SIZE
  6
CONTINUOUS
 62
    30
 10
-172.99989179922579
 20
-20.507871180220661
 30
0.0
 11
-172.99989179922579
 21
-262.09314485552522
 31
0.0
  0
LINE
  8
SIZE
  6
CONTINUOUS
 62
    30
 10
172.99989672736069
 20
-20.50787126622242
 30
0.0
 11
172.99989672736069
 21
-262.09314485552522
 31
0.0
  0
LINE
  8
SIZE
  6
CONTINUOUS
 62
    30
 10
-160.99989179922579
 20
-242.0931448555252
 30
0.0
 11
160.99989672736069
 21
-242.0931448555252
 31
0.0
  0
CIRCLE
  8
SIZE
  6
CONTINUOUS
 62
    30
 10
-172.99989179922579
 20
-242.0931448555252
 30
0.0
 40
6.0
  0
LINE
  8
SIZE
  6
CONTINUOUS
 62
    30
 10
-172.99989179922579
 20
-242.0931448555252
 30
0.0
 11
-160.99989179922579
 21
-242.0931448555252
 31
0.0
  0
CIRCLE
  8
SIZE
  6
CONTINUOUS
 62
    30
 10
172.99989672736069
 20
-242.0931448555252
 30
0.0
 40
6.0
  0
LINE
  8
SIZE
  6
CONTINUOUS
 62
    30
 10
172.99989672736069
 20
-242.0931448555252
 30
0.0
 11
160.99989672736069
 21
-242.0931448555252
 31
0.0
  0
TEXT
  8
SIZE
  6
CONTINUOUS
 62
    30
 10
-109.1657142857142
 20
-217.0931448555252
 30
0.0
 40
64.0
  1
□346
 41
0.9
 72
     1
 11
0.0000000000000568
 21
-217.0931448555252
 31
0.0
  0
LINE
  8
SIZE
  6
CONTINUOUS
 62
    30
 10
-85.0
 20
30.0
 30
0.0
 11
-85.0
 21
236.1488123530676
 31
0.0
  0
LINE
  8
SIZE
  6
CONTINUOUS
 62
    30
 10
85.0
 20
30.0
 30
0.0
 11
85.0
 21
236.1488123530676
 31
0.0
  0
LINE
  8
SIZE
  6
CONTINUOUS
 62
    30
 10
-97.0
 20
216.1488123530676
 30
0.0
 11
-109.0
 21
216.1488123530676
 31
0.0
  0
LINE
  8
SIZE
  6
CONTINUOUS
 62
    30
 10
97.0
 20
216.1488123530676
 30
0.0
 11
109.0
 21
216.1488123530676
 31
0.0
  0
LINE
  8
SIZE
  6
CONTINUOUS
 62
    30
 10
-85.0
 20
216.1488123530676
 30
0.0
 11
85.0
 21
216.1488123530676
 31
0.0
  0
CIRCLE
  8
SIZE
  6
CONTINUOUS
 62
    30
 10
-85.0
 20
216.1488123530676
 30
0.0
 40
6.0
  0
LINE
  8
SIZE
  6
CONTINUOUS
 62
    30
 10
-85.0
 20
216.1488123530676
 30
0.0
 11
-97.0
 21
216.1488123530676
 31
0.0
  0
CIRCLE
  8
SIZE
  6
CONTINUOUS
 62
    30
 10
85.0
 20
216.1488123530676
 30
0.0
 40
6.0
  0
LINE
  8
SIZE
  6
CONTINUOUS
 62
    30
 10
85.0
 20
216.1488123530676
 30
0.0
 11
97.0
 21
216.1488123530676
 31
0.0
  0
TEXT
  8
SIZE
  6
CONTINUOUS
 62
    30
 10
-68.571428571428569
 20
241.1488123530676
 30
0.0
 40
64.0
  1
170
 41
0.9
 72
     1
 11
0.0
 21
241.1488123530676
 31
0.0
  0
LINE
  8
SIZE
  6
CONTINUOUS
 62
    30
 10
144.70640508749989
 20
109.84875100293191
 30
0.0
 11
144.70640508749989
 21
371.50240565850248
 31
0.0
  0
LINE
  8
SIZE
  6
CONTINUOUS
 62
    30
 10
-145.0064050874999
 20
109.84875100293191
 30
0.0
 11
-145.0064050874999
 21
371.50240565850248
 31
0.0
  0
LINE
  8
SIZE
  6
CONTINUOUS
 62
    30
 10
132.70640508749989
 20
351.50240565850248
 30
0.0
 11
-133.0064050874999
 21
351.50240565850248
 31
0.0
  0
CIRCLE
  8
SIZE
  6
CONTINUOUS
 62
    30
 10
144.70640508749989
 20
351.50240565850248
 30
0.0
 40
6.0
  0
LINE
  8
SIZE
  6
CONTINUOUS
 62
    30
 10
144.70640508749989
 20
351.50240565850248
 30
0.0
 11
132.70640508749989
 21
351.50240565850248
 31
0.0
  0
CIRCLE
  8
SIZE
  6
CONTINUOUS
 62
    30
 10
-145.0064050874999
 20
351.50240565850248
 30
0.0
 40
6.0
  0
LINE
  8
SIZE
  6
CONTINUOUS
 62
    30
 10
-145.0064050874999
 20
351.50240565850248
 30
0.0
 11
-133.0064050874999
 21
351.50240565850248
 31
0.0
  0
TEXT
  8
SIZE
  6
CONTINUOUS
 62
    30
 10
-110.6871428571428
 20
376.50240565850248
 30
0.0
 40
64.0
  1
□290
 41
0.9
 72
     1
 11
-0.1499999999999773
 21
376.50240565850248
 31
0.0
  0
LINE
  8
SIZE
  6
CONTINUOUS
 62
    30
 10
-192.50080809437461
 20
0.0000000000001137
 30
0.0
 11
-364.07686741436368
 21
0.0000000000001705
 31
0.0
  0
LINE
  8
SIZE
  6
CONTINUOUS
 62
    30
 10
-188.82600993902361
 20
-59.899167335287871
 30
0.0
 11
-364.07686741436368
 21
-59.899167335287807
 31
0.0
  0
LINE
  8
SIZE
  6
CONTINUOUS
 62
    30
 10
-344.07686741436368
 20
12.000000000000171
 30
0.0
 11
-344.07686741436368
 21
24.000000000000171
 31
0.0
  0
LINE
  8
SIZE
  6
CONTINUOUS
 62
    30
 10
-344.07686741436368
 20
-71.899167335287814
 30
0.0
 11
-344.07686741436379
 21
-241.23548858672311
 31
0.0
  0
LINE
  8
SIZE
  6
CONTINUOUS
 62
    30
 10
-344.07686741436368
 20
0.0000000000001705
 30
0.0
 11
-344.07686741436368
 21
-59.899167335287807
 31
0.0
  0
CIRCLE
  8
SIZE
  6
CONTINUOUS
 62
    30
 10
-344.07686741436368
 20
0.0000000000001705
 30
0.0
 40
6.0
  0
LINE
  8
SIZE
  6
CONTINUOUS
 62
    30
 10
-344.07686741436368
 20
0.0000000000001705
 30
0.0
 11
-344.07686741436368
 21
12.000000000000171
 31
0.0
  0
CIRCLE
  8
SIZE
  6
CONTINUOUS
 62
    30
 10
-344.07686741436368
 20
-59.899167335287807
 30
0.0
 40
6.0
  0
LINE
  8
SIZE
  6
CONTINUOUS
 62
    30
 10
-344.07686741436368
 20
-59.899167335287807
 30
0.0
 11
-344.07686741436368
 21
-71.899167335287814
 31
0.0
  0
TEXT
  8
SIZE
  6
CONTINUOUS
 62
    30
 10
-369.07686741436368
 20
-216.23548858672311
 30
0.0
 40
64.0
  1
60
 50
90.0
 41
0.9
 72
     1
 11
-369.07686741436368
 21
-169.60691715815159
 31
0.0
  0
LINE
  8
SIZE
  6
CONTINUOUS
 62
    30
 10
-192.50080809437461
 20
0.0000000000001137
 30
0.0
 11
-364.07686741436368
 21
0.0000000000001705
 31
0.0
  0
LINE
  8
SIZE
  6
CONTINUOUS
 62
    30
 10
-165.0064050874999
 20
89.848751002931863
 30
0.0
 11
-364.07686741436368
 21
89.84875100293192
 31
0.0
  0
LINE
  8
SIZE
  6
CONTINUOUS
 62
    30
 10
-344.07686741436368
 20
12.000000000000171
 30
0.0
 11
-344.07686741436368
 21
77.84875100293192
 31
0.0
  0
CIRCLE
  8
SIZE
  6
CONTINUOUS
 62
    30
 10
-344.07686741436368
 20
0.0000000000001705
 30
0.0
 40
6.0
  0
LINE
  8
SIZE
  6
CONTINUOUS
 62
    30
 10
-344.07686741436368
 20
0.0000000000001705
 30
0.0
 11
-344.07686741436368
 21
12.000000000000171
 31
0.0
  0
CIRCLE
  8
SIZE
  6
CONTINUOUS
 62
    30
 10
-344.07686741436368
 20
89.84875100293192
 30
0.0
 40
6.0
  0
LINE
  8
SIZE
  6
CONTINUOUS
 62
    30
 10
-344.07686741436368
 20
89.84875100293192
 30
0.0
 11
-344.07686741436368
 21
77.84875100293192
 31
0.0
  0
TEXT
  8
SIZE
  6
CONTINUOUS
 62
    30
 10
-369.07686741436368
 20
-1.7041959271054381
 30
0.0
 40
64.0
  1
90
 50
90.0
 41
0.9
 72
     1
 11
-369.07686741436368
 21
44.924375501465988
 31
0.0
  0
LINE
  8
SIZE
  6
CONTINUOUS
 62
    30
 10
-165.0064050874999
 20
89.86070851187992
 30
0.0
 11
-364.07686741436379
 21
89.860708511879977
 31
0.0
  0
LINE
  8
SIZE
  6
CONTINUOUS
 62
    30
 10
-164.0064050874999
 20
157.84875100293189
 30
0.0
 11
-364.07686741436368
 21
157.84875100293189
 31
0.0
  0
LINE
  8
SIZE
  6
CONTINUOUS
 62
    30
 10
-344.07686741436379
 20
77.860708511879977
 30
0.0
 11
-344.07686741436379
 21
65.860708511879977
 31
0.0
  0
LINE
  8
SIZE
  6
CONTINUOUS
 62
    30
 10
-344.07686741436368
 20
169.84875100293189
 30
0.0
 11
-344.07686741436368
 21
325.10589386007467
 31
0.0
  0
LINE
  8
SIZE
  6
CONTINUOUS
 62
    30
 10
-344.07686741436379
 20
89.860708511879977
 30
0.0
 11
-344.07686741436368
 21
157.84875100293189
 31
0.0
  0
CIRCLE
  8
SIZE
  6
CONTINUOUS
 62
    30
 10
-344.07686741436379
 20
89.860708511879977
 30
0.0
 40
6.0
  0
LINE
  8
SIZE
  6
CONTINUOUS
 62
    30
 10
-344.07686741436379
 20
89.860708511879977
 30
0.0
 11
-344.07686741436379
 21
77.860708511879977
 31
0.0
  0
CIRCLE
  8
SIZE
  6
CONTINUOUS
 62
    30
 10
-344.07686741436368
 20
157.84875100293189
 30
0.0
 40
6.0
  0
LINE
  8
SIZE
  6
CONTINUOUS
 62
    30
 10
-344.07686741436368
 20
157.84875100293189
 30
0.0
 11
-344.07686741436368
 21
169.84875100293189
 31
0.0
  0
TEXT
  8
SIZE
  6
CONTINUOUS
 62
    30
 10
-369.07686741436379
 20
206.84875100293189
 30
0.0
 40
64.0
  1
68
 50
90.0
 41
0.9
 72
     1
 11
-369.07686741436379
 21
253.47732243150341
 31
0.0
  0
TEXT
  8
NOTE
  6
CONTINUOUS
 62
     4
 10
-324.72259435633782
 20
-169.68460548326021
 30
0.0
 40
64.0
  1
EL
 41
0.9
  0
LINE
  8
NOTE
  6
CONTINUOUS
 62
     4
 10
-175.12088782336409
 20
-5.6320406163081316
 30
0.0
 11
-172.50080809437469
 21
-0.0000000000005116
 31
0.0
  0
LINE
  8
NOTE
  6
CONTINUOUS
 62
     4
 10
-172.50080809437469
 20
-0.0000000000005116
 30
0.0
 11
-171.95383406720731
 21
-6.1875292891113531
 31
0.0
  0
LINE
  8
NOTE
  6
CONTINUOUS
 62
     4
 10
-172.50080809437469
 20
-0.0000000000005116
 30
0.0
 11
-174.57391379619679
 21
-11.819569905418939
 31
0.0
  0
LINE
  8
NOTE
  6
CONTINUOUS
 62
     4
 10
-174.57391379619679
 20
-11.819569905418939
 30
0.0
 11
-206.2903027195546
 21
-192.64685512178659
 31
0.0
  0
LINE
  8
NOTE
  6
CONTINUOUS
 62
     4
 10
-206.2903027195546
 20
-192.64685512178659
 30
0.0
 11
-328.31887414812599
 21
-192.64685512178659
 31
0.0
  0
TEXT
  8
NOTE
  6
CONTINUOUS
 62
     4
 10
268.2622460617863
 20
-136.52063812758749
 30
0.0
 40
64.0
  1
4-φ5×8
 41
0.9
  0
LINE
  8
NOTE
  6
CONTINUOUS
 62
     4
 10
87.868916151802068
 20
-5.5094481941414983
 30
0.0
 11
85.0
 21
0.0
 31
0.0
  0
LINE
  8
NOTE
  6
CONTINUOUS
 62
     4
 10
85.0
 20
0.0
 30
0.0
 11
90.239283394319273
 21
-3.3368561257583451
 31
0.0
  0
LINE
  8
NOTE
  6
CONTINUOUS
 62
     4
 10
85.0
 20
0.0
 30
0.0
 11
93.108199546121227
 21
-8.8463043198998434
 31
0.0
  0
LINE
  8
NOTE
  6
CONTINUOUS
 62
     4
 10
93.108199546121227
 20
-8.8463043198998434
 30
0.0
 11
244.65153052197141
 21
-174.18491196491959
 31
0.0
  0
LINE
  8
NOTE
  6
CONTINUOUS
 62
     4
 10
244.65153052197141
 20
-174.18491196491959
 30
0.0
 11
630.54295909339976
 21
-174.18491196491959
 31
0.0
  0
LINE
  8
NOTE
  6
CONTINUOUS
 62
     4
 39
50.0
 10
-172.50080809437461
 20
-10.000000000000311
 30
0.0
 11
-172.50080809437461
 21
9.9999999999997158
 31
0.0
  0
LINE
  8
NOTE
  6
CONTINUOUS
 62
     4
 39
50.0
 10
-162.50080809437461
 20
-0.0000000000002842
 30
0.0
 11
-182.50080809437461
 21
-0.0000000000002842
 31
0.0
  0
LINE
  8
DETAIL
  6
CONTINUOUS
 62
     5
 10
30.741966525841011
 20
-31.946222578820539
 30
0.0
 11
28.535802609620081
 21
-33.600845515974363
 31
0.0
  0
LINE
  8
DETAIL
  6
CONTINUOUS
 62
     5
 10
-28.94195407214329
 20
-31.946222578820539
 30
0.0
 11
-26.73579015592259
 21
-33.600845515974363
 31
0.0
  0
LINE
  8
DETAIL
  6
CONTINUOUS
 62
     5
 10
28.535802609620081
 20
-33.600845515974363
 30
0.0
 11
-26.73579015592259
 21
-33.600845515974363
 31
0.0
  0
LINE
  8
DETAIL
  6
CONTINUOUS
 62
     5
 10
173.00876165328509
 20
-0.0000000000001137
 30
0.0
 11
-172.50080809437489
 21
0.0000000000001137
 31
0.0
  0
LINE
  8
DETAIL
  6
CONTINUOUS
 62
     5
 10
161.00166566372761
 20
-50.914292234994832
 30
0.0
 11
161.33275455110311
 21
-31.946222578820539
 31
0.0
  0
LINE
  8
DETAIL
  6
CONTINUOUS
 62
     5
 10
145.00640508749979
 20
-0.0000000000001137
 30
0.0
 11
145.00640508749979
 21
89.848751002931863
 31
0.0
  0
ARC
  8
DETAIL
  6
CONTINUOUS
 62
     5
 10
144.1079175774706
 20
74.633210166375989
 30
0.0
 40
0.8984875100292941
 50
0.0
 51
30.000000000015081
  0
LINE
  8
DETAIL
  6
CONTINUOUS
 62
     5
 10
-145.0064050875001
 20
62.001762756693672
 30
0.0
 11
-145.0064050875001
 21
89.848751002931863
 31
0.0
  0
LINE
  8
DETAIL
  6
CONTINUOUS
 62
     5
 10
144.55281030988101
 20
89.848751002931863
 30
0.0
 11
-145.0064050875001
 21
89.848751002931863
 31
0.0
  0
LINE
  8
DETAIL
  6
CONTINUOUS
 62
     5
 10
144.55716133248541
 20
89.848751002931863
 30
0.0
 11
145.00640508749979
 21
89.848751002931863
 31
0.0
  0
ARC
  8
DETAIL
  6
CONTINUOUS
 62
     5
 10
-172.50080809437489
 20
-0.4991597277943356
 30
0.0
 40
0.4991597277939914
 50
90.000565857895097
 51
180.99999012470769
  0
ARC
  8
DETAIL
  6
CONTINUOUS
 62
     5
 10
-169.45593868473199
 20
-51.413451962789047
 30
0.0
 40
0.4991597277940394
 50
90.0
 51
181.0000000000278
  0
ARC
  8
DETAIL
  6
CONTINUOUS
 62
     5
 10
-171.4700924674396
 20
-30.947903123232091
 30
0.0
 40
0.9983194555881584
 50
181.00000000000179
 51
270.0
  0
ARC
  8
DETAIL
  6
CONTINUOUS
 62
     5
 10
-168.82600993902361
 20
-58.900847879699882
 30
0.0
 40
0.9983194555881466
 50
181.00000000000179
 51
270.0
  0
ARC
  8
DETAIL
  6
CONTINUOUS
 62
     5
 10
172.500813024189
 20
-0.4991597277943356
 30
0.0
 40
0.4991597277940831
 50
358.99999999998522
 51
90.0
  0
ARC
  8
DETAIL
  6
CONTINUOUS
 62
     5
 10
169.45593868464519
 20
-51.413451962789047
 30
0.0
 40
0.4991597277940831
 50
358.9999999999722
 51
90.0
  0
ARC
  8
DETAIL
  6
CONTINUOUS
 62
     5
 10
171.47009246735249
 20
-30.947903123232091
 30
0.0
 40
0.9983194555881944
 50
270.0
 51
358.99999999999818
  0
ARC
  8
DETAIL
  6
CONTINUOUS
 62
     5
 10
168.82600993893669
 20
-58.900847879700109
 30
0.0
 40
0.9983194555880788
 50
270.0
 51
358.99999999999818
  0
LINE
  8
DETAIL
  6
CONTINUOUS
 62
     5
 10
-172.46825987418259
 20
-30.965326200088271
 30
0.0
 11
-172.99989672764741
 21
-0.5078712662224234
 31
0.0
  0
LINE
  8
DETAIL
  6
CONTINUOUS
 62
     5
 10
-169.82417734556699
 20
-58.918270956556057
 30
0.0
 11
-169.9550223881038
 21
-51.422163501217142
 31
0.0
  0
LINE
  8
DETAIL
  6
CONTINUOUS
 62
     5
 10
-161.00166566381469
 20
-50.914292234994598
 30
0.0
 11
-161.33275455119019
 21
-31.946222578820539
 31
0.0
  0
LINE
  8
DETAIL
  6
CONTINUOUS
 62
     5
 10
-150.47385243092501
 20
-50.914292234994598
 30
0.0
 11
-150.14276354354979
 21
-31.946222578820539
 31
0.0
  0
LINE
  8
DETAIL
  6
CONTINUOUS
 62
     5
 10
-160.0034982570717
 20
-50.914292234994598
 30
0.0
 11
-160.33458714444711
 21
-31.946222578820539
 31
0.0
  0
LINE
  8
DETAIL
  6
CONTINUOUS
 62
     5
 10
-143.25884187694061
 20
-50.914292234994598
 30
0.0
 11
-143.25884187694061
 21
-31.946222578820539
 31
0.0
  0
LINE
  8
DETAIL
  6
CONTINUOUS
 62
     5
 10
171.47009246735249
 20
-31.946222578820539
 30
0.0
 11
-171.4700924674396
 21
-31.946222578820539
 31
0.0
  0
LINE
  8
DETAIL
  6
CONTINUOUS
 62
     5
 10
-169.45593868473199
 20
-50.914292234994598
 30
0.0
 11
169.45593868464519
 21
-50.914292234994832
 31
0.0
  0
LINE
  8
DETAIL
  6
CONTINUOUS
 62
     5
 10
168.82600993893669
 20
-59.899167335288098
 30
0.0
 11
-168.82600993902361
 21
-59.899167335287871
 31
0.0
  0
LINE
  8
DETAIL
  6
CONTINUOUS
 62
     5
 10
143.25884187685369
 20
-50.914292234994832
 30
0.0
 11
143.25884187685369
 21
-31.946222578820539
 31
0.0
  0
LINE
  8
DETAIL
  6
CONTINUOUS
 62
     5
 10
150.47385243083801
 20
-50.914292234994832
 30
0.0
 11
150.14276354346271
 21
-31.946222578820539
 31
0.0
  0
LINE
  8
DETAIL
  6
CONTINUOUS
 62
     5
 10
160.00349825698461
 20
-50.914292234994832
 30
0.0
 11
160.33458714436011
 21
-31.946222578820539
 31
0.0
  0
LINE
  8
DETAIL
  6
CONTINUOUS
 62
     5
 10
169.82417734548019
 20
-58.918270956556057
 30
0.0
 11
169.9550223878168
 21
-51.422163501217142
 31
0.0
  0
LINE
  8
DETAIL
  6
CONTINUOUS
 62
     5
 10
172.77351428593991
 20
-14.475632106028
 30
0.0
 11
172.76480142054561
 21
-13.976472378234011
 31
0.0
  0
LINE
  8
DETAIL
  6
CONTINUOUS
 62
     5
 10
172.46825987409559
 20
-30.965326200088501
 30
0.0
 11
172.99989672736069
 21
-0.5078712662224234
 31
0.0
  0
LINE
  8
BASIS
  6
DASHDOT
 62
     6
 10
0.0
 20
114.09220774722429
 30
0.0
 11
0.0
 21
-101.99402179693909
 31
0.0
  0
LINE
  8
DETAIL
  6
CONTINUOUS
 62
     5
 10
-145.0064050875001
 20
89.848751002931863
 30
0.0
 11
-145.0064050875001
 21
0.0000000000001137
 31
0.0
  0
LINE
  8
OUTLINE
  6
CONTINUOUS
 62
     3
 10
173.00876165328509
 20
-0.0000000000001137
 30
0.0
 11
145.00640508749979
 21
-0.0000000000001137
 31
0.0
  0
LINE
  8
OUTLINE
  6
CONTINUOUS
 62
     3
 10
-145.0064050874999
 20
0.0000000000001137
 30
0.0
 11
-172.50080809437461
 21
0.0000000000001137
 31
0.0
  0
LINE
  8
OUTLINE
  6
CONTINUOUS
 62
     3
 10
161.00166566372809
 20
-50.914292234994832
 30
0.0
 11
161.33275455110331
 21
-31.946222578820539
 31
0.0
  0
LINE
  8
OUTLINE
  6
CONTINUOUS
 62
     3
 10
145.00640508749979
 20
-0.0000000000001137
 30
0.0
 11
145.00640508749979
 21
89.848751002931863
 31
0.0
  0
ARC
  8
OUTLINE
  6
CONTINUOUS
 62
     3
 10
144.10791757747089
 20
74.633210166375989
 30
0.0
 40
0.8984875100292941
 50
0.0
 51
30.000000000015081
  0
LINE
  8
OUTLINE
  6
CONTINUOUS
 62
     3
 10
-145.0064050874999
 20
62.001762756693672
 30
0.0
 11
-145.0064050874999
 21
89.848751002931863
 31
0.0
  0
LINE
  8
OUTLINE
  6
CONTINUOUS
 62
     3
 10
144.5528103098811
 20
89.848751002931863
 30
0.0
 11
-145.0064050874999
 21
89.848751002931863
 31
0.0
  0
LINE
  8
OUTLINE
  6
CONTINUOUS
 62
     3
 10
144.55716133248541
 20
89.848751002931863
 30
0.0
 11
145.00640508749979
 21
89.848751002931863
 31
0.0
  0
ARC
  8
OUTLINE
  6
CONTINUOUS
 62
     3
 10
-172.50080809437461
 20
-0.4991597277943356
 30
0.0
 40
0.4991597277939914
 50
90.000565857895097
 51
180.99999012470769
  0
ARC
  8
OUTLINE
  6
CONTINUOUS
 62
     3
 10
-169.45593868473179
 20
-51.413451962789047
 30
0.0
 40
0.4991597277940394
 50
90.0
 51
181.0000000000278
  0
ARC
  8
OUTLINE
  6
CONTINUOUS
 62
     3
 10
-171.4700924674394
 20
-30.947903123232091
 30
0.0
 40
0.9983194555881584
 50
181.00000000000179
 51
270.0
  0
ARC
  8
OUTLINE
  6
CONTINUOUS
 62
     3
 10
-168.82600993902361
 20
-58.900847879699882
 30
0.0
 40
0.9983194555881466
 50
181.00000000000179
 51
270.0
  0
ARC
  8
OUTLINE
  6
CONTINUOUS
 62
     3
 10
172.500813024189
 20
-0.4991597277943356
 30
0.0
 40
0.4991597277940831
 50
358.99999999998522
 51
90.0
  0
ARC
  8
OUTLINE
  6
CONTINUOUS
 62
     3
 10
169.45593868464539
 20
-51.413451962789047
 30
0.0
 40
0.4991597277940831
 50
358.9999999999722
 51
90.0
  0
ARC
  8
OUTLINE
  6
CONTINUOUS
 62
     3
 10
171.47009246735249
 20
-30.947903123232091
 30
0.0
 40
0.9983194555881944
 50
270.0
 51
358.99999999999818
  0
ARC
  8
OUTLINE
  6
CONTINUOUS
 62
     3
 10
168.82600993893669
 20
-58.900847879700109
 30
0.0
 40
0.9983194555880788
 50
270.0
 51
358.99999999999818
  0
LINE
  8
OUTLINE
  6
CONTINUOUS
 62
     3
 10
-172.46825987418259
 20
-30.965326200088271
 30
0.0
 11
-172.99989672764721
 21
-0.5078712662224234
 31
0.0
  0
LINE
  8
OUTLINE
  6
CONTINUOUS
 62
     3
 10
-169.82417734556699
 20
-58.918270956556057
 30
0.0
 11
-169.9550223881034
 21
-51.422163501217142
 31
0.0
  0
LINE
  8
OUTLINE
  6
CONTINUOUS
 62
     3
 10
-161.00166566381449
 20
-50.914292234994598
 30
0.0
 11
-161.33275455118999
 21
-31.946222578820539
 31
0.0
  0
LINE
  8
OUTLINE
  6
CONTINUOUS
 62
     3
 10
171.47009246735249
 20
-31.946222578820539
 30
0.0
 11
161.33275455110331
 21
-31.946222578820539
 31
0.0
  0
LINE
  8
OUTLINE
  6
CONTINUOUS
 62
     3
 10
-161.33275455118999
 20
-31.946222578820539
 30
0.0
 11
-171.4700924674394
 21
-31.946222578820539
 31
0.0
  0
LINE
  8
OUTLINE
  6
CONTINUOUS
 62
     3
 10
-169.45593868473179
 20
-50.914292234994598
 30
0.0
 11
-161.00166566381441
 21
-50.914292234994598
 31
0.0
  0
LINE
  8
OUTLINE
  6
CONTINUOUS
 62
     3
 10
161.00166566372809
 20
-50.914292234994832
 30
0.0
 11
169.45593868464539
 21
-50.914292234994832
 31
0.0
  0
LINE
  8
OUTLINE
  6
CONTINUOUS
 62
     3
 10
168.82600993893669
 20
-59.899167335288098
 30
0.0
 11
-168.82600993902361
 21
-59.899167335287871
 31
0.0
  0
LINE
  8
OUTLINE
  6
CONTINUOUS
 62
     3
 10
169.82417734548039
 20
-58.918270956556057
 30
0.0
 11
169.95502238781711
 21
-51.422163501217142
 31
0.0
  0
LINE
  8
OUTLINE
  6
CONTINUOUS
 62
     3
 10
172.46825987409559
 20
-30.965326200088501
 30
0.0
 11
172.99989672736069
 21
-0.5078712662224234
 31
0.0
  0
LINE
  8
OUTLINE
  6
CONTINUOUS
 62
     3
 10
-145.0064050874999
 20
89.848751002931863
 30
0.0
 11
-145.0064050874999
 21
0.0000000000001137
 31
0.0
  0
LINE
  8
DETAIL
  6
CONTINUOUS
 62
     5
 39
50.0
 10
-144.0064050874999
 20
89.848751002931863
 30
0.0
 11
-144.0064050874999
 21
157.84875100293189
 31
0.0
  0
LINE
  8
DETAIL
  6
CONTINUOUS
 62
     5
 39
50.0
 10
-144.0064050874999
 20
157.84875100293189
 30
0.0
 11
144.00640508749979
 21
157.84875100293181
 31
0.0
  0
LINE
  8
DETAIL
  6
CONTINUOUS
 62
     5
 39
50.0
 10
144.00640508749979
 20
157.84875100293181
 30
0.0
 11
144.00640508749979
 21
89.848751002931863
 31
0.0
  0
TEXT
  8
ETC
  6
CONTINUOUS
 62
    61
 10
334.5482154565002
 20
474.12106754368352
 30
0.0
 40
64.0
  1
EX-25EK8-C_6
 41
0.9
  0
TEXT
  8
ETC
  6
CONTINUOUS
 62
    61
 10
330.36222145649981
 20
356.16575752885228
 30
0.0
 40
64.0
  1
換気扇
 41
0.9
  0
TEXT
  8
ETC
  6
CONTINUOUS
 62
    61
 10
381.06361970505583
 20
248.01698464262699
 30
0.0
 40
40.0
  1
EX-25EK8-C
 50
0.0
 41
0.9
 51
0.0
  7
STANDARD
 71
     0
 11
0.0
 21
0.0
 31
0.0
210
0.0
220
0.0
230
1.0
  0
TEXT
  8
ETC
  6
CONTINUOUS
 62
    61
 10
381.06361970505583
 20
182.01698464262699
 30
0.0
 40
40.0
  1
EX-25EK8-M
 50
0.0
 41
0.9
 51
0.0
  7
STANDARD
 71
     0
 11
0.0
 21
0.0
 31
0.0
210
0.0
220
0.0
230
1.0
  0
TEXT
  8
ETC
  6
CONTINUOUS
 62
    61
 10
381.06361970505583
 20
116.01698464262699
 30
0.0
 40
40.0
  1
EX-25LK8-C
 50
0.0
 41
0.9
 51
0.0
  7
STANDARD
 71
     0
 11
0.0
 21
0.0
 31
0.0
210
0.0
220
0.0
230
1.0
  0
TEXT
  8
ETC
  6
CONTINUOUS
 62
    61
 10
381.06361970505583
 20
50.016984642626994
 30
0.0
 40
40.0
  1
EX-25LK8-M
 50
0.0
 41
0.9
 51
0.0
  7
STANDARD
 71
     0
 11
0.0
 21
0.0
 31
0.0
210
0.0
220
0.0
230
1.0
  0
TEXT
  8
ETC
  6
CONTINUOUS
 62
    61
 10
381.06361970505583
 20
-15.983015357373006
 30
0.0
 40
40.0
  1
EX-25RK8-C
 50
0.0
 41
0.9
 51
0.0
  7
STANDARD
 71
     0
 11
0.0
 21
0.0
 31
0.0
210
0.0
220
0.0
230
1.0
  0
ENDSEC
  0
EOF
