  0
SECTION
  2
HEADER
  9
$ACADVER
  1
AC1009
  9
$INSBASE
 10
0.0
 20
0.0
 30
0.0
  9
$EXTMIN
 10
-659.67210800000009
 20
-377.13066900000001
 30
0.0
  9
$EXTMAX
 10
1085.882752253556
 20
616.80587928045395
 30
50.0
  9
$LIMMIN
 10
-2970.0
 20
-2100.0
  9
$LIMMAX
 10
2970.0
 20
2100.0
  9
$ORTHOMODE
 70
     1
  9
$REGENMODE
 70
     0
  9
$FILLMODE
 70
     1
  9
$QTEXTMODE
 70
     0
  9
$MIRRTEXT
 70
     0
  9
$DRAGMODE
 70
     2
  9
$LTSCALE
 40
20.0
  9
$OSMODE
 70
    41
  9
$ATTMODE
 70
     1
  9
$TEXTSIZE
 40
64.0
  9
$TRACEWID
 40
0.05
  9
$TEXTSTYLE
  7
STANDARD
  9
$CLAYER
  8
OUTLINE
  9
$CELTYPE
  6
CONTINUOUS
  9
$CECOLOR
 62
     3
  9
$DIMSCALE
 40
1.0
  9
$DIMASZ
 40
12.0
  9
$DIMEXO
 40
20.0
  9
$DIMDLI
 40
200.0
  9
$DIMRND
 40
0.0
  9
$DIMDLE
 40
0.0
  9
$DIMEXE
 40
20.0
  9
$DIMTP
 40
0.0
  9
$DIMTM
 40
0.0
  9
$DIMTXT
 40
64.0
  9
$DIMCEN
 40
0.09
  9
$DIMTSZ
 40
0.0
  9
$DIMTOL
 70
     0
  9
$DIMLIM
 70
     0
  9
$DIMTIH
 70
     0
  9
$DIMTOH
 70
     0
  9
$DIMSE1
 70
     0
  9
$DIMSE2
 70
     0
  9
$DIMTAD
 70
     1
  9
$DIMZIN
 70
     8
  9
$DIMBLK
  1
DOT1
  9
$DIMASO
 70
     1
  9
$DIMSHO
 70
     0
  9
$DIMPOST
  1

  9
$DIMAPOST
  1

  9
$DIMALT
 70
     0
  9
$DIMALTD
 70
     2
  9
$DIMALTF
 40
25.399999999999999
  9
$DIMLFAC
 40
1.0
  9
$DIMTOFL
 70
     1
  9
$DIMTVP
 40
0.0
  9
$DIMTIX
 70
     1
  9
$DIMSOXD
 70
     0
  9
$DIMSAH
 70
     1
  9
$DIMBLK1
  1
ORIGIN
  9
$DIMBLK2
  1
ORIGIN
  9
$DIMSTYLE
  2
STANDARD
  9
$DIMCLRD
 70
     0
  9
$DIMCLRE
 70
     0
  9
$DIMCLRT
 70
     0
  9
$DIMTFAC
 40
1.0
  9
$DIMGAP
 40
0.09
  9
$LUNITS
 70
     2
  9
$LUPREC
 70
     4
  9
$SKETCHINC
 40
0.1
  9
$FILLETRAD
 40
15.0
  9
$AUNITS
 70
     1
  9
$AUPREC
 70
     3
  9
$MENU
  1
ACAD
  9
$ELEVATION
 40
0.0
  9
$PELEVATION
 40
0.0
  9
$THICKNESS
 40
50.0
  9
$LIMCHECK
 70
     0
  9
$BLIPMODE
 70
     0
  9
$CHAMFERA
 40
0.0
  9
$CHAMFERB
 40
0.0
  9
$SKPOLY
 70
     0
  9
$TDCREATE
 40
2451453.4938508091
  9
$TDUPDATE
 40
2453462.8434602772
  9
$TDINDWG
 40
0.7734985764
  9
$TDUSRTIMER
 40
0.7734983912
  9
$USRTIMER
 70
     1
  9
$ANGBASE
 50
0.0
  9
$ANGDIR
 70
     0
  9
$PDMODE
 70
     3
  9
$PDSIZE
 40
-2.0
  9
$PLINEWID
 40
0.0
  9
$COORDS
 70
     2
  9
$SPLFRAME
 70
     0
  9
$SPLINETYPE
 70
     6
  9
$SPLINESEGS
 70
     8
  9
$ATTDIA
 70
     0
  9
$ATTREQ
 70
     1
  9
$HANDLING
 70
 22529
  9
$HANDSEED
  5
500
  9
$SURFTAB1
 70
     6
  9
$SURFTAB2
 70
     6
  9
$SURFTYPE
 70
     6
  9
$SURFU
 70
     6
  9
$SURFV
 70
     6
  9
$UCSNAME
  2

  9
$UCSORG
 10
0.0
 20
0.0
 30
0.0
  9
$UCSXDIR
 10
1.0
 20
0.0
 30
0.0
  9
$UCSYDIR
 10
0.0
 20
1.0
 30
0.0
  9
$PUCSNAME
  2

  9
$PUCSORG
 10
0.0
 20
0.0
 30
0.0
  9
$PUCSXDIR
 10
1.0
 20
0.0
 30
0.0
  9
$PUCSYDIR
 10
0.0
 20
1.0
 30
0.0
  9
$USERI1
 70
     0
  9
$USERI2
 70
     0
  9
$USERI3
 70
     0
  9
$USERI4
 70
     0
  9
$USERI5
 70
     0
  9
$USERR1
 40
20.0
  9
$USERR2
 40
0.0
  9
$USERR3
 40
0.0
  9
$USERR4
 40
0.0
  9
$USERR5
 40
0.0
  9
$WORLDVIEW
 70
     1
  9
$SHADEDGE
 70
     3
  9
$SHADEDIF
 70
    70
  9
$TILEMODE
 70
     1
  9
$MAXACTVP
 70
    64
  9
$PLIMCHECK
 70
     0
  9
$PEXTMIN
 10
1.0000000000000000E+020
 20
1.0000000000000000E+020
 30
1.0000000000000000E+020
  9
$PEXTMAX
 10
-1.0000000000000000E+020
 20
-1.0000000000000000E+020
 30
-1.0000000000000000E+020
  9
$PLIMMIN
 10
0.0
 20
0.0
  9
$PLIMMAX
 10
12.0
 20
9.0
  9
$UNITMODE
 70
     0
  9
$VISRETAIN
 70
     1
  9
$PLINEGEN
 70
     0
  9
$PSLTSCALE
 70
     1
  0
ENDSEC
  0
SECTION
  2
TABLES
  0
TABLE
  2
VPORT
 70
     3
  0
VPORT
  2
*ACTIVE
 70
     0
 10
0.0
 20
0.0
 11
1.0
 21
1.0
 12
108.9871528411777
 22
45.943774641273301
 13
0.0
 23
0.0
 14
1.0
 24
1.0
 15
0.0
 25
0.0
 16
0.0
 26
0.0
 36
1.0
 17
0.0
 27
0.0
 37
0.0
 40
1445.9924661994371
 41
1.4423558897243101
 42
50.0
 43
0.0
 44
0.0
 50
0.0
 51
0.0
 71
     0
 72
   100
 73
     1
 74
     0
 75
     0
 76
     0
 77
     0
 78
     0
  0
ENDTAB
  0
TABLE
  2
LTYPE
 70
     3
  0
LTYPE
  2
CONTINUOUS
 70
     0
  3
実線
 72
    65
 73
     0
 40
0.0
  0
LTYPE
  2
DASHDOT
 70
     0
  3
____ _ ____ _ ____ _ ____ _ ____ _ ____ _ ____
 72
    65
 73
     4
 40
5.5
 49
4.0
 49
-0.6
 49
0.3
 49
-0.6
  0
LTYPE
  2
DASHED
 70
     0
  3
_ _ _ _ _ _ _ _ _ _ _ _ _ _ _ _ _ _ _ _ _ _ _
 72
    65
 73
     2
 40
2.0
 49
1.1999999999999991
 49
-0.8
  0
ENDTAB
  0
TABLE
  2
LAYER
 70
    12
  0
LAYER
  2
0
 70
     0
 62
     7
  6
CONTINUOUS
  0
LAYER
  2
OUTLINE
 70
     0
 62
     3
  6
CONTINUOUS
  0
LAYER
  2
BASIS
 70
     0
 62
     6
  6
DASHDOT
  0
LAYER
  2
DETAIL
 70
     0
 62
     5
  6
CONTINUOUS
  0
LAYER
  2
SIZE
 70
     0
 62
    30
  6
CONTINUOUS
  0
LAYER
  2
ARRANGE
 70
     0
 62
     1
  6
CONTINUOUS
  0
LAYER
  2
DEFPOINTS
 70
     0
 62
     7
  6
CONTINUOUS
  0
LAYER
  2
ETC
 70
     0
 62
    61
  6
CONTINUOUS
  0
LAYER
  2
FIX
 70
     0
 62
    11
  6
CONTINUOUS
  0
LAYER
  2
NOTE
 70
     0
 62
     4
  6
CONTINUOUS
  0
LAYER
  2
SERVICESPACE
 70
     0
 62
     2
  6
DASHDOT
  0
LAYER
  2
SYMBOLLINE
 70
     0
 62
    15
  6
CONTINUOUS
  0
ENDTAB
  0
TABLE
  2
STYLE
 70
     1
  0
STYLE
  2
STANDARD
 70
     0
 40
64.0
 41
0.9
 50
0.0
 71
     0
 42
64.0
  3
SIMPLEX.shx
  4
BIGFONT.shx
  0
ENDTAB
  0
TABLE
  2
VIEW
 70
     1
  0
VIEW
  2
ALL
 70
     0
 40
4282.6198079999967
 10
0.0
 20
41.309903999999989
 41
5940.0
 11
0.0
 21
0.0
 31
1.0
 12
0.0
 22
0.0
 32
0.0
 42
50.0
 43
0.0
 44
0.0
 50
0.0
 71
     0
  0
ENDTAB
  0
TABLE
  2
UCS
 70
     0
  0
ENDTAB
  0
TABLE
  2
APPID
 70
     1
  0
APPID
  2
ACAD
 70
     0
  0
ENDTAB
  0
TABLE
  2
DIMSTYLE
 70
     1
  0
DIMSTYLE
  2
STANDARD
 70
     0
  3

  4

  5

  6

  7

 40
1.0
 41
0.18
 42
0.0625
 43
0.38
 44
0.18
 45
0.0
 46
0.0
 47
0.0
 48
0.0
140
0.18
141
0.09
142
0.0
143
25.399999999999999
144
1.0
145
0.0
146
1.0
147
0.09
 71
     0
 72
     0
 73
     1
 74
     1
 75
     0
 76
     0
 77
     0
 78
     0
170
     0
171
     2
172
     0
173
     0
174
     0
175
     0
176
     0
177
     0
178
     0
  0
ENDTAB
  0
ENDSEC
  0
SECTION
  2
BLOCKS
  0
BLOCK
  8
0
  2
$MODEL_SPACE
 70
     0
 10
0.0
 20
0.0
 30
0.0
  3
$MODEL_SPACE
  1

  0
ENDBLK
  5
3E2
  8
0
  0
BLOCK
 67
     1
  8
0
  2
$PAPER_SPACE
 70
     0
 10
0.0
 20
0.0
 30
0.0
  3
$PAPER_SPACE
  1

  0
ENDBLK
  5
3DE
 67
     1
  8
0
  0
BLOCK
  8
0
  2
DOT1
 70
     0
 10
0.0
 20
0.0
 30
0.0
  3
DOT1
  1

  0
CIRCLE
  5
3FE
  8
SIZE
  6
CONTINUOUS
 62
     7
 10
0.0
 20
0.0
 30
0.0
 40
3.0
  0
ENDBLK
  5
3FF
  8
0
  0
BLOCK
  8
0
  2
_ORIGIN
 70
     0
 10
0.0
 20
0.0
 30
0.0
  3
_ORIGIN
  1

  0
CIRCLE
  5
402
  8
0
  6
CONTINUOUS
 62
     7
 10
0.0
 20
0.0
 30
0.0
 40
0.5
  0
LINE
  5
403
  8
0
  6
CONTINUOUS
 62
     7
 10
0.0
 20
0.0
 30
0.0
 11
-1.0
 21
0.0
 31
0.0
  0
ENDBLK
  5
404
  8
0
  0
ENDSEC
  0
SECTION
  2
ENTITIES
  0
LINE
  5
405
  8
DETAIL
  6
CONTINUOUS
 62
     5
 10
-3.0
 20
172.09999999999999
 30
0.0
 11
-2.6000000000000001
 21
172.09999999999999
 31
0.0
  0
ARC
  5
406
  8
DETAIL
  6
CONTINUOUS
 62
     5
 10
-2.6000000000000001
 20
174.09999999999991
 30
0.0
 40
2.0
 50
270.0
 51
0.0
  0
LINE
  5
407
  8
DETAIL
  6
CONTINUOUS
 62
     5
 10
-30.0
 20
-142.09999999999999
 30
0.0
 11
-30.0
 21
142.09999999999999
 31
0.0
  0
LINE
  5
408
  8
DETAIL
  6
DASHED
 62
     5
 10
0.0
 20
-92.0
 30
0.0
 11
0.0
 21
92.0
 31
0.0
  0
LINE
  5
409
  8
DETAIL
  6
DASHED
 62
     5
 10
0.0
 20
-140.4300429999999
 30
0.0
 11
0.0
 21
-127.0
 31
0.0
  0
LINE
  5
40A
  8
DETAIL
  6
CONTINUOUS
 62
     5
 10
-0.6
 20
174.09999999999991
 30
0.0
 11
-0.6
 21
175.0
 31
0.0
  0
LINE
  5
40B
  8
DETAIL
  6
CONTINUOUS
 62
     5
 10
-0.6
 20
175.0
 30
0.0
 11
0.0
 21
175.0
 31
0.0
  0
LINE
  5
40C
  8
DETAIL
  6
CONTINUOUS
 62
     5
 10
0.0
 20
-175.0
 30
0.0
 11
0.0
 21
-140.4300429999999
 31
0.0
  0
LINE
  5
40D
  8
DETAIL
  6
CONTINUOUS
 62
     5
 10
-12.97106799999999
 20
-191.0
 30
0.0
 11
-40.074176000000001
 21
-191.0
 31
0.0
  0
LINE
  5
40E
  8
DETAIL
  6
CONTINUOUS
 62
     5
 10
0.0
 20
-180.09999999999991
 30
0.0
 11
0.0
 21
-156.0
 31
0.0
  0
LINE
  5
40F
  8
DETAIL
  6
CONTINUOUS
 62
     5
 10
0.0
 20
-156.0
 30
0.0
 11
-30.0
 21
-156.0
 31
0.0
  0
LINE
  5
410
  8
DETAIL
  6
CONTINUOUS
 62
     5
 10
-67.0
 20
-176.0
 30
0.0
 11
-67.0
 21
-178.96890099999999
 31
0.0
  0
LINE
  5
411
  8
DETAIL
  6
CONTINUOUS
 62
     5
 10
-30.0
 20
-156.0
 30
0.0
 11
-30.0
 21
-191.0
 31
0.0
  0
LINE
  5
412
  8
DETAIL
  6
CONTINUOUS
 62
     5
 10
-30.0
 20
-156.0
 30
0.0
 11
-67.0
 21
-176.0
 31
0.0
  0
LINE
  5
413
  8
DETAIL
  6
CONTINUOUS
 62
     5
 10
-65.114171999999996
 20
-181.75433099999961
 30
0.0
 11
-43.788083
 21
-190.2847669999999
 31
0.0
  0
ARC
  5
414
  8
DETAIL
  6
CONTINUOUS
 62
     5
 10
-64.0
 20
-178.96890099999999
 30
0.0
 40
3.0
 50
180.0
 51
248.19859099999999
  0
ARC
  5
415
  8
DETAIL
  6
CONTINUOUS
 62
     5
 10
-40.074176000000001
 20
-181.0
 30
0.0
 40
10.0
 50
248.19859099999999
 51
270.0
  0
LINE
  5
416
  8
DETAIL
  6
CONTINUOUS
 62
     5
 10
-9.4355340000000005
 20
-189.53553400000001
 30
0.0
 11
0.0
 21
-180.09999999999991
 31
0.0
  0
ARC
  5
417
  8
DETAIL
  6
CONTINUOUS
 62
     5
 10
-12.97106799999999
 20
-186.0
 30
0.0
 40
5.0
 50
270.0
 51
315.0
  0
LINE
  5
418
  8
DETAIL
  6
CONTINUOUS
 62
     5
 10
-3.0
 20
172.6999999999999
 30
0.0
 11
-29.539440999999989
 21
172.6999999999999
 31
0.0
  0
LINE
  5
419
  8
DETAIL
  6
CONTINUOUS
 62
     5
 10
-62.5
 20
157.6999999999999
 30
0.0
 11
-62.5
 21
166.96416899999991
 31
0.0
  0
LINE
  5
41A
  8
DETAIL
  6
CONTINUOUS
 62
     5
 10
-5.0
 20
147.69999999999979
 30
0.0
 11
-30.0
 21
147.69999999999979
 31
0.0
  0
LINE
  5
41B
  8
DETAIL
  6
CONTINUOUS
 62
     5
 10
-3.0
 20
149.69999999999979
 30
0.0
 11
-3.0
 21
172.6999999999999
 31
0.0
  0
LINE
  5
41C
  8
DETAIL
  6
CONTINUOUS
 62
     5
 10
-30.0
 20
147.69999999999979
 30
0.0
 11
-30.0
 21
172.6999999999999
 31
0.0
  0
LINE
  5
41D
  8
DETAIL
  6
CONTINUOUS
 62
     5
 10
-30.45860999999999
 20
172.657667
 30
0.0
 11
-59.775751
 21
169.9514689999998
 31
0.0
  0
LINE
  5
41E
  8
DETAIL
  6
CONTINUOUS
 62
     5
 10
-62.5
 20
157.6999999999999
 30
0.0
 11
-30.0
 21
147.69999999999979
 31
0.0
  0
ARC
  5
41F
  8
DETAIL
  6
CONTINUOUS
 62
     5
 10
-59.5
 20
166.96416899999991
 30
0.0
 40
3.0
 50
95.273896000000008
 51
180.0
  0
ARC
  5
420
  8
DETAIL
  6
CONTINUOUS
 62
     5
 10
-29.539440999999989
 20
162.6999999999999
 30
0.0
 40
10.0
 50
90.0
 51
95.273896000000008
  0
ARC
  5
421
  8
DETAIL
  6
CONTINUOUS
 62
     5
 10
-5.0
 20
149.69999999999979
 30
0.0
 40
2.0
 50
270.0
 51
0.0
  0
ARC
  5
422
  8
DETAIL
  6
CONTINUOUS
 62
     5
 10
0.3
 20
-145.30000000000001
 30
0.0
 40
0.3
 50
90.0
 51
180.0
  0
LINE
  5
423
  8
DETAIL
  6
CONTINUOUS
 62
     5
 10
0.0
 20
-143.0
 30
0.0
 11
0.0
 21
175.0
 31
0.0
  0
LINE
  5
424
  8
DETAIL
  6
CONTINUOUS
 62
     5
 10
0.0
 20
-165.1999999999999
 30
0.0
 11
0.0
 21
-145.30000000000001
 31
0.0
  0
LINE
  5
425
  8
DETAIL
  6
CONTINUOUS
 62
     5
 10
-59.5
 20
156.77692300000001
 30
0.0
 11
-59.5
 21
-171.94594599999991
 31
0.0
  0
LINE
  5
426
  8
DETAIL
  6
CONTINUOUS
 62
     5
 10
-29.999993
 20
147.69999799999991
 30
0.0
 11
-29.999993
 21
-156.0
 31
0.0
  0
LINE
  5
427
  8
DETAIL
  6
CONTINUOUS
 62
     5
 10
-37.000000999999997
 20
149.85384599999981
 30
0.0
 11
-37.000000999999997
 21
-159.78378399999991
 31
0.0
  0
LINE
  5
428
  8
BASIS
  6
DASHDOT
 62
     6
 10
164.731292
 20
0.0
 30
0.0
 11
-129.536494
 21
0.0
 31
0.0
  0
LINE
  5
429
  8
DETAIL
  6
CONTINUOUS
 62
     5
 10
-1.0
 20
-156.0
 30
0.0
 11
-1.0
 21
172.90000000000001
 31
0.0
  0
POINT
  5
42A
  8
ARRANGE
  6
CONTINUOUS
 62
     1
 10
0.0
 20
0.0
 30
0.0
  0
CIRCLE
  5
42B
  8
ARRANGE
  6
CONTINUOUS
 62
     1
 10
0.0
 20
0.0
 30
0.0
 40
40.0
  0
TEXT
  5
42C
  8
NOTE
  6
CONTINUOUS
 62
     4
 10
183.3960669999999
 20
246.181783
 30
0.0
 40
64.0
  1
4-φ5
 41
0.9
  0
LINE
  5
42D
  8
NOTE
  6
CONTINUOUS
 62
     4
 10
163.761942
 20
218.5075029999999
 30
0.0
 11
428.19710400000002
 21
218.5075029999999
 31
0.0
  0
LINE
  5
42E
  8
SIZE
  6
CONTINUOUS
 62
    30
 10
-40.0
 20
157.5
 30
0.0
 11
-356.38321799999972
 21
157.5
 31
0.0
  0
LINE
  5
42F
  8
SIZE
  6
CONTINUOUS
 62
    30
 10
-149.53649399999981
 20
0.0
 30
0.0
 11
-356.38321799999972
 21
0.0
 31
0.0
  0
LINE
  5
430
  8
SIZE
  6
CONTINUOUS
 62
    30
 10
-336.383218
 20
145.5
 30
0.0
 11
-336.383218
 21
12.0
 31
0.0
  0
LINE
  5
431
  8
SIZE
  6
CONTINUOUS
 62
    30
 10
-336.383218
 20
462.01217300000002
 30
0.0
 11
-336.383218
 21
157.5
 31
0.0
  0
TEXT
  5
432
  8
SIZE
  6
CONTINUOUS
 62
    30
 10
-361.383218
 20
217.58360228571419
 30
0.0
 40
64.0
  1
157.5
 50
90.0
 41
0.9
 72
     1
 11
-361.383218
 21
327.297888
 31
0.0
  0
CIRCLE
  5
433
  8
SIZE
  6
CONTINUOUS
 62
    30
 10
-336.383218
 20
157.5
 30
0.0
 40
6.0
  0
LINE
  5
434
  8
SIZE
  6
CONTINUOUS
 62
    30
 10
-336.383218
 20
157.5
 30
0.0
 11
-336.383218
 21
145.5
 31
0.0
  0
CIRCLE
  5
435
  8
SIZE
  6
CONTINUOUS
 62
    30
 10
-336.383218
 20
0.0
 30
0.0
 40
6.0
  0
LINE
  5
436
  8
SIZE
  6
CONTINUOUS
 62
    30
 10
-336.383218
 20
0.0
 30
0.0
 11
-336.383218
 21
12.0
 31
0.0
  0
LINE
  5
437
  8
SIZE
  6
CONTINUOUS
 62
    30
 10
-149.53649399999981
 20
0.0
 30
0.0
 11
-356.38321799999972
 21
0.0
 31
0.0
  0
LINE
  5
438
  8
SIZE
  6
CONTINUOUS
 62
    30
 10
-60.074176000000001
 20
-191.0
 30
0.0
 11
-356.38321799999972
 21
-191.0
 31
0.0
  0
LINE
  5
439
  8
SIZE
  6
CONTINUOUS
 62
    30
 10
-336.383218
 20
-12.0
 30
0.0
 11
-336.383218
 21
-179.0
 31
0.0
  0
LINE
  5
43A
  8
SIZE
  6
CONTINUOUS
 62
    30
 10
-336.383218
 20
-369.72794800000003
 30
0.0
 11
-336.383218
 21
-191.0
 31
0.0
  0
TEXT
  5
43B
  8
SIZE
  6
CONTINUOUS
 62
    30
 10
-361.383218
 20
-344.72794842857132
 30
0.0
 40
64.0
  1
191
 50
90.0
 41
0.9
 72
     1
 11
-361.383218
 21
-288.49937699999992
 31
0.0
  0
CIRCLE
  5
43C
  8
SIZE
  6
CONTINUOUS
 62
    30
 10
-336.383218
 20
0.0
 30
0.0
 40
6.0
  0
LINE
  5
43D
  8
SIZE
  6
CONTINUOUS
 62
    30
 10
-336.383218
 20
0.0
 30
0.0
 11
-336.383218
 21
-12.0
 31
0.0
  0
CIRCLE
  5
43E
  8
SIZE
  6
CONTINUOUS
 62
    30
 10
-336.383218
 20
-191.0
 30
0.0
 40
6.0
  0
LINE
  5
43F
  8
SIZE
  6
CONTINUOUS
 62
    30
 10
-336.383218
 20
-191.0
 30
0.0
 11
-336.383218
 21
-179.0
 31
0.0
  0
POINT
  5
440
  8
DEFPOINTS
  6
CONTINUOUS
 62
    30
 10
-40.07417600000008
 20
-191.0
 30
0.0
  0
LINE
  5
441
  8
SIZE
  6
CONTINUOUS
 62
    30
 10
-336.383218
 20
-164.0
 30
0.0
 11
-336.383218
 21
-345.42644300000001
 31
0.0
  0
LINE
  5
442
  8
SIZE
  6
CONTINUOUS
 62
    30
 10
-20.600000000000001
 20
175.0
 30
0.0
 11
-588.46991400000002
 21
175.0
 31
0.0
  0
LINE
  5
443
  8
SIZE
  6
CONTINUOUS
 62
    30
 10
-60.074176000000001
 20
-191.0
 30
0.0
 11
-588.46991400000002
 21
-191.0
 31
0.0
  0
LINE
  5
444
  8
SIZE
  6
CONTINUOUS
 62
    30
 10
-568.46991400000002
 20
163.0
 30
0.0
 11
-568.46991400000002
 21
-179.0
 31
0.0
  0
TEXT
  5
445
  8
SIZE
  6
CONTINUOUS
 62
    30
 10
-595.67210799999998
 20
-80.685714285714283
 30
0.0
 40
64.0
  1
366
 50
90.0
 41
0.9
 72
     1
 11
-595.67210799999998
 21
-8.0
 31
0.0
  0
CIRCLE
  5
446
  8
SIZE
  6
CONTINUOUS
 62
    30
 10
-568.46991400000002
 20
175.0
 30
0.0
 40
6.0
  0
LINE
  5
447
  8
SIZE
  6
CONTINUOUS
 62
    30
 10
-568.46991400000002
 20
175.0
 30
0.0
 11
-568.46991400000002
 21
163.0
 31
0.0
  0
CIRCLE
  5
448
  8
SIZE
  6
CONTINUOUS
 62
    30
 10
-568.46991400000002
 20
-191.0
 30
0.0
 40
6.0
  0
LINE
  5
449
  8
SIZE
  6
CONTINUOUS
 62
    30
 10
-568.46991400000002
 20
-191.0
 30
0.0
 11
-568.46991400000002
 21
-179.0
 31
0.0
  0
POINT
  5
44A
  8
DEFPOINTS
  6
CONTINUOUS
 62
    30
 10
-0.5999999999999091
 20
175.0
 30
0.0
  0
POINT
  5
44B
  8
DEFPOINTS
  6
CONTINUOUS
 62
    30
 10
-40.07417600000008
 20
-191.0
 30
0.0
  0
LINE
  5
44C
  8
SIZE
  6
CONTINUOUS
 62
    30
 10
-67.0
 20
-196.0
 30
0.0
 11
-67.0
 21
-377.13066900000001
 31
0.0
  0
LINE
  5
44D
  8
SIZE
  6
CONTINUOUS
 62
    30
 10
0.0
 20
-200.09999999999991
 30
0.0
 11
0.0
 21
-377.13066900000001
 31
0.0
  0
LINE
  5
44F
  8
SIZE
  6
CONTINUOUS
 62
    30
 10
12.0
 20
-357.13066900000001
 30
0.0
 11
24.0
 21
-357.13066900000001
 31
0.0
  0
LINE
  5
450
  8
SIZE
  6
CONTINUOUS
 62
    30
 10
192.00229899999991
 20
-357.13066900000001
 30
0.0
 11
0.0
 21
-357.13066900000001
 31
0.0
  0
TEXT
  5
451
  8
SIZE
  6
CONTINUOUS
 62
    30
 10
73.745156571428581
 20
-332.13066900000001
 30
0.0
 40
64.0
  1
67
 41
0.9
 72
     1
 11
120.373728
 21
-332.13066900000001
 31
0.0
  0
LINE
  5
452
  8
SIZE
  6
CONTINUOUS
 62
    30
 10
-67.0
 20
-357.13066900000001
 30
0.0
 11
0.0
 21
-357.13066900000001
 31
0.0
  0
LINE
  5
453
  8
SIZE
  6
CONTINUOUS
 62
    30
 10
-67.0
 20
-357.13066900000001
 30
0.0
 11
0.0
 21
-357.13066900000001
 31
0.0
  0
CIRCLE
  5
454
  8
SIZE
  6
CONTINUOUS
 62
    30
 10
-67.0
 20
-357.13066900000001
 30
0.0
 40
6.0
  0
CIRCLE
  5
456
  8
SIZE
  6
CONTINUOUS
 62
    30
 10
0.0
 20
-357.13066900000001
 30
0.0
 40
6.0
  0
LINE
  5
457
  8
SIZE
  6
CONTINUOUS
 62
    30
 10
0.0
 20
-357.13066900000001
 30
0.0
 11
12.0
 21
-357.13066900000001
 31
0.0
  0
POINT
  5
458
  8
DEFPOINTS
  6
CONTINUOUS
 62
    30
 10
-67.0
 20
-176.0
 30
0.0
  0
POINT
  5
459
  8
DEFPOINTS
  6
CONTINUOUS
 62
    30
 10
0.0
 20
-180.09999999999991
 30
0.0
  0
LINE
  5
45A
  8
SIZE
  6
CONTINUOUS
 62
    30
 10
-62.5
 20
186.96416899999991
 30
0.0
 11
-62.5
 21
325.01590299999992
 31
0.0
  0
LINE
  5
45B
  8
SIZE
  6
CONTINUOUS
 62
    30
 10
0.0
 20
195.0
 30
0.0
 11
0.0
 21
325.01590299999992
 31
0.0
  0
LINE
  5
45C
  8
SIZE
  6
CONTINUOUS
 62
    30
 10
-74.5
 20
305.01590299999992
 30
0.0
 11
-86.5
 21
305.01590299999992
 31
0.0
  0
LINE
  5
45D
  8
SIZE
  6
CONTINUOUS
 62
    30
 10
12.0
 20
305.01590299999992
 30
0.0
 11
24.0
 21
305.01590299999992
 31
0.0
  0
LINE
  5
45E
  8
SIZE
  6
CONTINUOUS
 62
    30
 10
-321.874663
 20
305.01590299999992
 30
0.0
 11
-62.5
 21
305.01590299999992
 31
0.0
  0
TEXT
  5
45F
  8
SIZE
  6
CONTINUOUS
 62
    30
 10
-296.87466357142853
 20
330.01590299999992
 30
0.0
 40
64.0
  1
62.5
 41
0.9
 72
     1
 11
-209.10323500000001
 21
330.01590299999992
 31
0.0
  0
LINE
  5
460
  8
SIZE
  6
CONTINUOUS
 62
    30
 10
-62.5
 20
305.01590299999992
 30
0.0
 11
0.0
 21
305.01590299999992
 31
0.0
  0
LINE
  5
461
  8
SIZE
  6
CONTINUOUS
 62
    30
 10
-62.5
 20
305.01590299999992
 30
0.0
 11
0.0
 21
305.01590299999992
 31
0.0
  0
CIRCLE
  5
462
  8
SIZE
  6
CONTINUOUS
 62
    30
 10
-62.5
 20
305.01590299999992
 30
0.0
 40
6.0
  0
LINE
  5
463
  8
SIZE
  6
CONTINUOUS
 62
    30
 10
-62.5
 20
305.01590299999992
 30
0.0
 11
-74.5
 21
305.01590299999992
 31
0.0
  0
CIRCLE
  5
464
  8
SIZE
  6
CONTINUOUS
 62
    30
 10
0.0
 20
305.01590299999992
 30
0.0
 40
6.0
  0
LINE
  5
465
  8
SIZE
  6
CONTINUOUS
 62
    30
 10
0.0
 20
305.01590299999992
 30
0.0
 11
12.0
 21
305.01590299999992
 31
0.0
  0
POINT
  5
466
  8
DEFPOINTS
  6
CONTINUOUS
 62
    30
 10
-62.5
 20
166.96416899999991
 30
0.0
  0
LINE
  5
467
  8
DETAIL
  6
CONTINUOUS
 62
     5
 10
-0.6
 20
175.0
 30
0.0
 11
0.0
 21
175.0
 31
0.0
  0
LINE
  5
468
  8
OUTLINE
  6
CONTINUOUS
 62
     3
 10
120.0
 20
-145.0
 30
0.0
 11
0.0
 21
-145.0
 31
0.0
  0
LINE
  5
469
  8
OUTLINE
  6
CONTINUOUS
 62
     3
 10
120.0
 20
145.0
 30
0.0
 11
0.0
 21
145.0
 31
0.0
  0
LINE
  5
46A
  8
OUTLINE
  6
CONTINUOUS
 62
     3
 10
0.0
 20
175.0000049999999
 30
0.0
 11
0.0
 21
-175.0000049999999
 31
0.0
  0
LINE
  5
46B
  8
OUTLINE
  6
CONTINUOUS
 62
     3
 10
120.0
 20
-145.0
 30
0.0
 11
120.0
 21
145.0
 31
0.0
  0
LINE
  5
46C
  8
SIZE
  6
CONTINUOUS
 62
    30
 10
-336.383218
 20
157.5
 30
0.0
 11
-336.383218
 21
443.05191100000002
 31
0.0
  0
CIRCLE
  5
46D
  8
FIX
  6
CONTINUOUS
 62
    11
 10
0.0
 20
157.5
 30
0.0
 40
2.5
  0
LINE
  5
46E
  8
NOTE
  6
CONTINUOUS
 62
     4
 10
-20.0
 20
157.5
 30
0.0
 11
20.0
 21
157.5
 31
0.0
  0
LINE
  5
46F
  8
NOTE
  6
CONTINUOUS
 62
     4
 10
0.0
 20
177.5
 30
0.0
 11
0.0
 21
137.5
 31
0.0
  0
LINE
  5
470
  8
NOTE
  6
CONTINUOUS
 62
     4
 10
-20.0
 20
-157.5
 30
0.0
 11
20.0
 21
-157.5
 31
0.0
  0
LINE
  5
471
  8
NOTE
  6
CONTINUOUS
 62
     4
 10
0.0
 20
-137.5
 30
0.0
 11
0.0
 21
-177.5
 31
0.0
  0
CIRCLE
  5
472
  8
FIX
  6
CONTINUOUS
 62
    11
 10
0.0
 20
-157.5
 30
0.0
 40
2.5
  0
LINE
  5
473
  8
SIZE
  6
CONTINUOUS
 62
    30
 10
-40.0
 20
157.5
 30
0.0
 11
-455.47665499999999
 21
157.5
 31
0.0
  0
LINE
  5
474
  8
SIZE
  6
CONTINUOUS
 62
    30
 10
-40.0
 20
-157.5
 30
0.0
 11
-455.47665499999999
 21
-157.5
 31
0.0
  0
LINE
  5
475
  8
SIZE
  6
CONTINUOUS
 62
    30
 10
-435.47665499999988
 20
145.5
 30
0.0
 11
-435.47665499999988
 21
-145.5
 31
0.0
  0
TEXT
  5
476
  8
SIZE
  6
CONTINUOUS
 62
    30
 10
-463.02553599999987
 20
-68.571428571428569
 30
0.0
 40
64.0
  1
315
 50
90.0
 41
0.9
 72
     1
 11
-463.02553599999987
 21
0.0
 31
0.0
  0
CIRCLE
  5
477
  8
SIZE
  6
CONTINUOUS
 62
    30
 10
-435.47665499999988
 20
157.5
 30
0.0
 40
6.0
  0
LINE
  5
478
  8
SIZE
  6
CONTINUOUS
 62
    30
 10
-435.47665499999988
 20
157.5
 30
0.0
 11
-435.47665499999988
 21
145.5
 31
0.0
  0
CIRCLE
  5
479
  8
SIZE
  6
CONTINUOUS
 62
    30
 10
-435.47665499999988
 20
-157.5
 30
0.0
 40
6.0
  0
LINE
  5
47A
  8
SIZE
  6
CONTINUOUS
 62
    30
 10
-435.47665499999988
 20
-157.5
 30
0.0
 11
-435.47665499999988
 21
-145.5
 31
0.0
  0
POINT
  5
47B
  8
DEFPOINTS
  6
CONTINUOUS
 62
    30
 10
-20.0
 20
-157.5
 30
0.0
  0
LINE
  5
47C
  8
DETAIL
  6
CONTINUOUS
 62
     5
 10
120.0
 20
145.0
 30
0.0
 11
0.0
 21
145.0
 31
0.0
  0
LINE
  5
47D
  8
DETAIL
  6
CONTINUOUS
 62
     5
 10
120.0
 20
-145.0
 30
0.0
 11
120.0
 21
145.0
 31
0.0
  0
LINE
  5
47E
  8
DETAIL
  6
CONTINUOUS
 62
     5
 10
120.0
 20
-145.0
 30
0.0
 11
0.0
 21
-145.0
 31
0.0
  0
LINE
  5
47F
  8
SIZE
  6
CONTINUOUS
 62
    30
 10
0.0
 20
195.0
 30
0.0
 11
0.0
 21
325.01590299999992
 31
0.0
  0
LINE
  5
480
  8
SIZE
  6
CONTINUOUS
 62
    30
 10
120.0
 20
165.0
 30
0.0
 11
120.0
 21
325.01590299999992
 31
0.0
  0
LINE
  5
481
  8
SIZE
  6
CONTINUOUS
 62
    30
 10
-12.0
 20
305.01590299999992
 30
0.0
 11
-24.0
 21
305.01590299999992
 31
0.0
  0
LINE
  5
483
  8
SIZE
  6
CONTINUOUS
 62
    30
 10
0.0
 20
305.01590299999992
 30
0.0
 11
120.0
 21
305.01590299999992
 31
0.0
  0
CIRCLE
  5
484
  8
SIZE
  6
CONTINUOUS
 62
    30
 10
0.0
 20
305.01590299999992
 30
0.0
 40
6.0
  0
LINE
  5
485
  8
SIZE
  6
CONTINUOUS
 62
    30
 10
0.0
 20
305.01590299999992
 30
0.0
 11
-12.0
 21
305.01590299999992
 31
0.0
  0
CIRCLE
  5
486
  8
SIZE
  6
CONTINUOUS
 62
    30
 10
120.0
 20
305.01590299999992
 30
0.0
 40
6.0
  0
TEXT
  5
488
  8
SIZE
  6
CONTINUOUS
 62
    30
 10
-8.5714285714285694
 20
330.01590299999992
 30
0.0
 40
64.0
  1
120
 41
0.9
 72
     1
 11
60.0
 21
330.01590299999992
 31
0.0
  0
POINT
  5
489
  8
DEFPOINTS
  6
CONTINUOUS
 62
    30
 10
120.0
 20
145.0
 30
0.0
  0
LINE
  5
48A
  8
SIZE
  6
CONTINUOUS
 62
    30
 10
140.0
 20
-145.0
 30
0.0
 11
358.33758799999993
 21
-145.0
 31
0.0
  0
LINE
  5
48B
  8
SIZE
  6
CONTINUOUS
 62
    30
 10
140.0
 20
145.0
 30
0.0
 11
358.33758799999993
 21
145.0
 31
0.0
  0
LINE
  5
48C
  8
SIZE
  6
CONTINUOUS
 62
    30
 10
338.33758799999998
 20
-133.0
 30
0.0
 11
338.33758799999998
 21
133.0
 31
0.0
  0
CIRCLE
  5
48D
  8
SIZE
  6
CONTINUOUS
 62
    30
 10
338.33758799999998
 20
-145.0
 30
0.0
 40
6.0
  0
LINE
  5
48E
  8
SIZE
  6
CONTINUOUS
 62
    30
 10
338.33758799999998
 20
-145.0
 30
0.0
 11
338.33758799999998
 21
-133.0
 31
0.0
  0
CIRCLE
  5
48F
  8
SIZE
  6
CONTINUOUS
 62
    30
 10
338.33758799999998
 20
145.0
 30
0.0
 40
6.0
  0
LINE
  5
490
  8
SIZE
  6
CONTINUOUS
 62
    30
 10
338.33758799999998
 20
145.0
 30
0.0
 11
338.33758799999998
 21
133.0
 31
0.0
  0
TEXT
  5
491
  8
SIZE
  6
CONTINUOUS
 62
    30
 10
313.33758799999998
 20
-110.5371428571428
 30
0.0
 40
64.0
  1
□290
 50
90.0
 41
0.9
 72
     1
 11
313.33758799999998
 21
0.0
 31
0.0
  0
POINT
  5
492
  8
DEFPOINTS
  6
CONTINUOUS
 62
    30
 10
120.0
 20
-145.0
 30
0.0
  0
POINT
  5
493
  8
DEFPOINTS
  6
CONTINUOUS
 62
    30
 10
120.0
 20
145.0
 30
0.0
  0
LINE
  5
494
  8
NOTE
  6
CONTINUOUS
 62
     4
 10
0.0
 20
157.5
 30
0.0
 11
163.761942
 21
218.5075029999999
 31
0.0
  0
LINE
  5
495
  8
NOTE
  6
CONTINUOUS
 62
     4
 10
32.756959000000002
 20
180.45608100000001
 30
0.0
 11
0.0
 21
157.5
 31
0.0
  0
LINE
  5
496
  8
NOTE
  6
CONTINUOUS
 62
     4
 10
0.0
 20
157.5
 30
0.0
 11
39.846398999999991
 21
161.00206899999981
 31
0.0
  0
ARC
  5
497
  8
OUTLINE
  6
CONTINUOUS
 62
     3
 10
0.2999999999999545
 20
-145.30000000000001
 30
0.0
 40
0.3
 50
90.0
 51
180.0
  0
LINE
  5
498
  8
OUTLINE
  6
CONTINUOUS
 62
     3
 10
-59.5
 20
156.77692300000001
 30
0.0
 11
-59.5
 21
-171.94594599999991
 31
0.0
  0
LINE
  5
499
  8
OUTLINE
  6
CONTINUOUS
 62
     3
 10
0.0
 20
-143.0
 30
0.0
 11
0.0
 21
175.0
 31
0.0
  0
LINE
  5
49A
  8
OUTLINE
  6
DASHED
 62
     3
 10
0.0
 20
-92.0
 30
0.0
 11
0.0
 21
92.0
 31
0.0
  0
LINE
  5
49B
  8
OUTLINE
  6
CONTINUOUS
 62
     3
 10
0.0
 20
-165.1999999999999
 30
0.0
 11
0.0
 21
-145.30000000000001
 31
0.0
  0
LINE
  5
49C
  8
OUTLINE
  6
CONTINUOUS
 62
     3
 10
-30.0
 20
-156.0
 30
0.0
 11
-67.0
 21
-176.0
 31
0.0
  0
LINE
  5
49D
  8
OUTLINE
  6
CONTINUOUS
 62
     3
 10
-30.0
 20
-156.0
 30
0.0
 11
-30.0
 21
-191.0
 31
0.0
  0
LINE
  5
49E
  8
OUTLINE
  6
CONTINUOUS
 62
     3
 10
0.0
 20
-180.09999999999991
 30
0.0
 11
0.0
 21
-156.0
 31
0.0
  0
LINE
  5
49F
  8
OUTLINE
  6
CONTINUOUS
 62
     3
 10
0.0
 20
-175.0
 30
0.0
 11
0.0
 21
-140.4300429999999
 31
0.0
  0
LINE
  5
4A0
  8
OUTLINE
  6
CONTINUOUS
 62
     3
 10
-65.114172000000053
 20
-181.75433099999961
 30
0.0
 11
-43.788082999999908
 21
-190.2847669999999
 31
0.0
  0
ARC
  5
4A1
  8
OUTLINE
  6
CONTINUOUS
 62
     3
 10
-64.0
 20
-178.96890099999999
 30
0.0
 40
3.0
 50
180.0
 51
248.19859099999999
  0
LINE
  5
4A2
  8
OUTLINE
  6
CONTINUOUS
 62
     3
 10
-67.0
 20
-176.0
 30
0.0
 11
-67.0
 21
-178.96890099999999
 31
0.0
  0
ARC
  5
4A3
  8
OUTLINE
  6
CONTINUOUS
 62
     3
 10
-12.971068000000059
 20
-186.0
 30
0.0
 40
5.0
 50
270.0
 51
315.0
  0
LINE
  5
4A4
  8
OUTLINE
  6
CONTINUOUS
 62
     3
 10
-9.4355339999999597
 20
-189.53553400000001
 30
0.0
 11
0.0
 21
-180.09999999999991
 31
0.0
  0
ARC
  5
4A5
  8
OUTLINE
  6
CONTINUOUS
 62
     3
 10
-40.07417600000008
 20
-181.0
 30
0.0
 40
10.0
 50
248.19859099999999
 51
270.0
  0
LINE
  5
4A6
  8
OUTLINE
  6
CONTINUOUS
 62
     3
 10
-12.971068000000059
 20
-191.0
 30
0.0
 11
-40.07417600000008
 21
-191.0
 31
0.0
  0
LINE
  5
4A7
  8
OUTLINE
  6
CONTINUOUS
 62
     3
 10
0.0
 20
-156.0
 30
0.0
 11
-30.0
 21
-156.0
 31
0.0
  0
LINE
  5
4A8
  8
OUTLINE
  6
DASHED
 62
     3
 10
0.0
 20
-140.4300429999999
 30
0.0
 11
0.0
 21
-127.0
 31
0.0
  0
LINE
  5
4A9
  8
OUTLINE
  6
CONTINUOUS
 62
     3
 10
-30.0
 20
147.69999999999979
 30
0.0
 11
-30.0
 21
172.6999999999999
 31
0.0
  0
LINE
  5
4AA
  8
OUTLINE
  6
CONTINUOUS
 62
     3
 10
-3.0
 20
149.69999999999979
 30
0.0
 11
-3.0
 21
172.6999999999999
 31
0.0
  0
LINE
  5
4AB
  8
OUTLINE
  6
CONTINUOUS
 62
     3
 10
-62.5
 20
157.6999999999999
 30
0.0
 11
-62.5
 21
166.96416899999991
 31
0.0
  0
LINE
  5
4AC
  8
OUTLINE
  6
CONTINUOUS
 62
     3
 10
-62.5
 20
157.6999999999999
 30
0.0
 11
-30.0
 21
147.69999999999979
 31
0.0
  0
ARC
  5
4AD
  8
OUTLINE
  6
CONTINUOUS
 62
     3
 10
-5.0
 20
149.69999999999979
 30
0.0
 40
2.0
 50
270.0
 51
0.0
  0
LINE
  5
4AE
  8
OUTLINE
  6
CONTINUOUS
 62
     3
 10
-5.0
 20
147.69999999999979
 30
0.0
 11
-30.0
 21
147.69999999999979
 31
0.0
  0
LINE
  5
4AF
  8
OUTLINE
  6
CONTINUOUS
 62
     3
 10
-30.458609999999911
 20
172.657667
 30
0.0
 11
-59.775751000000007
 21
169.9514689999998
 31
0.0
  0
ARC
  5
4B0
  8
OUTLINE
  6
CONTINUOUS
 62
     3
 10
-59.5
 20
166.96416899999991
 30
0.0
 40
3.0
 50
95.273896000000008
 51
180.0
  0
LINE
  5
4B1
  8
OUTLINE
  6
CONTINUOUS
 62
     3
 10
-0.5999999999999091
 20
175.0
 30
0.0
 11
0.0
 21
175.0
 31
0.0
  0
ARC
  5
4B2
  8
OUTLINE
  6
CONTINUOUS
 62
     3
 10
-29.539440999999901
 20
162.6999999999999
 30
0.0
 40
10.0
 50
90.0
 51
95.273896000000008
  0
LINE
  5
4B3
  8
OUTLINE
  6
CONTINUOUS
 62
     3
 10
-3.0
 20
172.6999999999999
 30
0.0
 11
-29.539440999999901
 21
172.6999999999999
 31
0.0
  0
LINE
  5
4B4
  8
OUTLINE
  6
CONTINUOUS
 62
     3
 10
-0.5999999999999091
 20
175.0
 30
0.0
 11
0.0
 21
175.0
 31
0.0
  0
LINE
  5
4B5
  8
OUTLINE
  6
CONTINUOUS
 62
     3
 10
-0.5999999999999091
 20
174.09999999999991
 30
0.0
 11
-0.5999999999999091
 21
175.0
 31
0.0
  0
ARC
  5
4B6
  8
OUTLINE
  6
CONTINUOUS
 62
     3
 10
-2.5999999999999082
 20
174.09999999999991
 30
0.0
 40
2.0
 50
270.0
 51
0.0
  0
LINE
  5
4B7
  8
OUTLINE
  6
CONTINUOUS
 62
     3
 10
-3.0
 20
172.09999999999999
 30
0.0
 11
-2.5999999999999082
 21
172.09999999999999
 31
0.0
  0
TEXT
  5
4B8
  8
ETC
  6
CONTINUOUS
 62
    61
 10
439.2220211160963
 20
343.28674774993362
 30
0.0
 40
50.0
  1
EX-25EMP5-F
 41
0.9
  0
TEXT
  5
4B9
  8
ETC
  6
CONTINUOUS
 62
    61
 10
339.82560939641343
 20
552.80587928045372
 30
0.0
 40
64.0
  1
EX-25EMP5-F_4
 41
0.9
  0
TEXT
  5
4BA
  8
ETC
  6
CONTINUOUS
 62
    61
 10
331.75213139641329
 20
454.78715328045371
 30
0.0
 40
64.0
  1
換気扇
 41
0.9
  0
LINE
  5
4BB
  8
OUTLINE
  6
CONTINUOUS
 62
     3
 39
50.0
 10
120.0
 20
145.0
 30
0.0
 11
0.0
 21
145.0
 31
0.0
  0
LINE
  5
4BC
  8
OUTLINE
  6
CONTINUOUS
 62
     3
 39
50.0
 10
120.0
 20
145.0
 30
0.0
 11
120.0
 21
-145.0
 31
0.0
  0
LINE
  5
4BD
  8
OUTLINE
  6
CONTINUOUS
 62
     3
 39
50.0
 10
120.0
 20
-145.0
 30
0.0
 11
0.3
 21
-145.0
 31
0.0
  0
ENDSEC
  0
EOF
