  0
SECTION
  2
HEADER
  9
$ACADVER
  1
AC1009
  9
$INSBASE
 10
0.0
 20
0.0
 30
0.0
  9
$EXTMIN
 10
-414.19685399999992
 20
-350.96473099999992
 30
0.0
  9
$EXTMAX
 10
940.40001401800816
 20
539.55684783207039
 30
50.0
  9
$LIMMIN
 10
-2970.0
 20
-2100.0
  9
$LIMMAX
 10
2970.0
 20
2100.0
  9
$ORTHOMODE
 70
     1
  9
$REGENMODE
 70
     0
  9
$FILLMODE
 70
     1
  9
$QTEXTMODE
 70
     0
  9
$MIRRTEXT
 70
     0
  9
$DRAGMODE
 70
     2
  9
$LTSCALE
 40
20.0
  9
$OSMODE
 70
    41
  9
$ATTMODE
 70
     1
  9
$TEXTSIZE
 40
64.0
  9
$TRACEWID
 40
0.05
  9
$TEXTSTYLE
  7
STANDARD
  9
$CLAYER
  8
OUTLINE
  9
$CELTYPE
  6
CONTINUOUS
  9
$CECOLOR
 62
     8
  9
$DIMSCALE
 40
1.0
  9
$DIMASZ
 40
12.0
  9
$DIMEXO
 40
20.0
  9
$DIMDLI
 40
200.0
  9
$DIMRND
 40
0.0
  9
$DIMDLE
 40
0.0
  9
$DIMEXE
 40
20.0
  9
$DIMTP
 40
0.0
  9
$DIMTM
 40
0.0
  9
$DIMTXT
 40
64.0
  9
$DIMCEN
 40
0.09
  9
$DIMTSZ
 40
0.0
  9
$DIMTOL
 70
     0
  9
$DIMLIM
 70
     0
  9
$DIMTIH
 70
     0
  9
$DIMTOH
 70
     0
  9
$DIMSE1
 70
     0
  9
$DIMSE2
 70
     0
  9
$DIMTAD
 70
     1
  9
$DIMZIN
 70
     8
  9
$DIMBLK
  1
DOT1
  9
$DIMASO
 70
     1
  9
$DIMSHO
 70
     0
  9
$DIMPOST
  1

  9
$DIMAPOST
  1

  9
$DIMALT
 70
     0
  9
$DIMALTD
 70
     2
  9
$DIMALTF
 40
25.399999999999999
  9
$DIMLFAC
 40
1.0
  9
$DIMTOFL
 70
     1
  9
$DIMTVP
 40
0.0
  9
$DIMTIX
 70
     1
  9
$DIMSOXD
 70
     0
  9
$DIMSAH
 70
     1
  9
$DIMBLK1
  1
ORIGIN
  9
$DIMBLK2
  1
ORIGIN
  9
$DIMSTYLE
  2
STANDARD
  9
$DIMCLRD
 70
     0
  9
$DIMCLRE
 70
     0
  9
$DIMCLRT
 70
     0
  9
$DIMTFAC
 40
1.0
  9
$DIMGAP
 40
0.09
  9
$LUNITS
 70
     2
  9
$LUPREC
 70
     4
  9
$SKETCHINC
 40
0.1
  9
$FILLETRAD
 40
23.0
  9
$AUNITS
 70
     1
  9
$AUPREC
 70
     3
  9
$MENU
  1
ACAD
  9
$ELEVATION
 40
0.0
  9
$PELEVATION
 40
0.0
  9
$THICKNESS
 40
50.0
  9
$LIMCHECK
 70
     0
  9
$BLIPMODE
 70
     0
  9
$CHAMFERA
 40
0.0
  9
$CHAMFERB
 40
0.0
  9
$SKPOLY
 70
     0
  9
$TDCREATE
 40
2451453.4938508091
  9
$TDUPDATE
 40
2453458.5756141432
  9
$TDINDWG
 40
0.7744368519
  9
$TDUSRTIMER
 40
0.7744368519
  9
$USRTIMER
 70
     1
  9
$ANGBASE
 50
0.0
  9
$ANGDIR
 70
     0
  9
$PDMODE
 70
     3
  9
$PDSIZE
 40
-2.0
  9
$PLINEWID
 40
0.0
  9
$COORDS
 70
     2
  9
$SPLFRAME
 70
     0
  9
$SPLINETYPE
 70
     6
  9
$SPLINESEGS
 70
     8
  9
$ATTDIA
 70
     0
  9
$ATTREQ
 70
     1
  9
$HANDLING
 70
 22529
  9
$HANDSEED
  5
38F
  9
$SURFTAB1
 70
     6
  9
$SURFTAB2
 70
     6
  9
$SURFTYPE
 70
     6
  9
$SURFU
 70
     6
  9
$SURFV
 70
     6
  9
$UCSNAME
  2

  9
$UCSORG
 10
0.0
 20
0.0
 30
0.0
  9
$UCSXDIR
 10
1.0
 20
0.0
 30
0.0
  9
$UCSYDIR
 10
0.0
 20
1.0
 30
0.0
  9
$PUCSNAME
  2

  9
$PUCSORG
 10
0.0
 20
0.0
 30
0.0
  9
$PUCSXDIR
 10
1.0
 20
0.0
 30
0.0
  9
$PUCSYDIR
 10
0.0
 20
1.0
 30
0.0
  9
$USERI1
 70
     0
  9
$USERI2
 70
     0
  9
$USERI3
 70
     0
  9
$USERI4
 70
     0
  9
$USERI5
 70
     0
  9
$USERR1
 40
20.0
  9
$USERR2
 40
0.0
  9
$USERR3
 40
0.0
  9
$USERR4
 40
0.0
  9
$USERR5
 40
0.0
  9
$WORLDVIEW
 70
     1
  9
$SHADEDGE
 70
     3
  9
$SHADEDIF
 70
    70
  9
$TILEMODE
 70
     1
  9
$MAXACTVP
 70
    64
  9
$PLIMCHECK
 70
     0
  9
$PEXTMIN
 10
1.0000000000000000E+020
 20
1.0000000000000000E+020
 30
1.0000000000000000E+020
  9
$PEXTMAX
 10
-1.0000000000000000E+020
 20
-1.0000000000000000E+020
 30
-1.0000000000000000E+020
  9
$PLIMMIN
 10
0.0
 20
0.0
  9
$PLIMMAX
 10
12.0
 20
9.0
  9
$UNITMODE
 70
     0
  9
$VISRETAIN
 70
     1
  9
$PLINEGEN
 70
     0
  9
$PSLTSCALE
 70
     1
  0
ENDSEC
  0
SECTION
  2
TABLES
  0
TABLE
  2
VPORT
 70
     3
  0
VPORT
  2
*ACTIVE
 70
     0
 10
0.0
 20
0.0
 11
1.0
 21
1.0
 12
182.7187730513113
 22
9.6508282862160968
 13
0.0
 23
0.0
 14
1.0
 24
1.0
 15
0.0
 25
0.0
 16
0.0
 26
0.0
 36
1.0
 17
0.0
 27
0.0
 37
0.0
 40
1364.0287578455111
 41
1.4423558897243101
 42
50.0
 43
0.0
 44
0.0
 50
0.0
 51
0.0
 71
     0
 72
   100
 73
     1
 74
     0
 75
     0
 76
     0
 77
     0
 78
     0
  0
ENDTAB
  0
TABLE
  2
LTYPE
 70
     2
  0
LTYPE
  2
CONTINUOUS
 70
     0
  3
実線
 72
    65
 73
     0
 40
0.0
  0
LTYPE
  2
DASHDOT
 70
     0
  3
____ _ ____ _ ____ _ ____ _ ____ _ ____ _ ____
 72
    65
 73
     4
 40
5.5
 49
4.0
 49
-0.6
 49
0.3
 49
-0.6
  0
ENDTAB
  0
TABLE
  2
LAYER
 70
    12
  0
LAYER
  2
0
 70
     0
 62
     7
  6
CONTINUOUS
  0
LAYER
  2
OUTLINE
 70
     0
 62
     3
  6
CONTINUOUS
  0
LAYER
  2
BASIS
 70
     0
 62
     6
  6
DASHDOT
  0
LAYER
  2
DETAIL
 70
     0
 62
     5
  6
CONTINUOUS
  0
LAYER
  2
SIZE
 70
     0
 62
    30
  6
CONTINUOUS
  0
LAYER
  2
ARRANGE
 70
     0
 62
     1
  6
CONTINUOUS
  0
LAYER
  2
DEFPOINTS
 70
     0
 62
     7
  6
CONTINUOUS
  0
LAYER
  2
ETC
 70
     0
 62
    61
  6
CONTINUOUS
  0
LAYER
  2
NOTE
 70
     0
 62
     4
  6
CONTINUOUS
  0
LAYER
  2
FIX
 70
     0
 62
    11
  6
CONTINUOUS
  0
LAYER
  2
SERVICESPACE
 70
     0
 62
     2
  6
DASHDOT
  0
LAYER
  2
SYMBOLLINE
 70
     0
 62
    15
  6
CONTINUOUS
  0
ENDTAB
  0
TABLE
  2
STYLE
 70
     1
  0
STYLE
  2
STANDARD
 70
     0
 40
64.0
 41
0.9
 50
0.0
 71
     0
 42
64.0
  3
SIMPLEX.shx
  4
BIGFONT.shx
  0
ENDTAB
  0
TABLE
  2
VIEW
 70
     1
  0
VIEW
  2
ALL
 70
     0
 40
4282.6198079999976
 10
0.0
 20
41.309903999999989
 41
5940.0
 11
0.0
 21
0.0
 31
1.0
 12
0.0
 22
0.0
 32
0.0
 42
50.0
 43
0.0
 44
0.0
 50
0.0
 71
     0
  0
ENDTAB
  0
TABLE
  2
UCS
 70
     0
  0
ENDTAB
  0
TABLE
  2
APPID
 70
     1
  0
APPID
  2
ACAD
 70
     0
  0
ENDTAB
  0
TABLE
  2
DIMSTYLE
 70
     1
  0
DIMSTYLE
  2
STANDARD
 70
     0
  3

  4

  5

  6

  7

 40
1.0
 41
0.18
 42
0.0625
 43
0.38
 44
0.18
 45
0.0
 46
0.0
 47
0.0
 48
0.0
140
0.18
141
0.09
142
0.0
143
25.399999999999999
144
1.0
145
0.0
146
1.0
147
0.09
 71
     0
 72
     0
 73
     1
 74
     1
 75
     0
 76
     0
 77
     0
 78
     0
170
     0
171
     2
172
     0
173
     0
174
     0
175
     0
176
     0
177
     0
178
     0
  0
ENDTAB
  0
ENDSEC
  0
SECTION
  2
BLOCKS
  0
BLOCK
  8
0
  2
$MODEL_SPACE
 70
     0
 10
0.0
 20
0.0
 30
0.0
  3
$MODEL_SPACE
  1

  0
ENDBLK
  5
1EB
  8
0
  0
BLOCK
 67
     1
  8
0
  2
$PAPER_SPACE
 70
     0
 10
0.0
 20
0.0
 30
0.0
  3
$PAPER_SPACE
  1

  0
ENDBLK
  5
1E7
 67
     1
  8
0
  0
BLOCK
  8
0
  2
DOT1
 70
     0
 10
0.0
 20
0.0
 30
0.0
  3
DOT1
  1

  0
CIRCLE
  5
206
  8
SIZE
  6
CONTINUOUS
 62
     7
 10
0.0
 20
0.0
 30
0.0
 40
3.0
  0
ENDBLK
  5
207
  8
0
  0
BLOCK
  8
0
  2
_ORIGIN
 70
     0
 10
0.0
 20
0.0
 30
0.0
  3
_ORIGIN
  1

  0
CIRCLE
  5
20A
  8
0
  6
CONTINUOUS
 62
     7
 10
0.0
 20
0.0
 30
0.0
 40
0.5
  0
LINE
  5
20B
  8
0
  6
CONTINUOUS
 62
     7
 10
0.0
 20
0.0
 30
0.0
 11
-1.0
 21
0.0
 31
0.0
  0
ENDBLK
  5
20C
  8
0
  0
ENDSEC
  0
SECTION
  2
ENTITIES
  0
LINE
  5
20D
  8
BASIS
  6
DASHDOT
 62
     6
 10
0.0
 20
225.40224599999991
 30
0.0
 11
0.0
 21
-257.92935699999992
 31
0.0
  0
LINE
  5
20E
  8
BASIS
  6
DASHDOT
 62
     6
 10
-252.7843799999998
 20
0.0
 30
0.0
 11
255.686418
 21
0.0
 31
0.0
  0
CIRCLE
  5
20F
  8
ARRANGE
  6
CONTINUOUS
 62
     1
 39
50.0
 10
0.0
 20
0.0
 30
0.0
 40
40.0
  0
POINT
  5
210
  8
ARRANGE
  6
CONTINUOUS
 62
     1
 10
0.0
 20
0.0
 30
0.0
 39
50.0
  0
LINE
  5
211
  8
NOTE
  6
CONTINUOUS
 62
     4
 10
-268.03183399999989
 20
-267.001847
 30
0.0
 11
-172.099996
 21
-122.0
 31
0.0
  0
LINE
  5
212
  8
NOTE
  6
CONTINUOUS
 62
     4
 10
-385.51283299999989
 20
-267.001847
 30
0.0
 11
-268.03183399999989
 21
-267.001847
 31
0.0
  0
TEXT
  5
213
  8
NOTE
  6
CONTINUOUS
 62
     4
 10
-362.36017399999992
 20
-239.574895
 30
0.0
 40
64.0
  1
EL
 41
0.9
  0
LINE
  5
214
  8
NOTE
  6
CONTINUOUS
 62
     4
 10
-185.38697400000001
 20
-159.72871899999981
 30
0.0
 11
-172.099996
 21
-122.0
 31
0.0
  0
LINE
  5
215
  8
NOTE
  6
CONTINUOUS
 62
     4
 10
-172.099996
 20
-122.0
 30
0.0
 11
-202.47121599999991
 21
-148.03053899999981
 31
0.0
  0
LINE
  5
216
  8
NOTE
  6
CONTINUOUS
 62
     4
 10
-172.099996
 20
-142.0
 30
0.0
 11
-172.099996
 21
-102.0
 31
0.0
  0
LINE
  5
217
  8
NOTE
  6
CONTINUOUS
 62
     4
 10
-152.099996
 20
-122.0
 30
0.0
 11
-192.09999599999981
 21
-122.0
 31
0.0
  0
LINE
  5
218
  8
DETAIL
  6
CONTINUOUS
 62
     5
 10
172.10000400000001
 20
-152.100008
 30
0.0
 11
172.10000400000001
 21
152.0999919999999
 31
0.0
  0
LINE
  5
219
  8
DETAIL
  6
CONTINUOUS
 62
     5
 10
-172.099996
 20
152.0999919999999
 30
0.0
 11
-172.099996
 21
-152.100008
 31
0.0
  0
LINE
  5
21A
  8
DETAIL
  6
CONTINUOUS
 62
     5
 10
-152.099996
 20
-172.100008
 30
0.0
 11
152.10000400000001
 21
-172.100008
 31
0.0
  0
LINE
  5
21B
  8
DETAIL
  6
CONTINUOUS
 62
     5
 10
-9.9999959999999994
 20
-180.09999999999991
 30
0.0
 11
-19.999995999999982
 21
-185.00000800000001
 31
0.0
  0
LINE
  5
21C
  8
DETAIL
  6
CONTINUOUS
 62
     5
 10
-149.99999600000001
 20
-172.100008
 30
0.0
 11
150.0000039999999
 21
-172.100008
 31
0.0
  0
ARC
  5
21D
  8
DETAIL
  6
CONTINUOUS
 62
     5
 10
-152.099996
 20
-152.100008
 30
0.0
 40
20.0
 50
180.0
 51
270.0
  0
LINE
  5
21E
  8
DETAIL
  6
CONTINUOUS
 62
     5
 10
-172.99999600000001
 20
-127.00000799999989
 30
0.0
 11
-172.099996
 21
-127.00000799999989
 31
0.0
  0
ARC
  5
21F
  8
DETAIL
  6
CONTINUOUS
 62
     5
 10
-172.99999600000001
 20
-129.00000800000001
 30
0.0
 40
2.0
 50
90.0
 51
180.0
  0
LINE
  5
220
  8
DETAIL
  6
CONTINUOUS
 62
     5
 10
-172.99999600000001
 20
-117.00000799999989
 30
0.0
 11
-172.099996
 21
-117.00000799999989
 31
0.0
  0
ARC
  5
221
  8
DETAIL
  6
CONTINUOUS
 62
     5
 10
-172.99999600000001
 20
-115.00000799999989
 30
0.0
 40
2.0
 50
180.0
 51
270.0
  0
LINE
  5
222
  8
DETAIL
  6
CONTINUOUS
 62
     5
 10
-19.999995999999982
 20
-185.00000800000001
 30
0.0
 11
-141.99999600000001
 21
-185.00000800000001
 31
0.0
  0
LINE
  5
223
  8
DETAIL
  6
CONTINUOUS
 62
     5
 10
-149.99999600000001
 20
-173.00000800000001
 30
0.0
 11
-149.99999600000001
 21
-172.100008
 31
0.0
  0
ARC
  5
224
  8
DETAIL
  6
CONTINUOUS
 62
     5
 10
-151.99999599999981
 20
-173.00000800000001
 30
0.0
 40
2.0
 50
270.0
 51
0.0
  0
ARC
  5
225
  8
DETAIL
  6
CONTINUOUS
 62
     5
 10
-149.99999600000001
 20
-172.100008
 30
0.0
 40
0.6
 50
180.0
 51
270.0
  0
LINE
  5
226
  8
DETAIL
  6
CONTINUOUS
 62
     5
 10
-148.20638199999999
 20
-172.8642039999998
 30
0.0
 11
-143.98403300000001
 21
-174.68951799999991
 31
0.0
  0
ARC
  5
227
  8
DETAIL
  6
CONTINUOUS
 62
     5
 10
-141.99999600000001
 20
-170.100008
 30
0.0
 40
5.0
 50
246.621262
 51
258.52120600000001
  0
ARC
  5
228
  8
DETAIL
  6
CONTINUOUS
 62
     5
 10
-148.99999600000001
 20
-174.700008
 30
0.0
 40
2.0
 50
0.0
 51
90.0
  0
LINE
  5
229
  8
DETAIL
  6
CONTINUOUS
 62
     5
 10
-149.99999600000001
 20
-172.700008
 30
0.0
 11
-148.99999600000001
 21
-172.700008
 31
0.0
  0
LINE
  5
22A
  8
DETAIL
  6
CONTINUOUS
 62
     5
 10
-146.99999600000001
 20
-174.700008
 30
0.0
 11
-146.99999600000001
 21
-180.00000800000001
 31
0.0
  0
ARC
  5
22B
  8
DETAIL
  6
CONTINUOUS
 62
     5
 10
-141.99999600000001
 20
-180.00000800000001
 30
0.0
 40
5.0
 50
180.0
 51
270.0
  0
LINE
  5
22C
  8
DETAIL
  6
CONTINUOUS
 62
     5
 10
142.00000399999979
 20
-185.00000800000001
 30
0.0
 11
20.000004000000001
 21
-185.00000800000001
 31
0.0
  0
LINE
  5
22D
  8
DETAIL
  6
CONTINUOUS
 62
     5
 10
10.000004000000001
 20
-180.09999999999991
 30
0.0
 11
20.000004000000001
 21
-185.00000800000001
 31
0.0
  0
LINE
  5
22E
  8
DETAIL
  6
CONTINUOUS
 62
     5
 10
-9.9999959999999994
 20
-180.09999999999991
 30
0.0
 11
10.000004000000001
 21
-180.09999999999991
 31
0.0
  0
ARC
  5
22F
  8
DETAIL
  6
CONTINUOUS
 62
     5
 10
-5.5
 20
-187.88511099999999
 30
0.0
 40
0.5
 50
180.0
 51
245.0880249999999
  0
ARC
  5
230
  8
DETAIL
  6
CONTINUOUS
 62
     5
 10
5.5
 20
-187.88511099999999
 30
0.0
 40
0.5
 50
294.91197499999993
 51
0.0
  0
ARC
  5
231
  8
DETAIL
  6
CONTINUOUS
 62
     5
 10
0.0
 20
-176.042857
 30
0.0
 40
13.557143
 50
245.0880249999999
 51
294.91197499999993
  0
LINE
  5
232
  8
DETAIL
  6
CONTINUOUS
 62
     5
 10
-6.0
 20
-188.1999999999999
 30
0.0
 11
6.0
 21
-188.1999999999999
 31
0.0
  0
LINE
  5
233
  8
DETAIL
  6
CONTINUOUS
 62
     5
 10
-6.0
 20
-180.09999999999991
 30
0.0
 11
-6.0
 21
-187.88511099999999
 31
0.0
  0
LINE
  5
234
  8
DETAIL
  6
CONTINUOUS
 62
     5
 10
6.0
 20
-180.09999999999991
 30
0.0
 11
6.0
 21
-187.88511099999999
 31
0.0
  0
ARC
  5
235
  8
DETAIL
  6
CONTINUOUS
 62
     5
 10
152.10000400000001
 20
-152.100008
 30
0.0
 40
20.0
 50
270.0
 51
0.0
  0
ARC
  5
236
  8
DETAIL
  6
CONTINUOUS
 62
     5
 10
152.00000399999999
 20
-152.00000800000001
 30
0.0
 40
23.0
 50
270.0
 51
0.0
  0
LINE
  5
237
  8
DETAIL
  6
CONTINUOUS
 62
     5
 10
173.00000399999999
 20
-117.00000799999989
 30
0.0
 11
172.10000400000001
 21
-117.00000799999989
 31
0.0
  0
ARC
  5
238
  8
DETAIL
  6
CONTINUOUS
 62
     5
 10
173.00000399999999
 20
-115.00000799999989
 30
0.0
 40
2.0
 50
270.0
 51
0.0
  0
LINE
  5
239
  8
DETAIL
  6
CONTINUOUS
 62
     5
 10
173.00000399999999
 20
-127.00000799999989
 30
0.0
 11
172.10000400000001
 21
-127.00000799999989
 31
0.0
  0
ARC
  5
23A
  8
DETAIL
  6
CONTINUOUS
 62
     5
 10
173.00000399999999
 20
-129.00000800000001
 30
0.0
 40
2.0
 50
0.0
 51
90.0
  0
LINE
  5
23B
  8
DETAIL
  6
CONTINUOUS
 62
     5
 10
152.00000399999999
 20
-175.00000800000001
 30
0.0
 11
147.0000039999999
 21
-175.00000800000001
 31
0.0
  0
ARC
  5
23C
  8
DETAIL
  6
CONTINUOUS
 62
     5
 10
150.0000039999999
 20
-172.100008
 30
0.0
 40
0.6
 50
270.0
 51
0.0
  0
LINE
  5
23D
  8
DETAIL
  6
CONTINUOUS
 62
     5
 10
148.206389
 20
-172.8642039999998
 30
0.0
 11
143.98403999999999
 21
-174.68951799999991
 31
0.0
  0
ARC
  5
23E
  8
DETAIL
  6
CONTINUOUS
 62
     5
 10
142.00000399999979
 20
-170.100008
 30
0.0
 40
5.0
 50
281.47879399999999
 51
293.378738
  0
ARC
  5
23F
  8
DETAIL
  6
CONTINUOUS
 62
     5
 10
142.00000399999979
 20
-180.00000800000001
 30
0.0
 40
5.0
 50
270.0
 51
0.0
  0
LINE
  5
240
  8
DETAIL
  6
CONTINUOUS
 62
     5
 10
147.0000039999999
 20
-174.700008
 30
0.0
 11
147.0000039999999
 21
-180.00000800000001
 31
0.0
  0
ARC
  5
241
  8
DETAIL
  6
CONTINUOUS
 62
     5
 10
149.0000039999999
 20
-174.700008
 30
0.0
 40
2.0
 50
90.0
 51
180.0
  0
LINE
  5
242
  8
DETAIL
  6
CONTINUOUS
 62
     5
 10
149.0000039999999
 20
-172.700008
 30
0.0
 11
150.0000039999999
 21
-172.700008
 31
0.0
  0
LINE
  5
243
  8
DETAIL
  6
CONTINUOUS
 62
     5
 10
150.0000039999999
 20
-172.100008
 30
0.0
 11
150.0000039999999
 21
-172.700008
 31
0.0
  0
LINE
  5
244
  8
DETAIL
  6
CONTINUOUS
 62
     5
 10
-152.099996
 20
172.0999919999999
 30
0.0
 11
152.099996
 21
172.0999919999999
 31
0.0
  0
ARC
  5
245
  8
DETAIL
  6
CONTINUOUS
 62
     5
 10
-152.099996
 20
152.0999919999999
 30
0.0
 40
20.0
 50
90.0
 51
180.0
  0
LINE
  5
246
  8
DETAIL
  6
CONTINUOUS
 62
     5
 10
-172.99999600000001
 20
126.99999199999991
 30
0.0
 11
-172.099996
 21
126.99999199999991
 31
0.0
  0
ARC
  5
247
  8
DETAIL
  6
CONTINUOUS
 62
     5
 10
-172.99999600000001
 20
128.99999199999991
 30
0.0
 40
2.0
 50
180.0
 51
270.0
  0
LINE
  5
248
  8
DETAIL
  6
CONTINUOUS
 62
     5
 10
-172.99999600000001
 20
116.99999199999991
 30
0.0
 11
-172.099996
 21
116.99999199999991
 31
0.0
  0
ARC
  5
249
  8
DETAIL
  6
CONTINUOUS
 62
     5
 10
-172.99999600000001
 20
114.99999199999991
 30
0.0
 40
2.0
 50
90.0
 51
180.0
  0
ARC
  5
24A
  8
DETAIL
  6
CONTINUOUS
 62
     5
 10
172.99999600000001
 20
114.99999199999991
 30
0.0
 40
2.0
 50
0.0
 51
90.0
  0
LINE
  5
24B
  8
DETAIL
  6
CONTINUOUS
 62
     5
 10
172.99999600000001
 20
116.99999199999991
 30
0.0
 11
172.099996
 21
116.99999199999991
 31
0.0
  0
ARC
  5
24C
  8
DETAIL
  6
CONTINUOUS
 62
     5
 10
172.99999600000001
 20
128.99999199999991
 30
0.0
 40
2.0
 50
270.0
 51
0.0
  0
LINE
  5
24D
  8
DETAIL
  6
CONTINUOUS
 62
     5
 10
172.99999600000001
 20
126.99999199999991
 30
0.0
 11
172.099996
 21
126.99999199999991
 31
0.0
  0
ARC
  5
24E
  8
DETAIL
  6
CONTINUOUS
 62
     5
 10
152.099996
 20
152.0999919999999
 30
0.0
 40
20.0
 50
0.0
 51
90.0
  0
LINE
  5
24F
  8
DETAIL
  6
CONTINUOUS
 62
     5
 10
-175.0
 20
152.0
 30
0.0
 11
-175.0
 21
128.99999199999991
 31
0.0
  0
LINE
  5
250
  8
DETAIL
  6
CONTINUOUS
 62
     5
 10
175.0
 20
152.0
 30
0.0
 11
175.0
 21
128.99999199999991
 31
0.0
  0
LINE
  5
251
  8
DETAIL
  6
CONTINUOUS
 62
     5
 10
-152.0
 20
175.0
 30
0.0
 11
152.0
 21
175.0
 31
0.0
  0
LINE
  5
252
  8
DETAIL
  6
CONTINUOUS
 62
     5
 10
-142.99502200000001
 20
-175.0
 30
0.0
 11
142.99503000000001
 21
-175.0
 31
0.0
  0
ARC
  5
253
  8
DETAIL
  6
CONTINUOUS
 62
     5
 10
-152.0
 20
152.0
 30
0.0
 40
23.0
 50
90.0
 51
180.0
  0
ARC
  5
254
  8
DETAIL
  6
CONTINUOUS
 62
     5
 10
152.0
 20
152.0
 30
0.0
 40
23.0
 50
0.0
 51
90.0
  0
LINE
  5
255
  8
DETAIL
  6
CONTINUOUS
 62
     5
 10
-175.0
 20
114.99999199999991
 30
0.0
 11
-175.0
 21
-115.00000799999989
 31
0.0
  0
LINE
  5
256
  8
DETAIL
  6
CONTINUOUS
 62
     5
 10
175.0
 20
114.99999199999991
 30
0.0
 11
175.0
 21
-115.0039389999998
 31
0.0
  0
LINE
  5
257
  8
DETAIL
  6
CONTINUOUS
 62
     5
 10
-175.0
 20
-129.00000800000001
 30
0.0
 11
-175.0
 21
-152.0133389999998
 31
0.0
  0
LINE
  5
258
  8
SIZE
  6
CONTINUOUS
 62
    30
 10
172.0
 20
175.0
 30
0.0
 11
422.48840599999988
 21
175.0
 31
0.0
  0
LINE
  5
259
  8
SIZE
  6
CONTINUOUS
 62
    30
 10
172.01902100000001
 20
-175.0
 30
0.0
 11
422.48840599999988
 21
-175.0
 31
0.0
  0
LINE
  5
25A
  8
SIZE
  6
CONTINUOUS
 62
    30
 10
402.48840599999988
 20
163.0
 30
0.0
 11
402.48840599999988
 21
-163.0
 31
0.0
  0
CIRCLE
  5
25B
  8
SIZE
  6
CONTINUOUS
 62
    30
 10
402.48840599999988
 20
175.0
 30
0.0
 40
6.0
  0
LINE
  5
25C
  8
SIZE
  6
CONTINUOUS
 62
    30
 10
402.48840599999988
 20
175.0
 30
0.0
 11
402.48840599999988
 21
163.0
 31
0.0
  0
CIRCLE
  5
25D
  8
SIZE
  6
CONTINUOUS
 62
    30
 10
402.48840599999988
 20
-175.0
 30
0.0
 40
6.0
  0
LINE
  5
25E
  8
SIZE
  6
CONTINUOUS
 62
    30
 10
402.48840599999988
 20
-175.0
 30
0.0
 11
402.48840599999988
 21
-163.0
 31
0.0
  0
TEXT
  5
25F
  8
SIZE
  6
CONTINUOUS
 62
    30
 10
377.488406
 20
-74.05714285714285
 30
0.0
 40
64.0
  1
350
 50
90.0
 41
0.9
 72
     1
 11
377.488406
 21
0.0
 31
0.0
  0
POINT
  5
260
  8
DEFPOINTS
  6
CONTINUOUS
 62
    30
 10
152.0
 20
175.0
 30
0.0
  0
POINT
  5
261
  8
DEFPOINTS
  6
CONTINUOUS
 62
    30
 10
152.01902100000001
 20
-175.0
 30
0.0
  0
POINT
  5
262
  8
DEFPOINTS
  6
CONTINUOUS
 62
    30
 10
402.48840599999988
 20
-175.0
 30
0.0
  0
ARC
  5
263
  8
DETAIL
  6
CONTINUOUS
 62
     5
 10
-152.00000399999999
 20
-152.00000800000001
 30
0.0
 40
23.0
 50
180.0
 51
270.0
  0
LINE
  5
264
  8
DETAIL
  6
CONTINUOUS
 62
     5
 10
175.0
 20
-128.99607700000001
 30
0.0
 11
175.0
 21
-152.0133389999998
 31
0.0
  0
LINE
  5
265
  8
SIZE
  6
CONTINUOUS
 62
    30
 10
175.0
 20
172.0
 30
0.0
 11
175.0
 21
315.59716200000003
 31
0.0
  0
LINE
  5
266
  8
SIZE
  6
CONTINUOUS
 62
    30
 10
-175.0
 20
172.0
 30
0.0
 11
-175.0
 21
315.59716200000003
 31
0.0
  0
LINE
  5
267
  8
SIZE
  6
CONTINUOUS
 62
    30
 10
163.0
 20
295.59716200000008
 30
0.0
 11
-163.0
 21
295.59716200000008
 31
0.0
  0
CIRCLE
  5
268
  8
SIZE
  6
CONTINUOUS
 62
    30
 10
175.0
 20
295.59716200000008
 30
0.0
 40
6.0
  0
LINE
  5
269
  8
SIZE
  6
CONTINUOUS
 62
    30
 10
175.0
 20
295.59716200000008
 30
0.0
 11
163.0
 21
295.59716200000008
 31
0.0
  0
CIRCLE
  5
26A
  8
SIZE
  6
CONTINUOUS
 62
    30
 10
-175.0
 20
295.59716200000008
 30
0.0
 40
6.0
  0
LINE
  5
26B
  8
SIZE
  6
CONTINUOUS
 62
    30
 10
-175.0
 20
295.59716200000008
 30
0.0
 11
-163.0
 21
295.59716200000008
 31
0.0
  0
TEXT
  5
26C
  8
SIZE
  6
CONTINUOUS
 62
    30
 10
-74.05714285714285
 20
320.59716200000008
 30
0.0
 40
64.0
  1
350
 41
0.9
 72
     1
 11
0.0
 21
320.59716200000008
 31
0.0
  0
POINT
  5
26D
  8
DEFPOINTS
  6
CONTINUOUS
 62
    30
 10
175.0
 20
152.0
 30
0.0
  0
POINT
  5
26E
  8
DEFPOINTS
  6
CONTINUOUS
 62
    30
 10
-175.0
 20
152.0
 30
0.0
  0
POINT
  5
26F
  8
DEFPOINTS
  6
CONTINUOUS
 62
    30
 10
-175.0
 20
295.59716200000008
 30
0.0
  0
LINE
  5
270
  8
SIZE
  6
CONTINUOUS
 62
    30
 10
-272.78438
 20
0.0
 30
0.0
 11
-345.19685399999992
 21
0.0
 31
0.0
  0
LINE
  5
271
  8
SIZE
  6
CONTINUOUS
 62
    30
 10
-212.099996
 20
-122.0
 30
0.0
 11
-345.19685399999992
 21
-122.0
 31
0.0
  0
LINE
  5
274
  8
SIZE
  6
CONTINUOUS
 62
    30
 10
-325.19685399999997
 20
0.0
 30
0.0
 11
-325.19685399999997
 21
-122.0
 31
0.0
  0
CIRCLE
  5
275
  8
SIZE
  6
CONTINUOUS
 62
    30
 10
-325.19685399999997
 20
0.0
 30
0.0
 40
6.0
  0
CIRCLE
  5
277
  8
SIZE
  6
CONTINUOUS
 62
    30
 10
-325.19685399999997
 20
-122.0
 30
0.0
 40
6.0
  0
TEXT
  5
279
  8
SIZE
  6
CONTINUOUS
 62
    30
 10
-350.19685399999997
 20
-129.5714285714285
 30
0.0
 40
64.0
  1
122
 50
90.0
 41
0.9
 72
     1
 11
-350.19685399999997
 21
-61.0
 31
0.0
  0
POINT
  5
27A
  8
DEFPOINTS
  6
CONTINUOUS
 62
    30
 10
-252.7843799999998
 20
0.0
 30
0.0
  0
POINT
  5
27B
  8
DEFPOINTS
  6
CONTINUOUS
 62
    30
 10
-192.09999599999981
 20
-122.0
 30
0.0
  0
POINT
  5
27C
  8
DEFPOINTS
  6
CONTINUOUS
 62
    30
 10
-325.19685399999997
 20
-122.0
 30
0.0
  0
LINE
  5
27D
  8
OUTLINE
  6
CONTINUOUS
 62
     3
 10
-142.99502200000001
 20
-175.0
 30
0.0
 11
142.99503000000001
 21
-175.0
 31
0.0
  0
LINE
  5
27E
  8
OUTLINE
  6
CONTINUOUS
 62
     3
 10
-152.0
 20
175.0
 30
0.0
 11
152.0
 21
175.0
 31
0.0
  0
LINE
  5
27F
  8
OUTLINE
  6
CONTINUOUS
 62
     3
 10
-9.9999959999999994
 20
-180.09999999999991
 30
0.0
 11
10.000004000000001
 21
-180.09999999999991
 31
0.0
  0
LINE
  5
280
  8
OUTLINE
  6
CONTINUOUS
 62
     3
 10
-175.0
 20
114.99999199999991
 30
0.0
 11
-175.0
 21
-115.00000799999989
 31
0.0
  0
LINE
  5
281
  8
OUTLINE
  6
CONTINUOUS
 62
     3
 10
-172.099996
 20
126.99999199999991
 30
0.0
 11
-172.099996
 21
116.99999199999991
 31
0.0
  0
LINE
  5
282
  8
OUTLINE
  6
CONTINUOUS
 62
     3
 10
-19.999995999999982
 20
-185.00000800000001
 30
0.0
 11
-141.99999600000001
 21
-185.00000800000001
 31
0.0
  0
LINE
  5
283
  8
OUTLINE
  6
CONTINUOUS
 62
     3
 10
-175.0
 20
-129.00000800000001
 30
0.0
 11
-175.0
 21
-152.0133389999998
 31
0.0
  0
ARC
  5
284
  8
OUTLINE
  6
CONTINUOUS
 62
     3
 10
-141.99999600000001
 20
-170.100008
 30
0.0
 40
5.0
 50
246.621262
 51
258.52120600000001
  0
ARC
  5
285
  8
OUTLINE
  6
CONTINUOUS
 62
     3
 10
-152.00000399999999
 20
-152.00000800000001
 30
0.0
 40
23.0
 50
180.0
 51
270.0
  0
LINE
  5
286
  8
OUTLINE
  6
CONTINUOUS
 62
     3
 10
-172.99999600000001
 20
-127.00000799999989
 30
0.0
 11
-172.099996
 21
-127.00000799999989
 31
0.0
  0
ARC
  5
287
  8
OUTLINE
  6
CONTINUOUS
 62
     3
 10
-172.99999600000001
 20
-129.00000800000001
 30
0.0
 40
2.0
 50
90.0
 51
180.0
  0
LINE
  5
288
  8
OUTLINE
  6
CONTINUOUS
 62
     3
 10
-172.99999600000001
 20
-117.00000799999989
 30
0.0
 11
-172.099996
 21
-117.00000799999989
 31
0.0
  0
ARC
  5
289
  8
OUTLINE
  6
CONTINUOUS
 62
     3
 10
-172.99999600000001
 20
-115.00000799999989
 30
0.0
 40
2.0
 50
180.0
 51
270.0
  0
LINE
  5
28A
  8
OUTLINE
  6
CONTINUOUS
 62
     3
 10
-149.99999600000001
 20
-173.00000800000001
 30
0.0
 11
-149.99999600000001
 21
-172.700008
 31
0.0
  0
ARC
  5
28B
  8
OUTLINE
  6
CONTINUOUS
 62
     3
 10
-151.99999599999981
 20
-173.00000800000001
 30
0.0
 40
2.0
 50
270.0
 51
0.0
  0
LINE
  5
28C
  8
OUTLINE
  6
CONTINUOUS
 62
     3
 10
-148.20638199999999
 20
-172.8642039999998
 30
0.0
 11
-143.98403300000001
 21
-174.68951799999991
 31
0.0
  0
ARC
  5
28D
  8
OUTLINE
  6
CONTINUOUS
 62
     3
 10
-148.99999600000001
 20
-174.700008
 30
0.0
 40
2.0
 50
0.0
 51
90.0
  0
LINE
  5
28E
  8
OUTLINE
  6
CONTINUOUS
 62
     3
 10
-149.99999600000001
 20
-172.700008
 30
0.0
 11
-148.99999600000001
 21
-172.700008
 31
0.0
  0
LINE
  5
28F
  8
OUTLINE
  6
CONTINUOUS
 62
     3
 10
-146.99999600000001
 20
-174.700008
 30
0.0
 11
-146.99999600000001
 21
-180.00000800000001
 31
0.0
  0
ARC
  5
290
  8
OUTLINE
  6
CONTINUOUS
 62
     3
 10
-141.99999600000001
 20
-180.00000800000001
 30
0.0
 40
5.0
 50
180.0
 51
270.0
  0
LINE
  5
291
  8
OUTLINE
  6
CONTINUOUS
 62
     3
 10
-9.9999959999999994
 20
-180.09999999999991
 30
0.0
 11
-19.999995999999982
 21
-185.00000800000001
 31
0.0
  0
ARC
  5
292
  8
OUTLINE
  6
CONTINUOUS
 62
     3
 10
-152.0
 20
152.0
 30
0.0
 40
23.0
 50
90.0
 51
180.0
  0
LINE
  5
293
  8
OUTLINE
  6
CONTINUOUS
 62
     3
 10
-175.0
 20
152.0
 30
0.0
 11
-175.0
 21
128.99999199999991
 31
0.0
  0
LINE
  5
294
  8
OUTLINE
  6
CONTINUOUS
 62
     3
 10
-172.99999600000001
 20
126.99999199999991
 30
0.0
 11
-172.099996
 21
126.99999199999991
 31
0.0
  0
ARC
  5
295
  8
OUTLINE
  6
CONTINUOUS
 62
     3
 10
-172.99999600000001
 20
128.99999199999991
 30
0.0
 40
2.0
 50
180.0
 51
270.0
  0
LINE
  5
296
  8
OUTLINE
  6
CONTINUOUS
 62
     3
 10
-172.99999600000001
 20
116.99999199999991
 30
0.0
 11
-172.099996
 21
116.99999199999991
 31
0.0
  0
ARC
  5
297
  8
OUTLINE
  6
CONTINUOUS
 62
     3
 10
-172.99999600000001
 20
114.99999199999991
 30
0.0
 40
2.0
 50
90.0
 51
180.0
  0
LINE
  5
298
  8
OUTLINE
  6
CONTINUOUS
 62
     3
 10
175.0
 20
114.99999199999991
 30
0.0
 11
175.0
 21
-115.0039389999998
 31
0.0
  0
LINE
  5
299
  8
OUTLINE
  6
CONTINUOUS
 62
     3
 10
172.10000400000001
 20
116.99999199999991
 30
0.0
 11
172.10000400000001
 21
126.99999199999991
 31
0.0
  0
LINE
  5
29A
  8
OUTLINE
  6
CONTINUOUS
 62
     3
 10
142.00000399999979
 20
-185.00000800000001
 30
0.0
 11
20.000004000000001
 21
-185.00000800000001
 31
0.0
  0
LINE
  5
29B
  8
OUTLINE
  6
CONTINUOUS
 62
     3
 10
10.000004000000001
 20
-180.09999999999991
 30
0.0
 11
20.000004000000001
 21
-185.00000800000001
 31
0.0
  0
LINE
  5
29C
  8
OUTLINE
  6
CONTINUOUS
 62
     3
 10
175.0
 20
-128.99607700000001
 30
0.0
 11
175.0
 21
-152.0133389999998
 31
0.0
  0
ARC
  5
29D
  8
OUTLINE
  6
CONTINUOUS
 62
     3
 10
149.0000039999999
 20
-174.700008
 30
0.0
 40
2.0
 50
90.0
 51
180.0
  0
ARC
  5
29E
  8
OUTLINE
  6
CONTINUOUS
 62
     3
 10
142.00000399999979
 20
-170.100008
 30
0.0
 40
5.0
 50
281.47879399999999
 51
293.378738
  0
ARC
  5
29F
  8
OUTLINE
  6
CONTINUOUS
 62
     3
 10
152.00000399999999
 20
-152.00000800000001
 30
0.0
 40
23.0
 50
270.0
 51
0.0
  0
LINE
  5
2A0
  8
OUTLINE
  6
CONTINUOUS
 62
     3
 10
173.00000399999999
 20
-117.00000799999989
 30
0.0
 11
172.10000400000001
 21
-117.00000799999989
 31
0.0
  0
ARC
  5
2A1
  8
OUTLINE
  6
CONTINUOUS
 62
     3
 10
173.00000399999999
 20
-115.00000799999989
 30
0.0
 40
2.0
 50
270.0
 51
0.0
  0
LINE
  5
2A2
  8
OUTLINE
  6
CONTINUOUS
 62
     3
 10
173.00000399999999
 20
-127.00000799999989
 30
0.0
 11
172.10000400000001
 21
-127.00000799999989
 31
0.0
  0
ARC
  5
2A3
  8
OUTLINE
  6
CONTINUOUS
 62
     3
 10
173.00000399999999
 20
-129.00000800000001
 30
0.0
 40
2.0
 50
0.0
 51
90.0
  0
LINE
  5
2A4
  8
OUTLINE
  6
CONTINUOUS
 62
     3
 10
152.00000399999999
 20
-175.00000800000001
 30
0.0
 11
147.0000039999999
 21
-175.00000800000001
 31
0.0
  0
LINE
  5
2A5
  8
OUTLINE
  6
CONTINUOUS
 62
     3
 10
148.206389
 20
-172.8642039999998
 30
0.0
 11
143.98403999999999
 21
-174.68951799999991
 31
0.0
  0
ARC
  5
2A6
  8
OUTLINE
  6
CONTINUOUS
 62
     3
 10
142.00000399999979
 20
-180.00000800000001
 30
0.0
 40
5.0
 50
270.0
 51
0.0
  0
LINE
  5
2A7
  8
OUTLINE
  6
CONTINUOUS
 62
     3
 10
147.0000039999999
 20
-174.700008
 30
0.0
 11
147.0000039999999
 21
-180.00000800000001
 31
0.0
  0
LINE
  5
2A8
  8
OUTLINE
  6
CONTINUOUS
 62
     3
 10
175.0
 20
152.0
 30
0.0
 11
175.0
 21
128.99999199999991
 31
0.0
  0
ARC
  5
2A9
  8
OUTLINE
  6
CONTINUOUS
 62
     3
 10
152.0
 20
152.0
 30
0.0
 40
23.0
 50
0.0
 51
90.0
  0
ARC
  5
2AA
  8
OUTLINE
  6
CONTINUOUS
 62
     3
 10
172.99999600000001
 20
114.99999199999991
 30
0.0
 40
2.0
 50
0.0
 51
90.0
  0
LINE
  5
2AB
  8
OUTLINE
  6
CONTINUOUS
 62
     3
 10
172.99999600000001
 20
116.99999199999991
 30
0.0
 11
172.099996
 21
116.99999199999991
 31
0.0
  0
ARC
  5
2AC
  8
OUTLINE
  6
CONTINUOUS
 62
     3
 10
172.99999600000001
 20
128.99999199999991
 30
0.0
 40
2.0
 50
270.0
 51
0.0
  0
LINE
  5
2AD
  8
OUTLINE
  6
CONTINUOUS
 62
     3
 10
172.99999600000001
 20
126.99999199999991
 30
0.0
 11
172.099996
 21
126.99999199999991
 31
0.0
  0
CIRCLE
  5
2AE
  8
DETAIL
  6
CONTINUOUS
 62
     5
 10
0.000004
 20
0.0
 30
0.0
 40
134.0
  0
ARC
  5
2AF
  8
DETAIL
  6
CONTINUOUS
 62
     5
 10
0.0
 20
0.0
 30
0.0
 40
130.0
 50
30.520613000000001
 51
99.599999999999994
  0
ARC
  5
2B0
  8
DETAIL
  6
CONTINUOUS
 62
     5
 10
19.912685
 20
80.227701999999994
 30
0.0
 40
73.190057999999979
 50
176.4871819999999
 51
185.81562500000001
  0
ARC
  5
2B1
  8
DETAIL
  6
CONTINUOUS
 62
     5
 10
39.977469999999997
 20
76.731188000000003
 30
0.0
 40
74.555762999999999
 50
175.01543399999991
 51
183.47909199999981
  0
ARC
  5
2B2
  8
DETAIL
  6
CONTINUOUS
 62
     5
 10
0.0
 20
0.0
 30
0.0
 40
130.0
 50
120.520613
 51
189.59999999999991
  0
CIRCLE
  5
2B3
  8
DETAIL
  6
CONTINUOUS
 62
     5
 10
0.0
 20
0.0
 30
0.0
 40
46.0
  0
ARC
  5
2B4
  8
DETAIL
  6
CONTINUOUS
 62
     5
 10
33.334619000000004
 20
76.764180000000025
 30
0.0
 40
86.001069999999984
 50
197.824827
 51
205.14192600000001
  0
ARC
  5
2B5
  8
DETAIL
  6
CONTINUOUS
 62
     5
 10
0.0
 20
0.0
 30
0.0
 40
130.0
 50
210.520613
 51
279.60000000000002
  0
ARC
  5
2B6
  8
DETAIL
  6
CONTINUOUS
 62
     5
 10
-76.764180000000025
 20
33.334619000000004
 30
0.0
 40
86.001069999999984
 50
287.82482700000003
 51
295.14192599999978
  0
ARC
  5
2B7
  8
DETAIL
  6
CONTINUOUS
 62
     5
 10
-67.611152000000004
 20
41.581572999999999
 30
0.0
 40
75.061482999999981
 50
282.79047500000001
 51
292.1525279999999
  0
ARC
  5
2B8
  8
DETAIL
  6
CONTINUOUS
 62
     5
 10
-103.373581
 20
-60.941797999999999
 30
0.0
 40
10.0
 50
78.677909
 51
210.520613
  0
ARC
  5
2B9
  8
DETAIL
  6
CONTINUOUS
 62
     5
 10
-73.761196999999981
 20
84.320672999999985
 30
0.0
 40
119.017121
 50
254.414231
 51
259.99543699999992
  0
ARC
  5
2BA
  8
DETAIL
  6
CONTINUOUS
 62
     5
 10
-72.261024000000006
 20
89.697943000000009
 30
0.0
 40
124.599733
 50
248.9485939999999
 51
254.4141199999998
  0
ARC
  5
2BB
  8
DETAIL
  6
CONTINUOUS
 62
     5
 10
-70.112112999999994
 20
95.281384000000017
 30
0.0
 40
130.582427
 50
243.5971429999999
 51
248.948644
  0
ARC
  5
2BC
  8
DETAIL
  6
CONTINUOUS
 62
     5
 10
-60.197946999999999
 20
154.698418
 30
0.0
 40
209.920073
 50
258.67790899999977
 51
259.91872999999998
  0
ARC
  5
2BD
  8
DETAIL
  6
CONTINUOUS
 62
     5
 10
-72.886183000000003
 20
136.73682600000001
 30
0.0
 40
190.24460499999981
 50
262.73526800000002
 51
266.43607500000002
  0
ARC
  5
2BE
  8
DETAIL
  6
CONTINUOUS
 62
     5
 10
-80.227701999999994
 20
19.912685
 30
0.0
 40
73.190057999999979
 50
266.4871819999999
 51
275.81562500000001
  0
ARC
  5
2BF
  8
DETAIL
  6
CONTINUOUS
 62
     5
 10
-79.199680000000001
 20
42.64288599999999
 30
0.0
 40
95.756879999999995
 50
273.82516699999991
 51
280.78359899999998
  0
ARC
  5
2C0
  8
DETAIL
  6
CONTINUOUS
 62
     5
 10
-91.667412000000013
 20
84.624307000000002
 30
0.0
 40
139.39889099999999
 50
282.58944200000002
 51
287.20321000000001
  0
ARC
  5
2C1
  8
DETAIL
  6
CONTINUOUS
 62
     5
 10
-74.780158999999983
 20
70.426074999999983
 30
0.0
 40
104.898532
 50
271.40570200000002
 51
277.32810499999999
  0
ARC
  5
2C2
  8
DETAIL
  6
CONTINUOUS
 62
     5
 10
-70.184983000000003
 20
40.230230999999982
 30
0.0
 40
74.366559999999978
 50
276.7840599999999
 51
284.95528899999999
  0
ARC
  5
2C3
  8
DETAIL
  6
CONTINUOUS
 62
     5
 10
-74.658067000000003
 20
79.240106999999981
 30
0.0
 40
113.858001
 50
259.99574100000001
 51
265.69286
  0
ARC
  5
2C4
  8
DETAIL
  6
CONTINUOUS
 62
     5
 10
-76.731188000000003
 20
39.977469999999997
 30
0.0
 40
74.555762999999999
 50
265.01543399999991
 51
273.47909199999998
  0
ARC
  5
2C5
  8
DETAIL
  6
CONTINUOUS
 62
     5
 10
42.64288599999999
 20
79.199680000000001
 30
0.0
 40
95.756879999999995
 50
183.82516699999999
 51
190.78359900000001
  0
ARC
  5
2C6
  8
DETAIL
  6
CONTINUOUS
 62
     5
 10
84.624307000000002
 20
91.667412000000013
 30
0.0
 40
139.39889099999999
 50
192.58944199999991
 51
197.20321000000001
  0
ARC
  5
2C7
  8
DETAIL
  6
CONTINUOUS
 62
     5
 10
0.0
 20
0.0
 30
0.0
 40
130.0
 50
300.52061299999991
 51
9.5999999999999996
  0
ARC
  5
2C8
  8
DETAIL
  6
CONTINUOUS
 62
     5
 10
-19.912685
 20
-80.227701999999994
 30
0.0
 40
73.190057999999979
 50
356.48718199999979
 51
5.8156249999999989
  0
ARC
  5
2C9
  8
DETAIL
  6
CONTINUOUS
 62
     5
 10
-39.977469999999997
 20
-76.731188000000003
 30
0.0
 40
74.555762999999999
 50
355.01543399999991
 51
3.4790920000000001
  0
ARC
  5
2CA
  8
DETAIL
  6
CONTINUOUS
 62
     5
 10
60.941797999999999
 20
-103.373581
 30
0.0
 40
10.0
 50
168.6779089999998
 51
300.52061299999991
  0
ARC
  5
2CB
  8
DETAIL
  6
CONTINUOUS
 62
     5
 10
-154.698418
 20
-60.197946999999999
 30
0.0
 40
209.920073
 50
348.677909
 51
349.91872999999998
  0
ARC
  5
2CC
  8
DETAIL
  6
CONTINUOUS
 62
     5
 10
-136.73682600000001
 20
-72.886183000000003
 30
0.0
 40
190.24460499999981
 50
352.73526800000002
 51
356.43607500000002
  0
ARC
  5
2CD
  8
DETAIL
  6
CONTINUOUS
 62
     5
 10
-79.240106999999981
 20
-74.658067000000003
 30
0.0
 40
113.858001
 50
349.99574100000001
 51
355.69285999999983
  0
ARC
  5
2CE
  8
DETAIL
  6
CONTINUOUS
 62
     5
 10
-84.320672999999985
 20
-73.761196999999981
 30
0.0
 40
119.017121
 50
344.41423099999992
 51
349.99543699999992
  0
ARC
  5
2CF
  8
DETAIL
  6
CONTINUOUS
 62
     5
 10
-89.697943000000009
 20
-72.261024000000006
 30
0.0
 40
124.599733
 50
338.94859400000001
 51
344.41412000000003
  0
ARC
  5
2D0
  8
DETAIL
  6
CONTINUOUS
 62
     5
 10
-95.281384000000017
 20
-70.112112999999994
 30
0.0
 40
130.582427
 50
333.59714300000002
 51
338.948644
  0
ARC
  5
2D1
  8
DETAIL
  6
CONTINUOUS
 62
     5
 10
79.199680000000001
 20
-42.64288599999999
 30
0.0
 40
95.756879999999995
 50
93.825166999999993
 51
100.783599
  0
ARC
  5
2D2
  8
DETAIL
  6
CONTINUOUS
 62
     5
 10
74.780158999999983
 20
-70.426074999999983
 30
0.0
 40
104.898532
 50
91.405702000000005
 51
97.328104999999994
  0
CIRCLE
  5
2D3
  8
DETAIL
  6
CONTINUOUS
 62
     5
 10
0.0
 20
0.0
 30
0.0
 40
27.0
  0
ARC
  5
2D4
  8
DETAIL
  6
CONTINUOUS
 62
     5
 10
0.0
 20
0.0
 30
0.0
 40
28.0
 50
356.81527799999992
 51
3.184755
  0
ARC
  5
2D5
  8
DETAIL
  6
CONTINUOUS
 62
     5
 10
0.0
 20
0.000016
 30
0.0
 40
28.0
 50
176.81527800000001
 51
183.18475499999991
  0
ARC
  5
2D6
  8
DETAIL
  6
CONTINUOUS
 62
     5
 10
12.180113
 20
-24.096565999999989
 30
0.0
 40
1.0
 50
210.0
 51
296.81527799999998
  0
LINE
  5
2D7
  8
DETAIL
  6
CONTINUOUS
 62
     5
 10
-26.884008999999988
 20
-2.499991999999998
 30
0.0
 11
-26.958300999999999
 21
-2.499991999999998
 31
0.0
  0
ARC
  5
2D8
  8
DETAIL
  6
CONTINUOUS
 62
     5
 10
-26.958300999999999
 20
-1.4999919999999991
 30
0.0
 40
1.0
 50
183.18475499999991
 51
270.0
  0
LINE
  5
2D9
  8
DETAIL
  6
CONTINUOUS
 62
     5
 10
-22.032235
 20
-15.607060000000001
 30
0.0
 11
-22.096572999999989
 21
-15.644206000000001
 31
0.0
  0
LINE
  5
2DA
  8
DETAIL
  6
CONTINUOUS
 62
     5
 10
-24.53223599999999
 20
-11.276933999999979
 30
0.0
 11
-24.596574
 21
-11.314078999999991
 31
0.0
  0
ARC
  5
2DB
  8
DETAIL
  6
CONTINUOUS
 62
     5
 10
-24.096574
 20
-12.180104999999999
 30
0.0
 40
1.0
 50
119.9999999999999
 51
206.81527800000001
  0
ARC
  5
2DC
  8
DETAIL
  6
CONTINUOUS
 62
     5
 10
-0.000004
 20
0.000015
 30
0.0
 40
28.0
 50
206.81527800000001
 51
213.184755
  0
ARC
  5
2DD
  8
DETAIL
  6
CONTINUOUS
 62
     5
 10
-22.596572999999999
 20
-14.778181
 30
0.0
 40
1.0
 50
213.184755
 51
300.0
  0
LINE
  5
2DE
  8
DETAIL
  6
CONTINUOUS
 62
     5
 10
-11.276941000000001
 20
-24.532226999999988
 30
0.0
 11
-11.31408699999999
 21
-24.596564999999991
 31
0.0
  0
LINE
  5
2DF
  8
DETAIL
  6
CONTINUOUS
 62
     5
 10
-15.607068999999999
 20
-22.032228
 30
0.0
 11
-15.644214
 21
-22.096565999999999
 31
0.0
  0
ARC
  5
2E0
  8
DETAIL
  6
CONTINUOUS
 62
     5
 10
-14.77818899999999
 20
-22.596565999999999
 30
0.0
 40
1.0
 50
150.0
 51
236.81527799999989
  0
ARC
  5
2E1
  8
DETAIL
  6
CONTINUOUS
 62
     5
 10
-0.000007
 20
0.000012
 30
0.0
 40
28.0
 50
236.81527799999989
 51
243.184755
  0
ARC
  5
2E2
  8
DETAIL
  6
CONTINUOUS
 62
     5
 10
-12.180111999999999
 20
-24.096564999999998
 30
0.0
 40
1.0
 50
243.184755
 51
330.0
  0
LINE
  5
2E3
  8
DETAIL
  6
CONTINUOUS
 62
     5
 10
2.5
 20
-26.884001999999999
 30
0.0
 11
2.5
 21
-26.958292999999991
 31
0.0
  0
LINE
  5
2E4
  8
DETAIL
  6
CONTINUOUS
 62
     5
 10
-2.5
 20
-26.884003
 30
0.0
 11
-2.5
 21
-26.958293999999999
 31
0.0
  0
ARC
  5
2E5
  8
DETAIL
  6
CONTINUOUS
 62
     5
 10
-1.5
 20
-26.958293999999999
 30
0.0
 40
1.0
 50
180.0
 51
266.81527799999992
  0
ARC
  5
2E6
  8
DETAIL
  6
CONTINUOUS
 62
     5
 10
-0.000008
 20
0.000008
 30
0.0
 40
28.0
 50
266.81527799999992
 51
273.18475499999988
  0
ARC
  5
2E7
  8
DETAIL
  6
CONTINUOUS
 62
     5
 10
1.5
 20
-26.958292999999991
 30
0.0
 40
1.0
 50
273.18475499999988
 51
0.0
  0
LINE
  5
2E8
  8
DETAIL
  6
CONTINUOUS
 62
     5
 10
11.276942
 20
-24.532228
 30
0.0
 11
11.31408699999999
 21
-24.596565999999999
 31
0.0
  0
ARC
  5
2E9
  8
DETAIL
  6
CONTINUOUS
 62
     5
 10
-75.065101999999982
 20
29.708327000000001
 30
0.0
 40
81.996465999999984
 50
295.14372099999991
 51
302.699029
  0
ARC
  5
2EA
  8
DETAIL
  6
CONTINUOUS
 62
     5
 10
-32.389153
 20
-36.768774000000001
 30
0.0
 40
3.0
 50
302.699029
 51
48.623578999999999
  0
ARC
  5
2EB
  8
DETAIL
  6
CONTINUOUS
 62
     5
 10
-38.176231999999992
 20
-30.717670999999999
 30
0.0
 40
3.0
 50
38.821134999999991
 51
112.1525279999999
  0
LINE
  5
2EC
  8
DETAIL
  6
CONTINUOUS
 62
     5
 10
26.884011000000001
 20
-2.499991999999998
 30
0.0
 11
26.958302
 21
-2.499991999999998
 31
0.0
  0
ARC
  5
2ED
  8
DETAIL
  6
CONTINUOUS
 62
     5
 10
26.958302
 20
-1.4999919999999991
 30
0.0
 40
1.0
 50
270.0
 51
356.81527799999992
  0
LINE
  5
2EE
  8
DETAIL
  6
CONTINUOUS
 62
     5
 10
15.607068
 20
-22.032226999999988
 30
0.0
 11
15.644214
 21
-22.096564999999991
 31
0.0
  0
ARC
  5
2EF
  8
DETAIL
  6
CONTINUOUS
 62
     5
 10
-0.000007
 20
0.000004
 30
0.0
 40
28.0
 50
296.81527799999998
 51
303.184755
  0
ARC
  5
2F0
  8
DETAIL
  6
CONTINUOUS
 62
     5
 10
14.778188
 20
-22.596564999999991
 30
0.0
 40
1.0
 50
303.184755
 51
30.0
  0
LINE
  5
2F1
  8
DETAIL
  6
CONTINUOUS
 62
     5
 10
24.532235
 20
-11.276933
 30
0.0
 11
24.596572999999989
 21
-11.314078999999991
 31
0.0
  0
LINE
  5
2F2
  8
DETAIL
  6
CONTINUOUS
 62
     5
 10
22.03223599999998
 20
-15.60706099999998
 30
0.0
 11
22.096574
 21
-15.644206000000001
 31
0.0
  0
ARC
  5
2F3
  8
DETAIL
  6
CONTINUOUS
 62
     5
 10
22.596574
 20
-14.778181
 30
0.0
 40
1.0
 50
239.99999999999989
 51
326.81527799999992
  0
ARC
  5
2F4
  8
DETAIL
  6
CONTINUOUS
 62
     5
 10
-0.000004
 20
0.000001
 30
0.0
 40
28.0
 50
326.81527799999992
 51
333.18475499999988
  0
ARC
  5
2F5
  8
DETAIL
  6
CONTINUOUS
 62
     5
 10
24.096572999999999
 20
-12.180104
 30
0.0
 40
1.0
 50
333.18475499999988
 51
60.0
  0
ARC
  5
2F6
  8
DETAIL
  6
CONTINUOUS
 62
     5
 10
-42.64288599999999
 20
-79.199680000000001
 30
0.0
 40
95.756879999999995
 50
3.825167
 51
10.783599000000001
  0
ARC
  5
2F7
  8
DETAIL
  6
CONTINUOUS
 62
     5
 10
-84.624307000000002
 20
-91.667412000000013
 30
0.0
 40
139.39889099999999
 50
12.589442
 51
17.203209999999999
  0
ARC
  5
2F8
  8
DETAIL
  6
CONTINUOUS
 62
     5
 10
-33.334619000000004
 20
-76.764180000000025
 30
0.0
 40
86.001069999999984
 50
17.824826999999999
 51
25.141926000000002
  0
ARC
  5
2F9
  8
DETAIL
  6
CONTINUOUS
 62
     5
 10
36.768774000000001
 20
-32.389153
 30
0.0
 40
3.0
 50
32.699028999999989
 51
138.62357900000001
  0
ARC
  5
2FA
  8
DETAIL
  6
CONTINUOUS
 62
     5
 10
-29.708327000000001
 20
-75.065101999999982
 30
0.0
 40
81.996465999999984
 50
25.143720999999999
 51
32.699028999999989
  0
ARC
  5
2FB
  8
DETAIL
  6
CONTINUOUS
 62
     5
 10
30.717670999999999
 20
-38.176231999999992
 30
0.0
 40
3.0
 50
128.821135
 51
202.15252799999999
  0
ARC
  5
2FC
  8
DETAIL
  6
CONTINUOUS
 62
     5
 10
-41.581572999999999
 20
-67.611152000000004
 30
0.0
 40
75.061482999999981
 50
12.79047499999999
 51
22.152528
  0
ARC
  5
2FD
  8
DETAIL
  6
CONTINUOUS
 62
     5
 10
-70.426074999999983
 20
-74.780158999999983
 30
0.0
 40
104.898532
 50
1.405701999999998
 51
7.328104999999999
  0
ARC
  5
2FE
  8
DETAIL
  6
CONTINUOUS
 62
     5
 10
-40.230230999999982
 20
-70.184983000000003
 30
0.0
 40
74.366559999999978
 50
6.7840600000000011
 51
14.955289
  0
ARC
  5
2FF
  8
DETAIL
  6
CONTINUOUS
 62
     5
 10
12.180111999999999
 20
24.096581
 30
0.0
 40
1.0
 50
63.184754999999988
 51
150.0
  0
LINE
  5
300
  8
DETAIL
  6
CONTINUOUS
 62
     5
 10
11.276941000000001
 20
24.532243000000001
 30
0.0
 11
11.31408699999999
 21
24.596581
 31
0.0
  0
LINE
  5
301
  8
DETAIL
  6
CONTINUOUS
 62
     5
 10
-2.5
 20
26.884017
 30
0.0
 11
-2.5
 21
26.958309
 31
0.0
  0
LINE
  5
302
  8
DETAIL
  6
CONTINUOUS
 62
     5
 10
2.5
 20
26.884018999999999
 30
0.0
 11
2.5
 21
26.958309
 31
0.0
  0
ARC
  5
303
  8
DETAIL
  6
CONTINUOUS
 62
     5
 10
1.5
 20
26.958309
 30
0.0
 40
1.0
 50
0.0
 51
86.815278000000006
  0
ARC
  5
304
  8
DETAIL
  6
CONTINUOUS
 62
     5
 10
0.000008
 20
0.000008
 30
0.0
 40
28.0
 50
86.815278000000006
 51
93.184754999999996
  0
ARC
  5
305
  8
DETAIL
  6
CONTINUOUS
 62
     5
 10
-1.5
 20
26.958309
 30
0.0
 40
1.0
 50
93.184754999999996
 51
180.0
  0
LINE
  5
306
  8
DETAIL
  6
CONTINUOUS
 62
     5
 10
-15.607068
 20
22.032243000000001
 30
0.0
 11
-15.644214
 21
22.09658099999999
 31
0.0
  0
LINE
  5
307
  8
DETAIL
  6
CONTINUOUS
 62
     5
 10
-11.276942
 20
24.532243999999992
 30
0.0
 11
-11.31408699999999
 21
24.596582000000001
 31
0.0
  0
ARC
  5
308
  8
DETAIL
  6
CONTINUOUS
 62
     5
 10
-12.180113
 20
24.096582000000001
 30
0.0
 40
1.0
 50
30.0
 51
116.81527800000001
  0
ARC
  5
309
  8
DETAIL
  6
CONTINUOUS
 62
     5
 10
0.000007
 20
0.000012
 30
0.0
 40
28.0
 50
116.81527800000001
 51
123.184755
  0
ARC
  5
30A
  8
DETAIL
  6
CONTINUOUS
 62
     5
 10
-14.778188
 20
22.596581
 30
0.0
 40
1.0
 50
123.184755
 51
210.0
  0
LINE
  5
30B
  8
DETAIL
  6
CONTINUOUS
 62
     5
 10
-24.532235
 20
11.276949
 30
0.0
 11
-24.596572999999989
 21
11.31409499999998
 31
0.0
  0
LINE
  5
30C
  8
DETAIL
  6
CONTINUOUS
 62
     5
 10
-22.03223599999998
 20
15.607077
 30
0.0
 11
-22.096574
 21
15.644221999999999
 31
0.0
  0
ARC
  5
30D
  8
DETAIL
  6
CONTINUOUS
 62
     5
 10
-22.596574
 20
14.778197
 30
0.0
 40
1.0
 50
60.0
 51
146.81527800000001
  0
ARC
  5
30E
  8
DETAIL
  6
CONTINUOUS
 62
     5
 10
0.000004
 20
0.000015
 30
0.0
 40
28.0
 50
146.81527800000001
 51
153.18475499999991
  0
ARC
  5
30F
  8
DETAIL
  6
CONTINUOUS
 62
     5
 10
-24.096572999999999
 20
12.180120000000001
 30
0.0
 40
1.0
 50
153.18475499999991
 51
239.99999999999989
  0
LINE
  5
310
  8
DETAIL
  6
CONTINUOUS
 62
     5
 10
-26.884011000000001
 20
2.5000079999999989
 30
0.0
 11
-26.958302
 21
2.5000079999999989
 31
0.0
  0
ARC
  5
311
  8
DETAIL
  6
CONTINUOUS
 62
     5
 10
-26.958302
 20
1.500008
 30
0.0
 40
1.0
 50
90.0
 51
176.81527800000001
  0
ARC
  5
312
  8
DETAIL
  6
CONTINUOUS
 62
     5
 10
-36.768774000000001
 20
32.389153
 30
0.0
 40
3.0
 50
212.69902899999991
 51
318.62357900000001
  0
ARC
  5
313
  8
DETAIL
  6
CONTINUOUS
 62
     5
 10
-30.717670999999999
 20
38.176231999999992
 30
0.0
 40
3.0
 50
308.82113500000008
 51
22.152528
  0
ARC
  5
314
  8
DETAIL
  6
CONTINUOUS
 62
     5
 10
41.581572999999999
 20
67.611152000000004
 30
0.0
 40
75.061482999999981
 50
192.7904749999999
 51
202.15252799999999
  0
ARC
  5
315
  8
DETAIL
  6
CONTINUOUS
 62
     5
 10
29.708327000000001
 20
75.065101999999982
 30
0.0
 40
81.996465999999984
 50
205.143721
 51
212.69902899999991
  0
ARC
  5
316
  8
DETAIL
  6
CONTINUOUS
 62
     5
 10
70.426074999999983
 20
74.780158999999983
 30
0.0
 40
104.898532
 50
181.40570199999991
 51
187.32810499999991
  0
ARC
  5
317
  8
DETAIL
  6
CONTINUOUS
 62
     5
 10
40.230230999999982
 20
70.184983000000003
 30
0.0
 40
74.366559999999978
 50
186.78406000000001
 51
194.95528899999999
  0
LINE
  5
318
  8
DETAIL
  6
CONTINUOUS
 62
     5
 10
26.884008999999988
 20
2.5000079999999989
 30
0.0
 11
26.958300999999999
 21
2.5000079999999989
 31
0.0
  0
ARC
  5
319
  8
DETAIL
  6
CONTINUOUS
 62
     5
 10
26.958300999999999
 20
1.500008
 30
0.0
 40
1.0
 50
3.184755
 51
90.0
  0
LINE
  5
31A
  8
DETAIL
  6
CONTINUOUS
 62
     5
 10
22.032235
 20
15.60707599999999
 30
0.0
 11
22.096572999999989
 21
15.644221999999999
 31
0.0
  0
LINE
  5
31B
  8
DETAIL
  6
CONTINUOUS
 62
     5
 10
24.53223599999999
 20
11.27694999999999
 30
0.0
 11
24.596574
 21
11.31409499999998
 31
0.0
  0
ARC
  5
31C
  8
DETAIL
  6
CONTINUOUS
 62
     5
 10
24.096574
 20
12.180121
 30
0.0
 40
1.0
 50
300.0
 51
26.815277999999999
  0
ARC
  5
31D
  8
DETAIL
  6
CONTINUOUS
 62
     5
 10
0.000004
 20
0.000001
 30
0.0
 40
28.0
 50
26.815277999999999
 51
33.184754999999988
  0
ARC
  5
31E
  8
DETAIL
  6
CONTINUOUS
 62
     5
 10
22.596572999999999
 20
14.778195999999999
 30
0.0
 40
1.0
 50
33.184754999999988
 51
119.9999999999999
  0
LINE
  5
31F
  8
DETAIL
  6
CONTINUOUS
 62
     5
 10
15.607068999999999
 20
22.032243999999992
 30
0.0
 11
15.644214
 21
22.096582000000001
 31
0.0
  0
ARC
  5
320
  8
DETAIL
  6
CONTINUOUS
 62
     5
 10
14.77818899999999
 20
22.596582000000001
 30
0.0
 40
1.0
 50
330.0
 51
56.815277999999999
  0
ARC
  5
321
  8
DETAIL
  6
CONTINUOUS
 62
     5
 10
0.000007
 20
0.000004
 30
0.0
 40
28.0
 50
56.815277999999999
 51
63.184754999999988
  0
ARC
  5
322
  8
DETAIL
  6
CONTINUOUS
 62
     5
 10
38.176231999999992
 20
30.717670999999999
 30
0.0
 40
3.0
 50
218.821135
 51
292.1525279999999
  0
ARC
  5
323
  8
DETAIL
  6
CONTINUOUS
 62
     5
 10
32.389153
 20
36.768774000000001
 30
0.0
 40
3.0
 50
122.699029
 51
228.62357900000001
  0
ARC
  5
324
  8
DETAIL
  6
CONTINUOUS
 62
     5
 10
75.065101999999982
 20
-29.708327000000001
 30
0.0
 40
81.996465999999984
 50
115.143721
 51
122.699029
  0
ARC
  5
325
  8
DETAIL
  6
CONTINUOUS
 62
     5
 10
91.667412000000013
 20
-84.624307000000002
 30
0.0
 40
139.39889099999999
 50
102.58944200000001
 51
107.20321
  0
ARC
  5
326
  8
DETAIL
  6
CONTINUOUS
 62
     5
 10
76.764180000000025
 20
-33.334619000000004
 30
0.0
 40
86.001069999999984
 50
107.824827
 51
115.1419259999999
  0
ARC
  5
327
  8
DETAIL
  6
CONTINUOUS
 62
     5
 10
70.184983000000003
 20
-40.230230999999982
 30
0.0
 40
74.366559999999978
 50
96.784059999999982
 51
104.95528899999999
  0
ARC
  5
328
  8
DETAIL
  6
CONTINUOUS
 62
     5
 10
67.611152000000004
 20
-41.581572999999999
 30
0.0
 40
75.061482999999981
 50
102.790475
 51
112.1525279999999
  0
ARC
  5
329
  8
DETAIL
  6
CONTINUOUS
 62
     5
 10
70.112112999999994
 20
-95.281384000000017
 30
0.0
 40
130.582427
 50
63.597143000000003
 51
68.948643999999987
  0
ARC
  5
32A
  8
DETAIL
  6
CONTINUOUS
 62
     5
 10
103.373581
 20
60.941797999999999
 30
0.0
 40
10.0
 50
258.67790899999977
 51
30.520613000000001
  0
ARC
  5
32B
  8
DETAIL
  6
CONTINUOUS
 62
     5
 10
60.197946999999999
 20
-154.698418
 30
0.0
 40
209.920073
 50
78.677909
 51
79.918730000000039
  0
ARC
  5
32C
  8
DETAIL
  6
CONTINUOUS
 62
     5
 10
72.886183000000003
 20
-136.73682600000001
 30
0.0
 40
190.24460499999981
 50
82.735268000000005
 51
86.436074999999988
  0
ARC
  5
32D
  8
DETAIL
  6
CONTINUOUS
 62
     5
 10
80.227701999999994
 20
-19.912685
 30
0.0
 40
73.190057999999979
 50
86.487181999999976
 51
95.815624999999997
  0
ARC
  5
32E
  8
DETAIL
  6
CONTINUOUS
 62
     5
 10
76.731188000000003
 20
-39.977469999999997
 30
0.0
 40
74.555762999999999
 50
85.015433999999999
 51
93.479092000000009
  0
ARC
  5
32F
  8
DETAIL
  6
CONTINUOUS
 62
     5
 10
73.761196999999981
 20
-84.320672999999985
 30
0.0
 40
119.017121
 50
74.414231000000001
 51
79.995436999999981
  0
ARC
  5
330
  8
DETAIL
  6
CONTINUOUS
 62
     5
 10
74.658067000000003
 20
-79.240106999999981
 30
0.0
 40
113.858001
 50
79.995741000000024
 51
85.692859999999982
  0
ARC
  5
331
  8
DETAIL
  6
CONTINUOUS
 62
     5
 10
72.261024000000006
 20
-89.697943000000009
 30
0.0
 40
124.599733
 50
68.948594
 51
74.414119999999983
  0
ARC
  5
332
  8
DETAIL
  6
CONTINUOUS
 62
     5
 10
-60.941797999999999
 20
103.373581
 30
0.0
 40
10.0
 50
348.677909
 51
120.520613
  0
ARC
  5
333
  8
DETAIL
  6
CONTINUOUS
 62
     5
 10
154.698418
 20
60.197946999999999
 30
0.0
 40
209.920073
 50
168.6779089999998
 51
169.91873000000001
  0
ARC
  5
334
  8
DETAIL
  6
CONTINUOUS
 62
     5
 10
136.73682600000001
 20
72.886183000000003
 30
0.0
 40
190.24460499999981
 50
172.73526799999991
 51
176.4360749999999
  0
ARC
  5
335
  8
DETAIL
  6
CONTINUOUS
 62
     5
 10
95.281384000000017
 20
70.112112999999994
 30
0.0
 40
130.582427
 50
153.59714299999999
 51
158.9486439999998
  0
ARC
  5
336
  8
DETAIL
  6
CONTINUOUS
 62
     5
 10
89.697943000000009
 20
72.261024000000006
 30
0.0
 40
124.599733
 50
158.94859399999979
 51
164.41411999999991
  0
ARC
  5
337
  8
DETAIL
  6
CONTINUOUS
 62
     5
 10
84.320672999999985
 20
73.761196999999981
 30
0.0
 40
119.017121
 50
164.414231
 51
169.99543700000001
  0
ARC
  5
338
  8
DETAIL
  6
CONTINUOUS
 62
     5
 10
79.240106999999981
 20
74.658067000000003
 30
0.0
 40
113.858001
 50
169.99574099999981
 51
175.69285999999991
  0
LINE
  5
339
  8
SIZE
  6
CONTINUOUS
 62
    30
 10
172.0000039999999
 20
-175.00000800000001
 30
0.0
 11
422.48840599999988
 21
-175.00000800000001
 31
0.0
  0
LINE
  5
33A
  8
SIZE
  6
CONTINUOUS
 62
    30
 10
162.00000399999979
 20
-185.00000800000001
 30
0.0
 11
422.48840599999988
 21
-185.00000800000001
 31
0.0
  0
LINE
  5
33B
  8
SIZE
  6
CONTINUOUS
 62
    30
 10
402.48840599999988
 20
-163.00000800000001
 30
0.0
 11
402.48840599999988
 21
-151.00000800000001
 31
0.0
  0
LINE
  5
33C
  8
SIZE
  6
CONTINUOUS
 62
    30
 10
402.48840599999988
 20
-197.00000800000001
 30
0.0
 11
402.48840599999988
 21
-209.00000800000001
 31
0.0
  0
LINE
  5
33D
  8
SIZE
  6
CONTINUOUS
 62
    30
 10
402.48840599999988
 20
-350.96473099999992
 30
0.0
 11
402.48840599999988
 21
-185.00000800000001
 31
0.0
  0
TEXT
  5
33E
  8
SIZE
  6
CONTINUOUS
 62
    30
 10
377.488406
 20
-325.96473114285709
 30
0.0
 40
64.0
  1
10
 50
90.0
 41
0.9
 72
     1
 11
377.488406
 21
-284.82187399999992
 31
0.0
  0
LINE
  5
33F
  8
SIZE
  6
CONTINUOUS
 62
    30
 10
402.48840599999988
 20
-175.00000800000001
 30
0.0
 11
402.48840599999988
 21
-185.00000800000001
 31
0.0
  0
LINE
  5
340
  8
SIZE
  6
CONTINUOUS
 62
    30
 10
402.48840599999988
 20
-175.00000800000001
 30
0.0
 11
402.48840599999988
 21
-185.00000800000001
 31
0.0
  0
CIRCLE
  5
341
  8
SIZE
  6
CONTINUOUS
 62
    30
 10
402.48840599999988
 20
-175.00000800000001
 30
0.0
 40
6.0
  0
LINE
  5
342
  8
SIZE
  6
CONTINUOUS
 62
    30
 10
402.48840599999988
 20
-175.00000800000001
 30
0.0
 11
402.48840599999988
 21
-163.00000800000001
 31
0.0
  0
CIRCLE
  5
343
  8
SIZE
  6
CONTINUOUS
 62
    30
 10
402.48840599999988
 20
-185.00000800000001
 30
0.0
 40
6.0
  0
LINE
  5
344
  8
SIZE
  6
CONTINUOUS
 62
    30
 10
402.48840599999988
 20
-185.00000800000001
 30
0.0
 11
402.48840599999988
 21
-197.00000800000001
 31
0.0
  0
POINT
  5
345
  8
DEFPOINTS
  6
CONTINUOUS
 62
    30
 10
152.00000399999999
 20
-175.00000800000001
 30
0.0
  0
POINT
  5
346
  8
DEFPOINTS
  6
CONTINUOUS
 62
    30
 10
142.00000399999979
 20
-185.00000800000001
 30
0.0
  0
POINT
  5
347
  8
DEFPOINTS
  6
CONTINUOUS
 62
    30
 10
402.48840599999988
 20
-185.00000800000001
 30
0.0
  0
LINE
  5
348
  8
OUTLINE
  6
CONTINUOUS
 62
     3
 10
-172.099996
 20
-117.00000799999989
 30
0.0
 11
-172.099996
 21
-127.00000799999989
 31
0.0
  0
LINE
  5
349
  8
OUTLINE
  6
CONTINUOUS
 62
     3
 10
172.10000400000001
 20
-117.00000799999989
 30
0.0
 11
172.10000400000001
 21
-127.00000799999989
 31
0.0
  0
TEXT
  5
34A
  8
ETC
  6
CONTINUOUS
 62
    61
 10
417.16785430912
 20
266.03771630155012
 30
0.0
 40
50.0
  1
EX-25EMP5
 41
0.9
  0
TEXT
  5
34B
  8
ETC
  6
CONTINUOUS
 62
    61
 10
317.77144258943702
 20
475.55684783207039
 30
0.0
 40
64.0
  1
EX-25EMP5_2
 41
0.9
  0
TEXT
  5
34C
  8
ETC
  6
CONTINUOUS
 62
    61
 10
309.69796458943688
 20
377.53812183207032
 30
0.0
 40
64.0
  1
換気扇
 41
0.9
  0
ENDSEC
  0
EOF
