  0
SECTION
  2
HEADER
  9
$ACADVER
  1
AC1009
  9
$INSBASE
 10
0.0
 20
0.0
 30
0.0
  9
$EXTMIN
 10
-467.74434299999979
 20
-367.29462699999999
 30
0.0
  9
$EXTMAX
 10
1013.648832464729
 20
622.44767164175732
 30
50.0
  9
$LIMMIN
 10
-2970.0
 20
-2100.0
  9
$LIMMAX
 10
2970.0
 20
2100.0
  9
$ORTHOMODE
 70
     0
  9
$REGENMODE
 70
     0
  9
$FILLMODE
 70
     1
  9
$QTEXTMODE
 70
     0
  9
$MIRRTEXT
 70
     0
  9
$DRAGMODE
 70
     2
  9
$LTSCALE
 40
20.0
  9
$OSMODE
 70
    41
  9
$ATTMODE
 70
     1
  9
$TEXTSIZE
 40
64.0
  9
$TRACEWID
 40
0.05
  9
$TEXTSTYLE
  7
STANDARD
  9
$CLAYER
  8
SIZE
  9
$CELTYPE
  6
CONTINUOUS
  9
$CECOLOR
 62
     8
  9
$DIMSCALE
 40
1.0
  9
$DIMASZ
 40
12.0
  9
$DIMEXO
 40
20.0
  9
$DIMDLI
 40
200.0
  9
$DIMRND
 40
0.0
  9
$DIMDLE
 40
0.0
  9
$DIMEXE
 40
20.0
  9
$DIMTP
 40
0.0
  9
$DIMTM
 40
0.0
  9
$DIMTXT
 40
64.0
  9
$DIMCEN
 40
0.09
  9
$DIMTSZ
 40
0.0
  9
$DIMTOL
 70
     0
  9
$DIMLIM
 70
     0
  9
$DIMTIH
 70
     0
  9
$DIMTOH
 70
     0
  9
$DIMSE1
 70
     0
  9
$DIMSE2
 70
     0
  9
$DIMTAD
 70
     1
  9
$DIMZIN
 70
     8
  9
$DIMBLK
  1
DOT1
  9
$DIMASO
 70
     1
  9
$DIMSHO
 70
     0
  9
$DIMPOST
  1

  9
$DIMAPOST
  1

  9
$DIMALT
 70
     0
  9
$DIMALTD
 70
     2
  9
$DIMALTF
 40
25.399999999999999
  9
$DIMLFAC
 40
1.0
  9
$DIMTOFL
 70
     1
  9
$DIMTVP
 40
0.0
  9
$DIMTIX
 70
     1
  9
$DIMSOXD
 70
     0
  9
$DIMSAH
 70
     1
  9
$DIMBLK1
  1
ORIGIN
  9
$DIMBLK2
  1
ORIGIN
  9
$DIMSTYLE
  2
STANDARD
  9
$DIMCLRD
 70
     0
  9
$DIMCLRE
 70
     0
  9
$DIMCLRT
 70
     0
  9
$DIMTFAC
 40
1.0
  9
$DIMGAP
 40
0.09
  9
$LUNITS
 70
     2
  9
$LUPREC
 70
     4
  9
$SKETCHINC
 40
0.1
  9
$FILLETRAD
 40
15.0
  9
$AUNITS
 70
     1
  9
$AUPREC
 70
     3
  9
$MENU
  1
ACAD
  9
$ELEVATION
 40
0.0
  9
$PELEVATION
 40
0.0
  9
$THICKNESS
 40
50.0
  9
$LIMCHECK
 70
     0
  9
$BLIPMODE
 70
     0
  9
$CHAMFERA
 40
0.0
  9
$CHAMFERB
 40
0.0
  9
$SKPOLY
 70
     0
  9
$TDCREATE
 40
2451453.4938508091
  9
$TDUPDATE
 40
2453462.8396459022
  9
$TDINDWG
 40
0.7843147801
  9
$TDUSRTIMER
 40
0.7843147801
  9
$USRTIMER
 70
     1
  9
$ANGBASE
 50
0.0
  9
$ANGDIR
 70
     0
  9
$PDMODE
 70
     3
  9
$PDSIZE
 40
-2.0
  9
$PLINEWID
 40
0.0
  9
$COORDS
 70
     2
  9
$SPLFRAME
 70
     0
  9
$SPLINETYPE
 70
     6
  9
$SPLINESEGS
 70
     8
  9
$ATTDIA
 70
     0
  9
$ATTREQ
 70
     1
  9
$HANDLING
 70
 22529
  9
$HANDSEED
  5
2B4
  9
$SURFTAB1
 70
     6
  9
$SURFTAB2
 70
     6
  9
$SURFTYPE
 70
     6
  9
$SURFU
 70
     6
  9
$SURFV
 70
     6
  9
$UCSNAME
  2

  9
$UCSORG
 10
0.0
 20
0.0
 30
0.0
  9
$UCSXDIR
 10
1.0
 20
0.0
 30
0.0
  9
$UCSYDIR
 10
0.0
 20
1.0
 30
0.0
  9
$PUCSNAME
  2

  9
$PUCSORG
 10
0.0
 20
0.0
 30
0.0
  9
$PUCSXDIR
 10
1.0
 20
0.0
 30
0.0
  9
$PUCSYDIR
 10
0.0
 20
1.0
 30
0.0
  9
$USERI1
 70
     0
  9
$USERI2
 70
     0
  9
$USERI3
 70
     0
  9
$USERI4
 70
     0
  9
$USERI5
 70
     0
  9
$USERR1
 40
20.0
  9
$USERR2
 40
0.0
  9
$USERR3
 40
0.0
  9
$USERR4
 40
0.0
  9
$USERR5
 40
0.0
  9
$WORLDVIEW
 70
     1
  9
$SHADEDGE
 70
     3
  9
$SHADEDIF
 70
    70
  9
$TILEMODE
 70
     1
  9
$MAXACTVP
 70
    64
  9
$PLIMCHECK
 70
     0
  9
$PEXTMIN
 10
1.0000000000000000E+020
 20
1.0000000000000000E+020
 30
1.0000000000000000E+020
  9
$PEXTMAX
 10
-1.0000000000000000E+020
 20
-1.0000000000000000E+020
 30
-1.0000000000000000E+020
  9
$PLIMMIN
 10
0.0
 20
0.0
  9
$PLIMMAX
 10
12.0
 20
9.0
  9
$UNITMODE
 70
     0
  9
$VISRETAIN
 70
     1
  9
$PLINEGEN
 70
     0
  9
$PSLTSCALE
 70
     1
  0
ENDSEC
  0
SECTION
  2
TABLES
  0
TABLE
  2
VPORT
 70
     3
  0
VPORT
  2
*ACTIVE
 70
     0
 10
0.0
 20
0.0
 11
1.0
 21
1.0
 12
207.2390436949002
 22
93.997917663277462
 13
0.0
 23
0.0
 14
1.0
 24
1.0
 15
0.0
 25
0.0
 16
0.0
 26
0.0
 36
1.0
 17
0.0
 27
0.0
 37
0.0
 40
1287.2734373425619
 41
1.4423558897243101
 42
50.0
 43
0.0
 44
0.0
 50
0.0
 51
0.0
 71
     0
 72
   100
 73
     1
 74
     0
 75
     0
 76
     0
 77
     0
 78
     0
  0
ENDTAB
  0
TABLE
  2
LTYPE
 70
     2
  0
LTYPE
  2
CONTINUOUS
 70
     0
  3
実線
 72
    65
 73
     0
 40
0.0
  0
LTYPE
  2
DASHDOT
 70
     0
  3
____ _ ____ _ ____ _ ____ _ ____ _ ____ _ ____
 72
    65
 73
     4
 40
5.5
 49
4.0
 49
-0.6
 49
0.3
 49
-0.6
  0
ENDTAB
  0
TABLE
  2
LAYER
 70
    12
  0
LAYER
  2
0
 70
     0
 62
     7
  6
CONTINUOUS
  0
LAYER
  2
SIZE
 70
     0
 62
    30
  6
CONTINUOUS
  0
LAYER
  2
BASIS
 70
     0
 62
     6
  6
DASHDOT
  0
LAYER
  2
OUTLINE
 70
     0
 62
     3
  6
CONTINUOUS
  0
LAYER
  2
DETAIL
 70
     0
 62
     5
  6
CONTINUOUS
  0
LAYER
  2
ARRANGE
 70
     0
 62
     1
  6
CONTINUOUS
  0
LAYER
  2
DEFPOINTS
 70
     0
 62
     7
  6
CONTINUOUS
  0
LAYER
  2
ETC
 70
     0
 62
    61
  6
CONTINUOUS
  0
LAYER
  2
FIX
 70
     0
 62
    11
  6
CONTINUOUS
  0
LAYER
  2
NOTE
 70
     0
 62
     4
  6
CONTINUOUS
  0
LAYER
  2
SERVICESPACE
 70
     0
 62
     2
  6
DASHDOT
  0
LAYER
  2
SYMBOLLINE
 70
     0
 62
    15
  6
CONTINUOUS
  0
ENDTAB
  0
TABLE
  2
STYLE
 70
     1
  0
STYLE
  2
STANDARD
 70
     0
 40
64.0
 41
0.9
 50
0.0
 71
     0
 42
64.0
  3
SIMPLEX.shx
  4
BIGFONT.shx
  0
ENDTAB
  0
TABLE
  2
VIEW
 70
     1
  0
VIEW
  2
ALL
 70
     0
 40
4282.6198079999976
 10
0.0
 20
41.309903999999989
 41
5940.0
 11
0.0
 21
0.0
 31
1.0
 12
0.0
 22
0.0
 32
0.0
 42
50.0
 43
0.0
 44
0.0
 50
0.0
 71
     0
  0
ENDTAB
  0
TABLE
  2
UCS
 70
     0
  0
ENDTAB
  0
TABLE
  2
APPID
 70
     1
  0
APPID
  2
ACAD
 70
     0
  0
ENDTAB
  0
TABLE
  2
DIMSTYLE
 70
     1
  0
DIMSTYLE
  2
STANDARD
 70
     0
  3

  4

  5

  6

  7

 40
1.0
 41
0.18
 42
0.0625
 43
0.38
 44
0.18
 45
0.0
 46
0.0
 47
0.0
 48
0.0
140
0.18
141
0.09
142
0.0
143
25.399999999999999
144
1.0
145
0.0
146
1.0
147
0.09
 71
     0
 72
     0
 73
     1
 74
     1
 75
     0
 76
     0
 77
     0
 78
     0
170
     0
171
     2
172
     0
173
     0
174
     0
175
     0
176
     0
177
     0
178
     0
  0
ENDTAB
  0
ENDSEC
  0
SECTION
  2
BLOCKS
  0
BLOCK
  8
0
  2
$MODEL_SPACE
 70
     0
 10
0.0
 20
0.0
 30
0.0
  3
$MODEL_SPACE
  1

  0
ENDBLK
  5
17B
  8
0
  0
BLOCK
 67
     1
  8
0
  2
$PAPER_SPACE
 70
     0
 10
0.0
 20
0.0
 30
0.0
  3
$PAPER_SPACE
  1

  0
ENDBLK
  5
177
 67
     1
  8
0
  0
BLOCK
  8
0
  2
DOT1
 70
     0
 10
0.0
 20
0.0
 30
0.0
  3
DOT1
  1

  0
CIRCLE
  5
196
  8
SIZE
  6
CONTINUOUS
 62
     7
 10
0.0
 20
0.0
 30
0.0
 40
3.0
  0
ENDBLK
  5
197
  8
0
  0
BLOCK
  8
0
  2
_ORIGIN
 70
     0
 10
0.0
 20
0.0
 30
0.0
  3
_ORIGIN
  1

  0
CIRCLE
  5
19A
  8
0
  6
CONTINUOUS
 62
     7
 10
0.0
 20
0.0
 30
0.0
 40
0.5
  0
LINE
  5
19B
  8
0
  6
CONTINUOUS
 62
     7
 10
0.0
 20
0.0
 30
0.0
 11
-1.0
 21
0.0
 31
0.0
  0
ENDBLK
  5
19C
  8
0
  0
ENDSEC
  0
SECTION
  2
ENTITIES
  0
LINE
  5
19D
  8
BASIS
  6
DASHDOT
 62
     6
 10
-129.42241000000001
 20
0.0
 30
0.0
 11
178.75115099999991
 21
0.0
 31
0.0
  0
POINT
  5
19E
  8
ARRANGE
  6
CONTINUOUS
 62
     1
 10
0.0
 20
0.0
 30
0.0
 39
50.0
  0
CIRCLE
  5
19F
  8
ARRANGE
  6
CONTINUOUS
 62
     1
 39
50.0
 10
0.0
 20
0.0
 30
0.0
 40
40.0
  0
LINE
  5
1A0
  8
DETAIL
  6
CONTINUOUS
 62
     5
 10
120.0
 20
145.0
 30
0.0
 11
0.0
 21
145.0
 31
0.0
  0
LINE
  5
1A1
  8
DETAIL
  6
CONTINUOUS
 62
     5
 10
96.5
 20
131.4999999999998
 30
0.0
 11
96.5
 21
0.0
 31
0.0
  0
LINE
  5
1A2
  8
DETAIL
  6
CONTINUOUS
 62
     5
 10
114.5
 20
131.4999999999998
 30
0.0
 11
114.5
 21
0.0
 31
0.0
  0
LINE
  5
1A3
  8
DETAIL
  6
CONTINUOUS
 62
     5
 10
99.500000000000014
 20
134.4999999999998
 30
0.0
 11
111.4999999999999
 21
134.4999999999998
 31
0.0
  0
ARC
  5
1A4
  8
DETAIL
  6
CONTINUOUS
 62
     5
 10
111.4999999999999
 20
131.4999999999998
 30
0.0
 40
3.0
 50
0.0
 51
90.0
  0
ARC
  5
1A5
  8
DETAIL
  6
CONTINUOUS
 62
     5
 10
99.500000000000014
 20
131.4999999999998
 30
0.0
 40
3.0
 50
90.0
 51
180.0
  0
LINE
  5
1A6
  8
DETAIL
  6
CONTINUOUS
 62
     5
 10
120.0
 20
145.0
 30
0.0
 11
120.0
 21
-145.0
 31
0.0
  0
ARC
  5
1A7
  8
DETAIL
  6
CONTINUOUS
 62
     5
 10
111.4999999999999
 20
-131.4999999999998
 30
0.0
 40
3.0
 50
270.0
 51
0.0
  0
LINE
  5
1A8
  8
DETAIL
  6
CONTINUOUS
 62
     5
 10
99.500000000000014
 20
-134.4999999999998
 30
0.0
 11
111.4999999999999
 21
-134.4999999999998
 31
0.0
  0
ARC
  5
1A9
  8
DETAIL
  6
CONTINUOUS
 62
     5
 10
99.500000000000014
 20
-131.4999999999998
 30
0.0
 40
3.0
 50
180.0
 51
270.0
  0
LINE
  5
1AA
  8
DETAIL
  6
CONTINUOUS
 62
     5
 10
114.5
 20
-131.4999999999998
 30
0.0
 11
114.5
 21
0.0
 31
0.0
  0
LINE
  5
1AB
  8
DETAIL
  6
CONTINUOUS
 62
     5
 10
96.5
 20
-131.4999999999998
 30
0.0
 11
96.5
 21
0.0
 31
0.0
  0
LINE
  5
1AC
  8
DETAIL
  6
CONTINUOUS
 62
     5
 10
120.0
 20
-145.0
 30
0.0
 11
0.0
 21
-145.0
 31
0.0
  0
CIRCLE
  5
1AD
  8
FIX
  6
CONTINUOUS
 62
    11
 39
50.0
 10
0.0
 20
157.5
 30
0.0
 40
2.5
  0
LINE
  5
1AE
  8
NOTE
  6
CONTINUOUS
 62
     4
 10
0.0
 20
177.5
 30
0.0
 11
0.0
 21
137.5
 31
0.0
  0
LINE
  5
1AF
  8
NOTE
  6
CONTINUOUS
 62
     4
 10
-20.0
 20
157.5
 30
0.0
 11
20.0
 21
157.5
 31
0.0
  0
CIRCLE
  5
1B0
  8
FIX
  6
CONTINUOUS
 62
    11
 39
50.0
 10
0.0
 20
-157.5
 30
0.0
 40
2.5
  0
LINE
  5
1B1
  8
NOTE
  6
CONTINUOUS
 62
     4
 10
0.0
 20
-137.5
 30
0.0
 11
0.0
 21
-177.5
 31
0.0
  0
LINE
  5
1B2
  8
NOTE
  6
CONTINUOUS
 62
     4
 10
-20.0
 20
-157.5
 30
0.0
 11
20.0
 21
-157.5
 31
0.0
  0
LINE
  5
1B3
  8
SIZE
  6
CONTINUOUS
 62
    30
 10
140.0
 20
145.0
 30
0.0
 11
322.07016599999992
 21
145.0
 31
0.0
  0
LINE
  5
1B4
  8
SIZE
  6
CONTINUOUS
 62
    30
 10
140.0
 20
-145.0
 30
0.0
 11
322.07016599999992
 21
-145.0
 31
0.0
  0
LINE
  5
1B5
  8
SIZE
  6
CONTINUOUS
 62
    30
 10
302.07016599999992
 20
133.0
 30
0.0
 11
302.07016599999992
 21
-133.0
 31
0.0
  0
CIRCLE
  5
1B6
  8
SIZE
  6
CONTINUOUS
 62
    30
 10
302.07016599999992
 20
145.0
 30
0.0
 40
6.0
  0
LINE
  5
1B7
  8
SIZE
  6
CONTINUOUS
 62
    30
 10
302.07016599999992
 20
145.0
 30
0.0
 11
302.07016599999992
 21
133.0
 31
0.0
  0
CIRCLE
  5
1B8
  8
SIZE
  6
CONTINUOUS
 62
    30
 10
302.07016599999992
 20
-145.0
 30
0.0
 40
6.0
  0
LINE
  5
1B9
  8
SIZE
  6
CONTINUOUS
 62
    30
 10
302.07016599999992
 20
-145.0
 30
0.0
 11
302.07016599999992
 21
-133.0
 31
0.0
  0
TEXT
  5
1BA
  8
SIZE
  6
CONTINUOUS
 62
    30
 10
277.07016599999992
 20
-110.5371428571428
 30
0.0
 40
64.0
  1
□290
 50
90.0
 41
0.9
 72
     1
 11
277.07016599999992
 21
0.0
 31
0.0
  0
POINT
  5
1BB
  8
DEFPOINTS
  6
CONTINUOUS
 62
    30
 10
120.0
 20
145.0
 30
0.0
  0
POINT
  5
1BC
  8
DEFPOINTS
  6
CONTINUOUS
 62
    30
 10
120.0
 20
-145.0
 30
0.0
  0
POINT
  5
1BD
  8
DEFPOINTS
  6
CONTINUOUS
 62
    30
 10
302.07016599999992
 20
-145.0
 30
0.0
  0
LINE
  5
1BE
  8
SIZE
  6
CONTINUOUS
 62
    30
 10
40.0
 20
157.5
 30
0.0
 11
439.35356399999989
 21
157.5
 31
0.0
  0
LINE
  5
1BF
  8
SIZE
  6
CONTINUOUS
 62
    30
 10
40.0
 20
-157.5
 30
0.0
 11
439.35356399999989
 21
-157.5
 31
0.0
  0
LINE
  5
1C0
  8
SIZE
  6
CONTINUOUS
 62
    30
 10
419.35356400000001
 20
145.5
 30
0.0
 11
419.35356400000001
 21
-145.5
 31
0.0
  0
CIRCLE
  5
1C1
  8
SIZE
  6
CONTINUOUS
 62
    30
 10
419.35356400000001
 20
157.5
 30
0.0
 40
6.0
  0
LINE
  5
1C2
  8
SIZE
  6
CONTINUOUS
 62
    30
 10
419.35356400000001
 20
157.5
 30
0.0
 11
419.35356400000001
 21
145.5
 31
0.0
  0
CIRCLE
  5
1C3
  8
SIZE
  6
CONTINUOUS
 62
    30
 10
419.35356400000001
 20
-157.5
 30
0.0
 40
6.0
  0
LINE
  5
1C4
  8
SIZE
  6
CONTINUOUS
 62
    30
 10
419.35356400000001
 20
-157.5
 30
0.0
 11
419.35356400000001
 21
-145.5
 31
0.0
  0
TEXT
  5
1C5
  8
SIZE
  6
CONTINUOUS
 62
    30
 10
394.35356400000001
 20
-68.571428571428569
 30
0.0
 40
64.0
  1
315
 50
90.0
 41
0.9
 72
     1
 11
394.35356400000001
 21
0.0
 31
0.0
  0
POINT
  5
1C6
  8
DEFPOINTS
  6
CONTINUOUS
 62
    30
 10
20.0
 20
157.5
 30
0.0
  0
POINT
  5
1C7
  8
DEFPOINTS
  6
CONTINUOUS
 62
    30
 10
20.0
 20
-157.5
 30
0.0
  0
POINT
  5
1C8
  8
DEFPOINTS
  6
CONTINUOUS
 62
    30
 10
419.35356400000001
 20
-157.5
 30
0.0
  0
LINE
  5
1C9
  8
SIZE
  6
CONTINUOUS
 62
    30
 10
0.0
 20
193.0
 30
0.0
 11
0.0
 21
408.55883899999992
 31
0.0
  0
LINE
  5
1CA
  8
SIZE
  6
CONTINUOUS
 62
    30
 10
120.0
 20
165.0
 30
0.0
 11
120.0
 21
408.55883899999992
 31
0.0
  0
LINE
  5
1CB
  8
SIZE
  6
CONTINUOUS
 62
    30
 10
-12.0
 20
388.55883899999992
 30
0.0
 11
-24.0
 21
388.55883899999992
 31
0.0
  0
LINE
  5
1CD
  8
SIZE
  6
CONTINUOUS
 62
    30
 10
0.0
 20
388.55883899999992
 30
0.0
 11
120.0
 21
388.55883899999992
 31
0.0
  0
CIRCLE
  5
1CE
  8
SIZE
  6
CONTINUOUS
 62
    30
 10
0.0
 20
388.55883899999992
 30
0.0
 40
6.0
  0
LINE
  5
1CF
  8
SIZE
  6
CONTINUOUS
 62
    30
 10
0.0
 20
388.55883899999992
 30
0.0
 11
-12.0
 21
388.55883899999992
 31
0.0
  0
CIRCLE
  5
1D0
  8
SIZE
  6
CONTINUOUS
 62
    30
 10
120.0
 20
388.55883899999992
 30
0.0
 40
6.0
  0
TEXT
  5
1D2
  8
SIZE
  6
CONTINUOUS
 62
    30
 10
-8.5714285714285694
 20
413.55883899999992
 30
0.0
 40
64.0
  1
120
 41
0.9
 72
     1
 11
60.0
 21
413.55883899999992
 31
0.0
  0
POINT
  5
1D3
  8
DEFPOINTS
  6
CONTINUOUS
 62
    30
 10
0.0
 20
173.0
 30
0.0
  0
POINT
  5
1D4
  8
DEFPOINTS
  6
CONTINUOUS
 62
    30
 10
120.0
 20
145.0
 30
0.0
  0
POINT
  5
1D5
  8
DEFPOINTS
  6
CONTINUOUS
 62
    30
 10
120.0
 20
388.55883899999992
 30
0.0
  0
LINE
  5
1D6
  8
NOTE
  6
CONTINUOUS
 62
     4
 39
50.0
 10
0.0
 20
-157.5
 30
0.0
 11
-205.7808909999998
 21
-320.95467599999978
 31
0.0
  0
LINE
  5
1D7
  8
NOTE
  6
CONTINUOUS
 62
     4
 39
50.0
 10
-205.7808909999998
 20
-320.95467599999978
 30
0.0
 11
-467.74434299999979
 21
-320.95467599999978
 31
0.0
  0
TEXT
  5
1D8
  8
NOTE
  6
CONTINUOUS
 62
     4
 10
-456.92677699999979
 20
-297.767878
 30
0.0
 40
64.0
  1
4-φ5
 41
0.9
  0
LINE
  5
1D9
  8
NOTE
  6
CONTINUOUS
 62
     4
 10
-36.387816000000001
 20
-174.1110459999999
 30
0.0
 11
0.0
 21
-157.5
 31
0.0
  0
LINE
  5
1DA
  8
NOTE
  6
CONTINUOUS
 62
     4
 10
0.0
 20
-157.5
 30
0.0
 11
-23.207249999999991
 21
-190.07949599999981
 31
0.0
  0
LINE
  5
1DB
  8
OUTLINE
  6
CONTINUOUS
 62
     3
 10
120.0
 20
-145.0
 30
0.0
 11
0.0
 21
-145.0
 31
0.0
  0
LINE
  5
1DC
  8
OUTLINE
  6
CONTINUOUS
 62
     3
 10
120.0
 20
145.0
 30
0.0
 11
0.0
 21
145.0
 31
0.0
  0
LINE
  5
1DD
  8
OUTLINE
  6
CONTINUOUS
 62
     3
 10
120.0
 20
145.0
 30
0.0
 11
120.0
 21
-145.0
 31
0.0
  0
LINE
  5
1DE
  8
DETAIL
  6
CONTINUOUS
 62
     5
 10
0.0
 20
-143.0
 30
0.0
 11
0.0
 21
143.0
 31
0.0
  0
LINE
  5
1DF
  8
DETAIL
  6
CONTINUOUS
 62
     5
 10
0.0
 20
-117.0
 30
0.0
 11
0.0
 21
117.0
 31
0.0
  0
LINE
  5
1E0
  8
DETAIL
  6
CONTINUOUS
 62
     5
 10
-30.0
 20
-167.09999999999999
 30
0.0
 11
-30.0
 21
167.09999999999999
 31
0.0
  0
LINE
  5
1E1
  8
DETAIL
  6
CONTINUOUS
 62
     5
 10
-0.6
 20
-117.0
 30
0.0
 11
-0.6
 21
117.0
 31
0.0
  0
LINE
  5
1E2
  8
DETAIL
  6
CONTINUOUS
 62
     5
 10
-2.6000000000000001
 20
-172.6999999999999
 30
0.0
 11
-2.6000000000000001
 21
-172.09999999999999
 31
0.0
  0
ARC
  5
1E3
  8
DETAIL
  6
CONTINUOUS
 62
     5
 10
-3.6000000000000001
 20
-174.6999999999999
 30
0.0
 40
2.0
 50
90.0
 51
180.0
  0
LINE
  5
1E4
  8
DETAIL
  6
CONTINUOUS
 62
     5
 10
-0.6
 20
-175.0
 30
0.0
 11
0.0
 21
-175.0
 31
0.0
  0
LINE
  5
1E5
  8
DETAIL
  6
CONTINUOUS
 62
     5
 10
0.0
 20
-175.0
 30
0.0
 11
0.0
 21
-140.4300429999999
 31
0.0
  0
LINE
  5
1E6
  8
DETAIL
  6
CONTINUOUS
 62
     5
 10
-0.6
 20
-174.09999999999991
 30
0.0
 11
-0.6
 21
-175.0
 31
0.0
  0
LINE
  5
1E7
  8
DETAIL
  6
CONTINUOUS
 62
     5
 10
0.0
 20
-140.4300429999999
 30
0.0
 11
0.0
 21
-127.0
 31
0.0
  0
ARC
  5
1E8
  8
DETAIL
  6
CONTINUOUS
 62
     5
 10
-2.6000000000000001
 20
-174.09999999999991
 30
0.0
 40
2.0
 50
0.0
 51
90.0
  0
LINE
  5
1E9
  8
DETAIL
  6
CONTINUOUS
 62
     5
 10
-0.6
 20
-175.0
 30
0.0
 11
-0.6
 21
-127.0
 31
0.0
  0
LINE
  5
1EA
  8
DETAIL
  6
CONTINUOUS
 62
     5
 10
-5.5999999999999979
 20
-174.6999999999999
 30
0.0
 11
-5.5999999999999979
 21
-180.0
 31
0.0
  0
LINE
  5
1EB
  8
DETAIL
  6
CONTINUOUS
 62
     5
 10
-30.0
 20
-172.09999999999999
 30
0.0
 11
-30.0
 21
-172.6999999999999
 31
0.0
  0
LINE
  5
1EC
  8
DETAIL
  6
CONTINUOUS
 62
     5
 10
-35.0
 20
-175.09999999999991
 30
0.0
 11
-30.0
 21
-172.09999999999999
 31
0.0
  0
ARC
  5
1ED
  8
DETAIL
  6
CONTINUOUS
 62
     5
 10
-16.600000000000001
 20
-174.6999999999999
 30
0.0
 40
2.0
 50
90.0
 51
180.0
  0
LINE
  5
1EE
  8
DETAIL
  6
CONTINUOUS
 62
     5
 10
-15.6
 20
-172.09999999999999
 30
0.0
 11
-15.6
 21
-172.6999999999999
 31
0.0
  0
LINE
  5
1EF
  8
DETAIL
  6
CONTINUOUS
 62
     5
 10
-20.5
 20
-172.09999999999999
 30
0.0
 11
-30.0
 21
-172.09999999999999
 31
0.0
  0
ARC
  5
1F0
  8
DETAIL
  6
CONTINUOUS
 62
     5
 10
-25.0
 20
-167.09999999999999
 30
0.0
 40
5.0
 50
180.0
 51
270.0
  0
ARC
  5
1F1
  8
DETAIL
  6
CONTINUOUS
 62
     5
 10
-8.0
 20
-125.0
 30
0.0
 40
2.0
 50
180.0
 51
270.0
  0
LINE
  5
1F2
  8
DETAIL
  6
CONTINUOUS
 62
     5
 10
-10.0
 20
-125.0
 30
0.0
 11
-10.0
 21
-119.0
 31
0.0
  0
ARC
  5
1F3
  8
DETAIL
  6
CONTINUOUS
 62
     5
 10
-8.0
 20
-119.0
 30
0.0
 40
2.0
 50
90.0
 51
180.0
  0
LINE
  5
1F4
  8
DETAIL
  6
CONTINUOUS
 62
     5
 10
-26.000014999999991
 20
-185.0
 30
0.0
 11
-26.000014999999991
 21
-185.09999999999991
 31
0.0
  0
LINE
  5
1F5
  8
DETAIL
  6
CONTINUOUS
 62
     5
 10
-14.000014999999999
 20
-185.0
 30
0.0
 11
-14.000014999999999
 21
-185.09999999999991
 31
0.0
  0
LINE
  5
1F6
  8
DETAIL
  6
CONTINUOUS
 62
     5
 10
-26.000014999999991
 20
-185.0
 30
0.0
 11
-26.000014999999991
 21
-187.8851029999999
 31
0.0
  0
LINE
  5
1F7
  8
DETAIL
  6
CONTINUOUS
 62
     5
 10
-26.000014999999991
 20
-188.1999919999999
 30
0.0
 11
-14.000014999999999
 21
-188.1999919999999
 31
0.0
  0
ARC
  5
1F8
  8
DETAIL
  6
CONTINUOUS
 62
     5
 10
-20.000014999999991
 20
-176.0428489999999
 30
0.0
 40
13.557143
 50
245.0880249999999
 51
294.91197499999993
  0
ARC
  5
1F9
  8
DETAIL
  6
CONTINUOUS
 62
     5
 10
-25.500015000000001
 20
-187.8851029999999
 30
0.0
 40
0.5
 50
180.0
 51
245.0880249999999
  0
LINE
  5
1FA
  8
DETAIL
  6
CONTINUOUS
 62
     5
 10
-14.000014999999999
 20
-185.0
 30
0.0
 11
-14.000014999999999
 21
-187.8851029999999
 31
0.0
  0
ARC
  5
1FB
  8
DETAIL
  6
CONTINUOUS
 62
     5
 10
-14.500014999999991
 20
-187.8851029999999
 30
0.0
 40
0.5
 50
294.91197499999993
 51
0.0
  0
LINE
  5
1FC
  8
DETAIL
  6
CONTINUOUS
 62
     5
 10
-10.6
 20
-185.0
 30
0.0
 11
-30.0
 21
-185.0
 31
0.0
  0
ARC
  5
1FD
  8
DETAIL
  6
CONTINUOUS
 62
     5
 10
-30.0
 20
-180.0
 30
0.0
 40
5.0
 50
180.0
 51
270.0
  0
ARC
  5
1FE
  8
DETAIL
  6
CONTINUOUS
 62
     5
 10
-23.600000000000001
 20
-180.0
 30
0.0
 40
5.0
 50
270.0
 51
0.0
  0
LINE
  5
1FF
  8
DETAIL
  6
CONTINUOUS
 62
     5
 10
-35.0
 20
-175.09999999999991
 30
0.0
 11
-35.0
 21
-180.0
 31
0.0
  0
LINE
  5
200
  8
DETAIL
  6
CONTINUOUS
 62
     5
 10
-18.600000000000001
 20
-174.6999999999999
 30
0.0
 11
-18.600000000000001
 21
-180.0
 31
0.0
  0
LINE
  5
201
  8
DETAIL
  6
CONTINUOUS
 62
     5
 10
-2.6000000000000001
 20
-172.6999999999999
 30
0.0
 11
-30.0
 21
-172.6999999999999
 31
0.0
  0
ARC
  5
202
  8
DETAIL
  6
CONTINUOUS
 62
     5
 10
-10.6
 20
-180.0
 30
0.0
 40
5.0
 50
270.0
 51
0.0
  0
LINE
  5
203
  8
DETAIL
  6
CONTINUOUS
 62
     5
 10
-2.6000000000000001
 20
-172.09999999999999
 30
0.0
 11
-17.5
 21
-172.09999999999999
 31
0.0
  0
LINE
  5
204
  8
DETAIL
  6
CONTINUOUS
 62
     5
 10
0.0
 20
-127.0
 30
0.0
 11
-8.0
 21
-127.0
 31
0.0
  0
LINE
  5
205
  8
DETAIL
  6
CONTINUOUS
 62
     5
 10
0.0
 20
-117.0
 30
0.0
 11
-8.0
 21
-117.0
 31
0.0
  0
LINE
  5
206
  8
DETAIL
  6
CONTINUOUS
 62
     5
 10
-25.0
 20
-172.09999999999999
 30
0.0
 11
-2.6000000000000001
 21
-172.09999999999999
 31
0.0
  0
LINE
  5
207
  8
DETAIL
  6
CONTINUOUS
 62
     5
 10
0.0
 20
145.30000000000001
 30
0.0
 11
0.0
 21
165.1999999999999
 31
0.0
  0
LINE
  5
208
  8
DETAIL
  6
CONTINUOUS
 62
     5
 10
-0.6
 20
175.0
 30
0.0
 11
0.0
 21
175.0
 31
0.0
  0
LINE
  5
209
  8
DETAIL
  6
CONTINUOUS
 62
     5
 10
0.0
 20
140.4300429999999
 30
0.0
 11
0.0
 21
175.0
 31
0.0
  0
LINE
  5
20A
  8
DETAIL
  6
CONTINUOUS
 62
     5
 10
-0.6
 20
174.09999999999991
 30
0.0
 11
-0.6
 21
175.0
 31
0.0
  0
LINE
  5
20B
  8
DETAIL
  6
CONTINUOUS
 62
     5
 10
0.0
 20
127.0
 30
0.0
 11
0.0
 21
140.4300429999999
 31
0.0
  0
ARC
  5
20C
  8
DETAIL
  6
CONTINUOUS
 62
     5
 10
-2.6000000000000001
 20
174.09999999999991
 30
0.0
 40
2.0
 50
270.0
 51
0.0
  0
LINE
  5
20D
  8
DETAIL
  6
CONTINUOUS
 62
     5
 10
-0.6
 20
127.0
 30
0.0
 11
-0.6
 21
175.0
 31
0.0
  0
ARC
  5
20E
  8
DETAIL
  6
CONTINUOUS
 62
     5
 10
-25.0
 20
167.09999999999999
 30
0.0
 40
5.0
 50
90.0
 51
180.0
  0
ARC
  5
20F
  8
DETAIL
  6
CONTINUOUS
 62
     5
 10
-8.0
 20
125.0
 30
0.0
 40
2.0
 50
90.0
 51
180.0
  0
LINE
  5
210
  8
DETAIL
  6
CONTINUOUS
 62
     5
 10
-10.0
 20
125.0
 30
0.0
 11
-10.0
 21
119.0
 31
0.0
  0
ARC
  5
211
  8
DETAIL
  6
CONTINUOUS
 62
     5
 10
-8.0
 20
125.0
 30
0.0
 40
2.0
 50
90.0
 51
180.0
  0
LINE
  5
212
  8
DETAIL
  6
CONTINUOUS
 62
     5
 10
-10.0
 20
119.0
 30
0.0
 11
-10.0
 21
125.0
 31
0.0
  0
ARC
  5
213
  8
DETAIL
  6
CONTINUOUS
 62
     5
 10
-8.0
 20
119.0
 30
0.0
 40
2.0
 50
180.0
 51
270.0
  0
ARC
  5
214
  8
DETAIL
  6
CONTINUOUS
 62
     5
 10
-8.0
 20
119.0
 30
0.0
 40
2.0
 50
180.0
 51
270.0
  0
LINE
  5
215
  8
DETAIL
  6
CONTINUOUS
 62
     5
 10
0.0
 20
117.0
 30
0.0
 11
-8.0
 21
117.0
 31
0.0
  0
LINE
  5
216
  8
DETAIL
  6
CONTINUOUS
 62
     5
 10
0.0
 20
127.0
 30
0.0
 11
-8.0
 21
127.0
 31
0.0
  0
LINE
  5
217
  8
DETAIL
  6
CONTINUOUS
 62
     5
 10
-25.0
 20
172.09999999999999
 30
0.0
 11
-2.6000000000000001
 21
172.09999999999999
 31
0.0
  0
LINE
  5
218
  8
OUTLINE
  6
CONTINUOUS
 62
     3
 10
-30.0
 20
-167.09999999999999
 30
0.0
 11
-30.0
 21
167.09999999999999
 31
0.0
  0
LINE
  5
219
  8
OUTLINE
  6
CONTINUOUS
 62
     3
 10
0.0
 20
-117.0
 30
0.0
 11
0.0
 21
117.0
 31
0.0
  0
LINE
  5
21A
  8
OUTLINE
  6
CONTINUOUS
 62
     3
 10
0.0
 20
-143.0
 30
0.0
 11
0.0
 21
143.0
 31
0.0
  0
LINE
  5
21B
  8
OUTLINE
  6
CONTINUOUS
 62
     3
 10
-25.0
 20
-172.09999999999999
 30
0.0
 11
-2.6000000000000001
 21
-172.09999999999999
 31
0.0
  0
LINE
  5
21C
  8
OUTLINE
  6
CONTINUOUS
 62
     3
 10
-2.6000000000000001
 20
-172.09999999999999
 30
0.0
 11
-17.5
 21
-172.09999999999999
 31
0.0
  0
ARC
  5
21D
  8
OUTLINE
  6
CONTINUOUS
 62
     3
 10
-10.6
 20
-180.0
 30
0.0
 40
5.0
 50
270.0
 51
0.0
  0
LINE
  5
21E
  8
OUTLINE
  6
CONTINUOUS
 62
     3
 10
-2.6000000000000001
 20
-172.6999999999999
 30
0.0
 11
-3.6000000000000001
 21
-172.6999999999999
 31
0.0
  0
LINE
  5
21F
  8
OUTLINE
  6
CONTINUOUS
 62
     3
 10
-35.0
 20
-175.09999999999991
 30
0.0
 11
-35.0
 21
-180.0
 31
0.0
  0
ARC
  5
220
  8
OUTLINE
  6
CONTINUOUS
 62
     3
 10
-30.0
 20
-180.0
 30
0.0
 40
5.0
 50
180.0
 51
270.0
  0
LINE
  5
221
  8
OUTLINE
  6
CONTINUOUS
 62
     3
 10
-10.6
 20
-185.0
 30
0.0
 11
-30.0
 21
-185.0
 31
0.0
  0
ARC
  5
222
  8
OUTLINE
  6
CONTINUOUS
 62
     3
 10
-25.0
 20
-167.09999999999999
 30
0.0
 40
5.0
 50
180.0
 51
270.0
  0
LINE
  5
223
  8
OUTLINE
  6
CONTINUOUS
 62
     3
 10
-20.5
 20
-172.09999999999999
 30
0.0
 11
-30.0
 21
-172.09999999999999
 31
0.0
  0
LINE
  5
224
  8
OUTLINE
  6
CONTINUOUS
 62
     3
 10
-35.0
 20
-175.09999999999991
 30
0.0
 11
-30.0
 21
-172.09999999999999
 31
0.0
  0
LINE
  5
225
  8
OUTLINE
  6
CONTINUOUS
 62
     3
 10
-5.5999999999999979
 20
-174.6999999999999
 30
0.0
 11
-5.5999999999999979
 21
-180.0
 31
0.0
  0
LINE
  5
226
  8
OUTLINE
  6
CONTINUOUS
 62
     3
 10
-0.6
 20
-175.0
 30
0.0
 11
-0.6
 21
-174.09999999999991
 31
0.0
  0
ARC
  5
227
  8
OUTLINE
  6
CONTINUOUS
 62
     3
 10
-2.6000000000000001
 20
-174.09999999999991
 30
0.0
 40
2.0
 50
0.0
 51
90.0
  0
LINE
  5
228
  8
OUTLINE
  6
CONTINUOUS
 62
     3
 10
0.0
 20
-140.4300429999999
 30
0.0
 11
0.0
 21
-127.0
 31
0.0
  0
LINE
  5
229
  8
OUTLINE
  6
CONTINUOUS
 62
     3
 10
-0.6
 20
-174.09999999999991
 30
0.0
 11
-0.6
 21
-175.0
 31
0.0
  0
LINE
  5
22A
  8
OUTLINE
  6
CONTINUOUS
 62
     3
 10
0.0
 20
-175.0
 30
0.0
 11
0.0
 21
-140.4300429999999
 31
0.0
  0
LINE
  5
22B
  8
OUTLINE
  6
CONTINUOUS
 62
     3
 10
-0.6
 20
-175.0
 30
0.0
 11
0.0
 21
-175.0
 31
0.0
  0
ARC
  5
22C
  8
OUTLINE
  6
CONTINUOUS
 62
     3
 10
-3.6000000000000001
 20
-174.6999999999999
 30
0.0
 40
2.0
 50
90.0
 51
180.0
  0
LINE
  5
22D
  8
OUTLINE
  6
CONTINUOUS
 62
     3
 10
-2.6000000000000001
 20
-172.6999999999999
 30
0.0
 11
-2.6000000000000001
 21
-172.09999999999999
 31
0.0
  0
LINE
  5
22E
  8
OUTLINE
  6
CONTINUOUS
 62
     3
 10
-25.0
 20
172.09999999999999
 30
0.0
 11
-2.6000000000000001
 21
172.09999999999999
 31
0.0
  0
ARC
  5
22F
  8
OUTLINE
  6
CONTINUOUS
 62
     3
 10
-25.0
 20
167.09999999999999
 30
0.0
 40
5.0
 50
90.0
 51
180.0
  0
LINE
  5
230
  8
OUTLINE
  6
CONTINUOUS
 62
     3
 10
-0.6
 20
174.09999999999991
 30
0.0
 11
-0.6
 21
175.0
 31
0.0
  0
ARC
  5
231
  8
OUTLINE
  6
CONTINUOUS
 62
     3
 10
-2.6000000000000001
 20
174.09999999999991
 30
0.0
 40
2.0
 50
270.0
 51
0.0
  0
LINE
  5
232
  8
OUTLINE
  6
CONTINUOUS
 62
     3
 10
0.0
 20
127.0
 30
0.0
 11
0.0
 21
140.4300429999999
 31
0.0
  0
LINE
  5
233
  8
OUTLINE
  6
CONTINUOUS
 62
     3
 10
-0.6
 20
174.09999999999991
 30
0.0
 11
-0.6
 21
175.0
 31
0.0
  0
LINE
  5
234
  8
OUTLINE
  6
CONTINUOUS
 62
     3
 10
0.0
 20
140.4300429999999
 30
0.0
 11
0.0
 21
175.0
 31
0.0
  0
LINE
  5
235
  8
OUTLINE
  6
CONTINUOUS
 62
     3
 10
-0.6
 20
175.0
 30
0.0
 11
0.0
 21
175.0
 31
0.0
  0
LINE
  5
236
  8
OUTLINE
  6
CONTINUOUS
 62
     3
 10
0.0
 20
145.30000000000001
 30
0.0
 11
0.0
 21
165.1999999999999
 31
0.0
  0
LINE
  5
237
  8
SIZE
  6
CONTINUOUS
 62
    30
 10
0.0
 20
195.0
 30
0.0
 11
0.0
 21
408.55883899999992
 31
0.0
  0
LINE
  5
238
  8
SIZE
  6
CONTINUOUS
 62
    30
 10
-30.0
 20
187.09999999999999
 30
0.0
 11
-30.0
 21
408.55883899999992
 31
0.0
  0
LINE
  5
239
  8
SIZE
  6
CONTINUOUS
 62
    30
 10
12.0
 20
388.55883899999992
 30
0.0
 11
24.0
 21
388.55883899999992
 31
0.0
  0
LINE
  5
23A
  8
SIZE
  6
CONTINUOUS
 62
    30
 10
-42.0
 20
388.55883899999992
 30
0.0
 11
-54.0
 21
388.55883899999992
 31
0.0
  0
LINE
  5
23B
  8
SIZE
  6
CONTINUOUS
 62
    30
 10
-212.2690659999999
 20
388.55883899999992
 30
0.0
 11
-30.0
 21
388.55883899999992
 31
0.0
  0
TEXT
  5
23C
  8
SIZE
  6
CONTINUOUS
 62
    30
 10
-187.26906642857131
 20
413.55883899999992
 30
0.0
 40
64.0
  1
30
 41
0.9
 72
     1
 11
-140.6404949999999
 21
413.55883899999992
 31
0.0
  0
LINE
  5
23D
  8
SIZE
  6
CONTINUOUS
 62
    30
 10
0.0
 20
388.55883899999992
 30
0.0
 11
-30.0
 21
388.55883899999992
 31
0.0
  0
LINE
  5
23E
  8
SIZE
  6
CONTINUOUS
 62
    30
 10
0.0
 20
388.55883899999992
 30
0.0
 11
-30.0
 21
388.55883899999992
 31
0.0
  0
CIRCLE
  5
23F
  8
SIZE
  6
CONTINUOUS
 62
    30
 10
0.0
 20
388.55883899999992
 30
0.0
 40
6.0
  0
LINE
  5
240
  8
SIZE
  6
CONTINUOUS
 62
    30
 10
0.0
 20
388.55883899999992
 30
0.0
 11
12.0
 21
388.55883899999992
 31
0.0
  0
CIRCLE
  5
241
  8
SIZE
  6
CONTINUOUS
 62
    30
 10
-30.0
 20
388.55883899999992
 30
0.0
 40
6.0
  0
LINE
  5
242
  8
SIZE
  6
CONTINUOUS
 62
    30
 10
-30.0
 20
388.55883899999992
 30
0.0
 11
-42.0
 21
388.55883899999992
 31
0.0
  0
POINT
  5
243
  8
DEFPOINTS
  6
CONTINUOUS
 62
    30
 10
0.0
 20
175.0
 30
0.0
  0
POINT
  5
244
  8
DEFPOINTS
  6
CONTINUOUS
 62
    30
 10
-30.0
 20
167.09999999999999
 30
0.0
  0
POINT
  5
245
  8
DEFPOINTS
  6
CONTINUOUS
 62
    30
 10
-30.0
 20
388.55883899999992
 30
0.0
  0
LINE
  5
246
  8
SIZE
  6
CONTINUOUS
 62
    30
 10
20.0
 20
175.0
 30
0.0
 11
561.84751300000005
 21
175.0
 31
0.0
  0
LINE
  5
247
  8
SIZE
  6
CONTINUOUS
 62
    30
 10
20.0
 20
-175.0
 30
0.0
 11
561.84751300000005
 21
-175.0
 31
0.0
  0
LINE
  5
248
  8
SIZE
  6
CONTINUOUS
 62
    30
 10
541.84751300000005
 20
163.0
 30
0.0
 11
541.84751300000005
 21
-163.0
 31
0.0
  0
CIRCLE
  5
249
  8
SIZE
  6
CONTINUOUS
 62
    30
 10
541.84751300000005
 20
175.0
 30
0.0
 40
6.0
  0
LINE
  5
24A
  8
SIZE
  6
CONTINUOUS
 62
    30
 10
541.84751300000005
 20
175.0
 30
0.0
 11
541.84751300000005
 21
163.0
 31
0.0
  0
CIRCLE
  5
24B
  8
SIZE
  6
CONTINUOUS
 62
    30
 10
541.84751300000005
 20
-175.0
 30
0.0
 40
6.0
  0
LINE
  5
24C
  8
SIZE
  6
CONTINUOUS
 62
    30
 10
541.84751300000005
 20
-175.0
 30
0.0
 11
541.84751300000005
 21
-163.0
 31
0.0
  0
TEXT
  5
24D
  8
SIZE
  6
CONTINUOUS
 62
    30
 10
516.84751300000005
 20
-74.05714285714285
 30
0.0
 40
64.0
  1
350
 50
90.0
 41
0.9
 72
     1
 11
516.84751300000005
 21
0.0
 31
0.0
  0
POINT
  5
24E
  8
DEFPOINTS
  6
CONTINUOUS
 62
    30
 10
0.0
 20
175.0
 30
0.0
  0
POINT
  5
24F
  8
DEFPOINTS
  6
CONTINUOUS
 62
    30
 10
0.0
 20
-175.0
 30
0.0
  0
POINT
  5
250
  8
DEFPOINTS
  6
CONTINUOUS
 62
    30
 10
541.84751300000005
 20
-175.0
 30
0.0
  0
LINE
  5
251
  8
SIZE
  6
CONTINUOUS
 62
    30
 10
20.0
 20
-175.0
 30
0.0
 11
561.84751300000005
 21
-175.0
 31
0.0
  0
LINE
  5
252
  8
SIZE
  6
CONTINUOUS
 62
    30
 10
9.4000000000000004
 20
-185.0
 30
0.0
 11
561.84751300000005
 21
-185.0
 31
0.0
  0
LINE
  5
253
  8
SIZE
  6
CONTINUOUS
 62
    30
 10
541.84751300000005
 20
-163.0
 30
0.0
 11
541.84751300000005
 21
-151.0
 31
0.0
  0
LINE
  5
254
  8
SIZE
  6
CONTINUOUS
 62
    30
 10
541.84751300000005
 20
-197.0
 30
0.0
 11
541.84751300000005
 21
-209.0
 31
0.0
  0
LINE
  5
255
  8
SIZE
  6
CONTINUOUS
 62
    30
 10
541.84751300000005
 20
-345.96211799999992
 30
0.0
 11
541.84751300000005
 21
-185.0
 31
0.0
  0
TEXT
  5
256
  8
SIZE
  6
CONTINUOUS
 62
    30
 10
516.84751300000005
 20
-320.96211714285693
 30
0.0
 40
64.0
  1
10
 50
90.0
 41
0.9
 72
     1
 11
516.84751300000005
 21
-279.81925999999982
 31
0.0
  0
LINE
  5
257
  8
SIZE
  6
CONTINUOUS
 62
    30
 10
541.84751300000005
 20
-175.0
 30
0.0
 11
541.84751300000005
 21
-185.0
 31
0.0
  0
LINE
  5
258
  8
SIZE
  6
CONTINUOUS
 62
    30
 10
541.84751300000005
 20
-175.0
 30
0.0
 11
541.84751300000005
 21
-185.0
 31
0.0
  0
CIRCLE
  5
259
  8
SIZE
  6
CONTINUOUS
 62
    30
 10
541.84751300000005
 20
-175.0
 30
0.0
 40
6.0
  0
LINE
  5
25A
  8
SIZE
  6
CONTINUOUS
 62
    30
 10
541.84751300000005
 20
-175.0
 30
0.0
 11
541.84751300000005
 21
-163.0
 31
0.0
  0
CIRCLE
  5
25B
  8
SIZE
  6
CONTINUOUS
 62
    30
 10
541.84751300000005
 20
-185.0
 30
0.0
 40
6.0
  0
LINE
  5
25C
  8
SIZE
  6
CONTINUOUS
 62
    30
 10
541.84751300000005
 20
-185.0
 30
0.0
 11
541.84751300000005
 21
-197.0
 31
0.0
  0
POINT
  5
25D
  8
DEFPOINTS
  6
CONTINUOUS
 62
    30
 10
0.0
 20
-175.0
 30
0.0
  0
POINT
  5
25E
  8
DEFPOINTS
  6
CONTINUOUS
 62
    30
 10
-10.6
 20
-185.0
 30
0.0
  0
POINT
  5
25F
  8
DEFPOINTS
  6
CONTINUOUS
 62
    30
 10
541.84751300000005
 20
-185.0
 30
0.0
  0
LINE
  5
260
  8
SIZE
  6
CONTINUOUS
 62
    30
 10
0.0
 20
-195.0
 30
0.0
 11
0.0
 21
-367.29462699999999
 31
0.0
  0
LINE
  5
261
  8
SIZE
  6
CONTINUOUS
 62
    30
 10
-35.0
 20
-200.0
 30
0.0
 11
-35.0
 21
-367.29462699999999
 31
0.0
  0
LINE
  5
262
  8
SIZE
  6
CONTINUOUS
 62
    30
 10
12.0
 20
-347.29462699999999
 30
0.0
 11
24.0
 21
-347.29462699999999
 31
0.0
  0
LINE
  5
263
  8
SIZE
  6
CONTINUOUS
 62
    30
 10
-47.0
 20
-347.29462699999999
 30
0.0
 11
-59.0
 21
-347.29462699999999
 31
0.0
  0
LINE
  5
264
  8
SIZE
  6
CONTINUOUS
 62
    30
 10
185.5839189999999
 20
-347.29462699999999
 30
0.0
 11
0.0
 21
-347.29462699999999
 31
0.0
  0
TEXT
  5
265
  8
SIZE
  6
CONTINUOUS
 62
    30
 10
67.326776571428582
 20
-322.29462699999999
 30
0.0
 40
64.0
  1
35
 41
0.9
 72
     1
 11
113.955348
 21
-322.29462699999999
 31
0.0
  0
LINE
  5
266
  8
SIZE
  6
CONTINUOUS
 62
    30
 10
0.0
 20
-347.29462699999999
 30
0.0
 11
-35.0
 21
-347.29462699999999
 31
0.0
  0
LINE
  5
267
  8
SIZE
  6
CONTINUOUS
 62
    30
 10
0.0
 20
-347.29462699999999
 30
0.0
 11
-35.0
 21
-347.29462699999999
 31
0.0
  0
CIRCLE
  5
268
  8
SIZE
  6
CONTINUOUS
 62
    30
 10
0.0
 20
-347.29462699999999
 30
0.0
 40
6.0
  0
LINE
  5
269
  8
SIZE
  6
CONTINUOUS
 62
    30
 10
0.0
 20
-347.29462699999999
 30
0.0
 11
12.0
 21
-347.29462699999999
 31
0.0
  0
CIRCLE
  5
26A
  8
SIZE
  6
CONTINUOUS
 62
    30
 10
-35.0
 20
-347.29462699999999
 30
0.0
 40
6.0
  0
LINE
  5
26B
  8
SIZE
  6
CONTINUOUS
 62
    30
 10
-35.0
 20
-347.29462699999999
 30
0.0
 11
-47.0
 21
-347.29462699999999
 31
0.0
  0
POINT
  5
26C
  8
DEFPOINTS
  6
CONTINUOUS
 62
    30
 10
0.0
 20
-175.0
 30
0.0
  0
POINT
  5
26D
  8
DEFPOINTS
  6
CONTINUOUS
 62
    30
 10
-35.0
 20
-180.0
 30
0.0
  0
POINT
  5
26E
  8
DEFPOINTS
  6
CONTINUOUS
 62
    30
 10
-35.0
 20
-347.29462699999999
 30
0.0
  0
TEXT
  5
26F
  8
ETC
  6
CONTINUOUS
 62
    61
 10
487.67381561298407
 20
348.92854011123671
 30
0.0
 40
50.0
  1
EX-25EMP5
 41
0.9
  0
TEXT
  5
270
  8
ETC
  6
CONTINUOUS
 62
    61
 10
388.2774038933012
 20
558.44767164175676
 30
0.0
 40
64.0
  1
EX-25EMP5_4
 41
0.9
  0
TEXT
  5
271
  8
ETC
  6
CONTINUOUS
 62
    61
 10
380.20392589330118
 20
460.4289456417568
 30
0.0
 40
64.0
  1
換気扇
 41
0.9
  0
ENDSEC
  0
EOF
