  0
SECTION
  2
HEADER
  9
$ACADVER
  1
AC1009
  9
$INSBASE
 10
0.0
 20
0.0
 30
0.0
  9
$EXTMIN
 10
-247.78437999999991
 20
-252.9293569999999
 30
0.0
  9
$EXTMAX
 10
1009.32971817037
 20
475.54634396078859
 30
50.0
  9
$LIMMIN
 10
-2970.0
 20
-2100.0
  9
$LIMMAX
 10
2970.0
 20
2100.0
  9
$ORTHOMODE
 70
     1
  9
$REGENMODE
 70
     0
  9
$FILLMODE
 70
     1
  9
$QTEXTMODE
 70
     0
  9
$MIRRTEXT
 70
     0
  9
$DRAGMODE
 70
     2
  9
$LTSCALE
 40
20.0
  9
$OSMODE
 70
   171
  9
$ATTMODE
 70
     1
  9
$TEXTSIZE
 40
64.0
  9
$TRACEWID
 40
0.05
  9
$TEXTSTYLE
  7
STANDARD
  9
$CLAYER
  8
SIZE
  9
$CELTYPE
  6
CONTINUOUS
  9
$CECOLOR
 62
     8
  9
$DIMSCALE
 40
1.0
  9
$DIMASZ
 40
12.0
  9
$DIMEXO
 40
20.0
  9
$DIMDLI
 40
200.0
  9
$DIMRND
 40
0.0
  9
$DIMDLE
 40
0.0
  9
$DIMEXE
 40
20.0
  9
$DIMTP
 40
0.0
  9
$DIMTM
 40
0.0
  9
$DIMTXT
 40
64.0
  9
$DIMCEN
 40
0.09
  9
$DIMTSZ
 40
0.0
  9
$DIMTOL
 70
     0
  9
$DIMLIM
 70
     0
  9
$DIMTIH
 70
     0
  9
$DIMTOH
 70
     0
  9
$DIMSE1
 70
     0
  9
$DIMSE2
 70
     0
  9
$DIMTAD
 70
     1
  9
$DIMZIN
 70
     8
  9
$DIMBLK
  1
DOT1
  9
$DIMASO
 70
     1
  9
$DIMSHO
 70
     0
  9
$DIMPOST
  1

  9
$DIMAPOST
  1

  9
$DIMALT
 70
     0
  9
$DIMALTD
 70
     2
  9
$DIMALTF
 40
25.399999999999999
  9
$DIMLFAC
 40
1.0
  9
$DIMTOFL
 70
     1
  9
$DIMTVP
 40
0.0
  9
$DIMTIX
 70
     1
  9
$DIMSOXD
 70
     0
  9
$DIMSAH
 70
     1
  9
$DIMBLK1
  1
ORIGIN
  9
$DIMBLK2
  1
ORIGIN
  9
$DIMSTYLE
  2
STANDARD
  9
$DIMCLRD
 70
     0
  9
$DIMCLRE
 70
     0
  9
$DIMCLRT
 70
     0
  9
$DIMTFAC
 40
1.0
  9
$DIMGAP
 40
0.09
  9
$LUNITS
 70
     2
  9
$LUPREC
 70
     4
  9
$SKETCHINC
 40
0.1
  9
$FILLETRAD
 40
23.0
  9
$AUNITS
 70
     1
  9
$AUPREC
 70
     3
  9
$MENU
  1
ACAD
  9
$ELEVATION
 40
0.0
  9
$PELEVATION
 40
0.0
  9
$THICKNESS
 40
50.0
  9
$LIMCHECK
 70
     0
  9
$BLIPMODE
 70
     0
  9
$CHAMFERA
 40
0.0
  9
$CHAMFERB
 40
0.0
  9
$SKPOLY
 70
     0
  9
$TDCREATE
 40
2451453.4938508091
  9
$TDUPDATE
 40
2453762.3722039461
  9
$TDINDWG
 40
0.7723139583000001
  9
$TDUSRTIMER
 40
0.7723139583000001
  9
$USRTIMER
 70
     1
  9
$ANGBASE
 50
0.0
  9
$ANGDIR
 70
     0
  9
$PDMODE
 70
     3
  9
$PDSIZE
 40
-2.0
  9
$PLINEWID
 40
0.0
  9
$COORDS
 70
     2
  9
$SPLFRAME
 70
     0
  9
$SPLINETYPE
 70
     6
  9
$SPLINESEGS
 70
     8
  9
$ATTDIA
 70
     0
  9
$ATTREQ
 70
     1
  9
$HANDLING
 70
 22529
  9
$HANDSEED
  5
EA
  9
$SURFTAB1
 70
     6
  9
$SURFTAB2
 70
     6
  9
$SURFTYPE
 70
     6
  9
$SURFU
 70
     6
  9
$SURFV
 70
     6
  9
$UCSNAME
  2

  9
$UCSORG
 10
0.0
 20
0.0
 30
0.0
  9
$UCSXDIR
 10
1.0
 20
0.0
 30
0.0
  9
$UCSYDIR
 10
0.0
 20
1.0
 30
0.0
  9
$PUCSNAME
  2

  9
$PUCSORG
 10
0.0
 20
0.0
 30
0.0
  9
$PUCSXDIR
 10
1.0
 20
0.0
 30
0.0
  9
$PUCSYDIR
 10
0.0
 20
1.0
 30
0.0
  9
$USERI1
 70
     0
  9
$USERI2
 70
     0
  9
$USERI3
 70
     0
  9
$USERI4
 70
     0
  9
$USERI5
 70
     0
  9
$USERR1
 40
20.0
  9
$USERR2
 40
0.0
  9
$USERR3
 40
0.0
  9
$USERR4
 40
0.0
  9
$USERR5
 40
0.0
  9
$WORLDVIEW
 70
     1
  9
$SHADEDGE
 70
     3
  9
$SHADEDIF
 70
    70
  9
$TILEMODE
 70
     1
  9
$MAXACTVP
 70
    64
  9
$PLIMCHECK
 70
     0
  9
$PEXTMIN
 10
1.0000000000000000E+020
 20
1.0000000000000000E+020
 30
1.0000000000000000E+020
  9
$PEXTMAX
 10
-1.0000000000000000E+020
 20
-1.0000000000000000E+020
 30
-1.0000000000000000E+020
  9
$PLIMMIN
 10
0.0
 20
0.0
  9
$PLIMMAX
 10
12.0
 20
9.0
  9
$UNITMODE
 70
     0
  9
$VISRETAIN
 70
     1
  9
$PLINEGEN
 70
     0
  9
$PSLTSCALE
 70
     1
  0
ENDSEC
  0
SECTION
  2
TABLES
  0
TABLE
  2
VPORT
 70
     5
  0
VPORT
  2
*ACTIVE
 70
     0
 10
0.0
 20
0.0
 11
1.0
 21
1.0
 12
89.651338782724224
 22
173.0205281374156
 13
0.0
 23
0.0
 14
1.0
 24
1.0
 15
0.0
 25
0.0
 16
0.0
 26
0.0
 36
1.0
 17
0.0
 27
0.0
 37
0.0
 40
1721.022863751788
 41
1.4454314720812169
 42
50.0
 43
0.0
 44
0.0
 50
0.0
 51
0.0
 71
     0
 72
   100
 73
     1
 74
     0
 75
     0
 76
     0
 77
     0
 78
     0
  0
ENDTAB
  0
TABLE
  2
LTYPE
 70
     2
  0
LTYPE
  2
CONTINUOUS
 70
     0
  3
実線
 72
    65
 73
     0
 40
0.0
  0
LTYPE
  2
DASHDOT
 70
     0
  3
____ _ ____ _ ____ _ ____ _ ____ _ ____ _ ____
 72
    65
 73
     4
 40
5.5
 49
4.0
 49
-0.6
 49
0.3
 49
-0.6
  0
ENDTAB
  0
TABLE
  2
LAYER
 70
    12
  0
LAYER
  2
0
 70
     0
 62
     7
  6
CONTINUOUS
  0
LAYER
  2
SIZE
 70
     0
 62
    30
  6
CONTINUOUS
  0
LAYER
  2
BASIS
 70
     0
 62
     6
  6
DASHDOT
  0
LAYER
  2
OUTLINE
 70
     0
 62
     3
  6
CONTINUOUS
  0
LAYER
  2
DETAIL
 70
     0
 62
     5
  6
CONTINUOUS
  0
LAYER
  2
ARRANGE
 70
     0
 62
     1
  6
CONTINUOUS
  0
LAYER
  2
DEFPOINTS
 70
     0
 62
     7
  6
CONTINUOUS
  0
LAYER
  2
ETC
 70
     0
 62
    61
  6
CONTINUOUS
  0
LAYER
  2
FIX
 70
     0
 62
    11
  6
CONTINUOUS
  0
LAYER
  2
NOTE
 70
     0
 62
     4
  6
CONTINUOUS
  0
LAYER
  2
SERVICESPACE
 70
     0
 62
     2
  6
DASHDOT
  0
LAYER
  2
SYMBOLLINE
 70
     0
 62
    15
  6
CONTINUOUS
  0
ENDTAB
  0
TABLE
  2
STYLE
 70
     1
  0
STYLE
  2
STANDARD
 70
     0
 40
64.0
 41
0.9
 50
0.0
 71
     0
 42
64.0
  3
SIMPLEX.shx
  4
BIGFONT.shx
  0
ENDTAB
  0
TABLE
  2
VIEW
 70
     1
  0
VIEW
  2
ALL
 70
     0
 40
4282.6198079999986
 10
0.0
 20
41.309903999999989
 41
5940.0
 11
0.0
 21
0.0
 31
1.0
 12
0.0
 22
0.0
 32
0.0
 42
50.0
 43
0.0
 44
0.0
 50
0.0
 71
     0
  0
ENDTAB
  0
TABLE
  2
UCS
 70
     0
  0
ENDTAB
  0
TABLE
  2
APPID
 70
     1
  0
APPID
  2
ACAD
 70
     0
  0
ENDTAB
  0
TABLE
  2
DIMSTYLE
 70
     1
  0
DIMSTYLE
  2
STANDARD
 70
     0
  3

  4

  5

  6

  7

 40
1.0
 41
0.18
 42
0.0625
 43
0.38
 44
0.18
 45
0.0
 46
0.0
 47
0.0
 48
0.0
140
0.18
141
0.09
142
0.0
143
25.399999999999999
144
1.0
145
0.0
146
1.0
147
0.09
 71
     0
 72
     0
 73
     1
 74
     1
 75
     0
 76
     0
 77
     0
 78
     0
170
     0
171
     2
172
     0
173
     0
174
     0
175
     0
176
     0
177
     0
178
     0
  0
ENDTAB
  0
ENDSEC
  0
SECTION
  2
BLOCKS
  0
BLOCK
  8
0
  2
$MODEL_SPACE
 70
     0
 10
0.0
 20
0.0
 30
0.0
  3
$MODEL_SPACE
  1

  0
ENDBLK
  5
20
  8
0
  0
BLOCK
 67
     1
  8
0
  2
$PAPER_SPACE
 70
     0
 10
0.0
 20
0.0
 30
0.0
  3
$PAPER_SPACE
  1

  0
ENDBLK
  5
1C
 67
     1
  8
0
  0
BLOCK
  8
0
  2
DOT1
 70
     0
 10
0.0
 20
0.0
 30
0.0
  3
DOT1
  1

  0
CIRCLE
  5
34
  8
SIZE
  6
CONTINUOUS
 62
     7
 10
0.0
 20
0.0
 30
0.0
 40
3.0
  0
ENDBLK
  5
35
  8
0
  0
BLOCK
  8
0
  2
_ORIGIN
 70
     0
 10
0.0
 20
0.0
 30
0.0
  3
_ORIGIN
  1

  0
CIRCLE
  5
38
  8
0
  6
CONTINUOUS
 62
     7
 10
0.0
 20
0.0
 30
0.0
 40
0.5
  0
LINE
  5
39
  8
0
  6
CONTINUOUS
 62
     7
 10
0.0
 20
0.0
 30
0.0
 11
-1.0
 21
0.0
 31
0.0
  0
ENDBLK
  5
3A
  8
0
  0
ENDSEC
  0
SECTION
  2
ENTITIES
  0
LINE
  5
3C
  8
BASIS
  6
DASHDOT
 62
     6
 10
0.0
 20
238.94390899999991
 30
0.0
 11
0.0
 21
-252.9293569999999
 31
0.0
  0
LINE
  5
3D
  8
BASIS
  6
DASHDOT
 62
     6
 10
-247.78437999999991
 20
0.0
 30
0.0
 11
250.68641799999989
 21
0.0
 31
0.0
  0
CIRCLE
  5
3E
  8
ARRANGE
  6
CONTINUOUS
 62
     1
 39
50.0
 10
0.0
 20
0.0
 30
0.0
 40
40.0
  0
POINT
  5
3F
  8
ARRANGE
  6
CONTINUOUS
 62
     1
 10
0.0
 20
0.0
 30
0.0
 39
50.0
  0
LINE
  5
41
  8
DETAIL
  6
CONTINUOUS
 62
     5
 10
-177.5
 20
177.5
 30
0.0
 11
177.5
 21
177.5
 31
0.0
  0
LINE
  5
42
  8
DETAIL
  6
CONTINUOUS
 62
     5
 10
-177.5
 20
-177.5
 30
0.0
 11
177.5
 21
-177.5
 31
0.0
  0
LINE
  5
43
  8
DETAIL
  6
CONTINUOUS
 62
     5
 10
-177.5
 20
177.5
 30
0.0
 11
-177.5
 21
-177.5
 31
0.0
  0
LINE
  5
44
  8
DETAIL
  6
CONTINUOUS
 62
     5
 10
177.5
 20
177.5
 30
0.0
 11
177.5
 21
-177.5
 31
0.0
  0
LINE
  5
45
  8
DETAIL
  6
CONTINUOUS
 62
     5
 10
-161.72797899999989
 20
-161.25
 30
0.0
 11
161.72797899999989
 21
-161.25
 31
0.0
  0
LINE
  5
46
  8
DETAIL
  6
CONTINUOUS
 62
     5
 10
-161.72797899999989
 20
161.25
 30
0.0
 11
161.72797899999989
 21
161.25
 31
0.0
  0
LINE
  5
47
  8
DETAIL
  6
CONTINUOUS
 62
     5
 10
-163.727979
 20
163.25
 30
0.0
 11
163.727979
 21
163.25
 31
0.0
  0
LINE
  5
48
  8
DETAIL
  6
CONTINUOUS
 62
     5
 10
-163.727979
 20
-163.25
 30
0.0
 11
163.727979
 21
-163.25
 31
0.0
  0
LINE
  5
49
  8
DETAIL
  6
CONTINUOUS
 62
     5
 10
-161.72797899999989
 20
161.25
 30
0.0
 11
-161.72797899999989
 21
-161.25
 31
0.0
  0
LINE
  5
4A
  8
DETAIL
  6
CONTINUOUS
 62
     5
 10
-163.727979
 20
163.25
 30
0.0
 11
-163.727979
 21
-163.25
 31
0.0
  0
LINE
  5
4B
  8
DETAIL
  6
CONTINUOUS
 62
     5
 10
161.72797899999989
 20
161.25
 30
0.0
 11
161.72797899999989
 21
-161.25
 31
0.0
  0
LINE
  5
4C
  8
DETAIL
  6
CONTINUOUS
 62
     5
 10
163.727979
 20
163.25
 30
0.0
 11
163.727979
 21
-163.25
 31
0.0
  0
LINE
  5
4D
  8
SIZE
  6
CONTINUOUS
 62
    30
 10
177.5
 20
197.5
 30
0.0
 11
177.5
 21
345.216319
 31
0.0
  0
LINE
  5
4E
  8
SIZE
  6
CONTINUOUS
 62
    30
 10
-177.5
 20
197.5
 30
0.0
 11
-177.5
 21
345.216319
 31
0.0
  0
LINE
  5
4F
  8
SIZE
  6
CONTINUOUS
 62
    30
 10
165.5
 20
325.216319
 30
0.0
 11
-165.5
 21
325.216319
 31
0.0
  0
CIRCLE
  5
50
  8
SIZE
  6
CONTINUOUS
 62
    30
 10
177.5
 20
325.216319
 30
0.0
 40
6.0
  0
LINE
  5
51
  8
SIZE
  6
CONTINUOUS
 62
    30
 10
177.5
 20
325.216319
 30
0.0
 11
165.5
 21
325.216319
 31
0.0
  0
CIRCLE
  5
52
  8
SIZE
  6
CONTINUOUS
 62
    30
 10
-177.5
 20
325.216319
 30
0.0
 40
6.0
  0
LINE
  5
53
  8
SIZE
  6
CONTINUOUS
 62
    30
 10
-177.5
 20
325.216319
 30
0.0
 11
-165.5
 21
325.216319
 31
0.0
  0
TEXT
  5
54
  8
SIZE
  6
CONTINUOUS
 62
    30
 10
-110.5371428571428
 20
350.216319
 30
0.0
 40
64.0
  1
□355
 41
0.9
 72
     1
 11
0.0
 21
350.216319
 31
0.0
  0
POINT
  5
55
  8
DEFPOINTS
  6
CONTINUOUS
 62
    30
 10
177.5
 20
177.5
 30
0.0
  0
POINT
  5
56
  8
DEFPOINTS
  6
CONTINUOUS
 62
    30
 10
-177.5
 20
177.5
 30
0.0
  0
POINT
  5
57
  8
DEFPOINTS
  6
CONTINUOUS
 62
    30
 10
-177.5
 20
325.216319
 30
0.0
  0
LINE
  5
58
  8
OUTLINE
  6
CONTINUOUS
 62
     3
 10
-177.5
 20
177.5
 30
0.0
 11
177.5
 21
177.5
 31
0.0
  0
LINE
  5
59
  8
OUTLINE
  6
CONTINUOUS
 62
     3
 10
-177.5
 20
177.5
 30
0.0
 11
-177.5
 21
-177.5
 31
0.0
  0
LINE
  5
5A
  8
OUTLINE
  6
CONTINUOUS
 62
     3
 10
-177.5
 20
-177.5
 30
0.0
 11
177.5
 21
-177.5
 31
0.0
  0
LINE
  5
5B
  8
OUTLINE
  6
CONTINUOUS
 62
     3
 10
177.5
 20
177.5
 30
0.0
 11
177.5
 21
-177.5
 31
0.0
  0
TEXT
  5
66
  8
ETC
  6
CONTINUOUS
 62
    61
 10
460.41018482709842
 20
144.6640064479291
 30
0.0
 40
50.0
  1
EX-25FX5-C
 41
0.9
  0
TEXT
  5
67
  8
ETC
  6
CONTINUOUS
 62
    61
 10
460.41018482709842
 20
227.42859994905331
 30
0.0
 40
50.0
  1
EX-25EX5-C
 41
0.9
  0
TEXT
  5
68
  8
ETC
  6
CONTINUOUS
 62
    61
 10
326.35828959894201
 20
411.5463439607887
 30
0.0
 40
64.0
  1
EX-25EX5-C_2
 41
0.9
  0
TEXT
  5
69
  8
ETC
  6
CONTINUOUS
 62
    61
 10
320.30177159894208
 20
313.52761796078869
 30
0.0
 40
64.0
  1
換気扇
 41
0.9
  0
ENDSEC
  0
EOF
