  0
SECTION
  2
HEADER
  9
$ACADVER
  1
AC1009
  9
$INSBASE
 10
0.0
 20
0.0
 30
0.0
  9
$EXTMIN
 10
-527.05220199999985
 20
-349.223454
 30
0.0
  9
$EXTMAX
 10
1070.5627795570181
 20
564.37301576400614
 30
50.0
  9
$LIMMIN
 10
-2970.0
 20
-2100.0
  9
$LIMMAX
 10
2970.0
 20
2100.0
  9
$ORTHOMODE
 70
     0
  9
$REGENMODE
 70
     0
  9
$FILLMODE
 70
     1
  9
$QTEXTMODE
 70
     0
  9
$MIRRTEXT
 70
     0
  9
$DRAGMODE
 70
     2
  9
$LTSCALE
 40
20.0
  9
$OSMODE
 70
   171
  9
$ATTMODE
 70
     1
  9
$TEXTSIZE
 40
64.0
  9
$TRACEWID
 40
0.05
  9
$TEXTSTYLE
  7
STANDARD
  9
$CLAYER
  8
SIZE
  9
$CELTYPE
  6
CONTINUOUS
  9
$CECOLOR
 62
     8
  9
$DIMSCALE
 40
1.0
  9
$DIMASZ
 40
12.0
  9
$DIMEXO
 40
20.0
  9
$DIMDLI
 40
200.0
  9
$DIMRND
 40
0.0
  9
$DIMDLE
 40
0.0
  9
$DIMEXE
 40
20.0
  9
$DIMTP
 40
0.0
  9
$DIMTM
 40
0.0
  9
$DIMTXT
 40
64.0
  9
$DIMCEN
 40
0.09
  9
$DIMTSZ
 40
0.0
  9
$DIMTOL
 70
     0
  9
$DIMLIM
 70
     0
  9
$DIMTIH
 70
     0
  9
$DIMTOH
 70
     0
  9
$DIMSE1
 70
     0
  9
$DIMSE2
 70
     0
  9
$DIMTAD
 70
     1
  9
$DIMZIN
 70
     8
  9
$DIMBLK
  1
DOT1
  9
$DIMASO
 70
     1
  9
$DIMSHO
 70
     0
  9
$DIMPOST
  1

  9
$DIMAPOST
  1

  9
$DIMALT
 70
     0
  9
$DIMALTD
 70
     2
  9
$DIMALTF
 40
25.399999999999999
  9
$DIMLFAC
 40
1.0
  9
$DIMTOFL
 70
     1
  9
$DIMTVP
 40
0.0
  9
$DIMTIX
 70
     1
  9
$DIMSOXD
 70
     0
  9
$DIMSAH
 70
     1
  9
$DIMBLK1
  1
ORIGIN
  9
$DIMBLK2
  1
ORIGIN
  9
$DIMSTYLE
  2
STANDARD
  9
$DIMCLRD
 70
     0
  9
$DIMCLRE
 70
     0
  9
$DIMCLRT
 70
     0
  9
$DIMTFAC
 40
1.0
  9
$DIMGAP
 40
0.09
  9
$LUNITS
 70
     2
  9
$LUPREC
 70
     4
  9
$SKETCHINC
 40
0.1
  9
$FILLETRAD
 40
23.0
  9
$AUNITS
 70
     1
  9
$AUPREC
 70
     3
  9
$MENU
  1
ACAD
  9
$ELEVATION
 40
0.0
  9
$PELEVATION
 40
0.0
  9
$THICKNESS
 40
50.0
  9
$LIMCHECK
 70
     0
  9
$BLIPMODE
 70
     0
  9
$CHAMFERA
 40
0.0
  9
$CHAMFERB
 40
0.0
  9
$SKPOLY
 70
     0
  9
$TDCREATE
 40
2451453.4938508091
  9
$TDUPDATE
 40
2453762.3734691432
  9
$TDINDWG
 40
0.7878746528
  9
$TDUSRTIMER
 40
0.7878746528
  9
$USRTIMER
 70
     1
  9
$ANGBASE
 50
0.0
  9
$ANGDIR
 70
     0
  9
$PDMODE
 70
     3
  9
$PDSIZE
 40
-2.0
  9
$PLINEWID
 40
0.0
  9
$COORDS
 70
     2
  9
$SPLFRAME
 70
     0
  9
$SPLINETYPE
 70
     6
  9
$SPLINESEGS
 70
     8
  9
$ATTDIA
 70
     0
  9
$ATTREQ
 70
     1
  9
$HANDLING
 70
 22529
  9
$HANDSEED
  5
140
  9
$SURFTAB1
 70
     6
  9
$SURFTAB2
 70
     6
  9
$SURFTYPE
 70
     6
  9
$SURFU
 70
     6
  9
$SURFV
 70
     6
  9
$UCSNAME
  2

  9
$UCSORG
 10
0.0
 20
0.0
 30
0.0
  9
$UCSXDIR
 10
1.0
 20
0.0
 30
0.0
  9
$UCSYDIR
 10
0.0
 20
1.0
 30
0.0
  9
$PUCSNAME
  2

  9
$PUCSORG
 10
0.0
 20
0.0
 30
0.0
  9
$PUCSXDIR
 10
1.0
 20
0.0
 30
0.0
  9
$PUCSYDIR
 10
0.0
 20
1.0
 30
0.0
  9
$USERI1
 70
     0
  9
$USERI2
 70
     0
  9
$USERI3
 70
     0
  9
$USERI4
 70
     0
  9
$USERI5
 70
     0
  9
$USERR1
 40
20.0
  9
$USERR2
 40
0.0
  9
$USERR3
 40
0.0
  9
$USERR4
 40
0.0
  9
$USERR5
 40
0.0
  9
$WORLDVIEW
 70
     1
  9
$SHADEDGE
 70
     3
  9
$SHADEDIF
 70
    70
  9
$TILEMODE
 70
     1
  9
$MAXACTVP
 70
    64
  9
$PLIMCHECK
 70
     0
  9
$PEXTMIN
 10
1.0000000000000000E+020
 20
1.0000000000000000E+020
 30
1.0000000000000000E+020
  9
$PEXTMAX
 10
-1.0000000000000000E+020
 20
-1.0000000000000000E+020
 30
-1.0000000000000000E+020
  9
$PLIMMIN
 10
0.0
 20
0.0
  9
$PLIMMAX
 10
12.0
 20
9.0
  9
$UNITMODE
 70
     0
  9
$VISRETAIN
 70
     1
  9
$PLINEGEN
 70
     0
  9
$PSLTSCALE
 70
     1
  0
ENDSEC
  0
SECTION
  2
TABLES
  0
TABLE
  2
VPORT
 70
     5
  0
VPORT
  2
*ACTIVE
 70
     0
 10
0.0
 20
0.0
 11
1.0
 21
1.0
 12
31.54923903515623
 22
142.81709645098621
 13
0.0
 23
0.0
 14
1.0
 24
1.0
 15
0.0
 25
0.0
 16
0.0
 26
0.0
 36
1.0
 17
0.0
 27
0.0
 37
0.0
 40
1987.2626611920391
 41
1.445431472081218
 42
50.0
 43
0.0
 44
0.0
 50
0.0
 51
0.0
 71
     0
 72
   100
 73
     1
 74
     0
 75
     0
 76
     0
 77
     0
 78
     0
  0
ENDTAB
  0
TABLE
  2
LTYPE
 70
     2
  0
LTYPE
  2
CONTINUOUS
 70
     0
  3
実線
 72
    65
 73
     0
 40
0.0
  0
LTYPE
  2
DASHDOT
 70
     0
  3
____ _ ____ _ ____ _ ____ _ ____ _ ____ _ ____
 72
    65
 73
     4
 40
5.5
 49
4.0
 49
-0.6
 49
0.3
 49
-0.6
  0
ENDTAB
  0
TABLE
  2
LAYER
 70
    12
  0
LAYER
  2
0
 70
     0
 62
     7
  6
CONTINUOUS
  0
LAYER
  2
SIZE
 70
     0
 62
    30
  6
CONTINUOUS
  0
LAYER
  2
BASIS
 70
     0
 62
     6
  6
DASHDOT
  0
LAYER
  2
OUTLINE
 70
     0
 62
     3
  6
CONTINUOUS
  0
LAYER
  2
DETAIL
 70
     0
 62
     5
  6
CONTINUOUS
  0
LAYER
  2
ARRANGE
 70
     0
 62
     1
  6
CONTINUOUS
  0
LAYER
  2
DEFPOINTS
 70
     0
 62
     7
  6
CONTINUOUS
  0
LAYER
  2
ETC
 70
     0
 62
    61
  6
CONTINUOUS
  0
LAYER
  2
FIX
 70
     0
 62
    11
  6
CONTINUOUS
  0
LAYER
  2
NOTE
 70
     0
 62
     4
  6
CONTINUOUS
  0
LAYER
  2
SERVICESPACE
 70
     0
 62
     2
  6
DASHDOT
  0
LAYER
  2
SYMBOLLINE
 70
     0
 62
    15
  6
CONTINUOUS
  0
ENDTAB
  0
TABLE
  2
STYLE
 70
     1
  0
STYLE
  2
STANDARD
 70
     0
 40
64.0
 41
0.9
 50
0.0
 71
     0
 42
64.0
  3
SIMPLEX.shx
  4
BIGFONT.shx
  0
ENDTAB
  0
TABLE
  2
VIEW
 70
     1
  0
VIEW
  2
ALL
 70
     0
 40
4282.6198079999986
 10
0.0
 20
41.309903999999989
 41
5940.0
 11
0.0
 21
0.0
 31
1.0
 12
0.0
 22
0.0
 32
0.0
 42
50.0
 43
0.0
 44
0.0
 50
0.0
 71
     0
  0
ENDTAB
  0
TABLE
  2
UCS
 70
     0
  0
ENDTAB
  0
TABLE
  2
APPID
 70
     1
  0
APPID
  2
ACAD
 70
     0
  0
ENDTAB
  0
TABLE
  2
DIMSTYLE
 70
     1
  0
DIMSTYLE
  2
STANDARD
 70
     0
  3

  4

  5

  6

  7

 40
1.0
 41
0.18
 42
0.0625
 43
0.38
 44
0.18
 45
0.0
 46
0.0
 47
0.0
 48
0.0
140
0.18
141
0.09
142
0.0
143
25.399999999999999
144
1.0
145
0.0
146
1.0
147
0.09
 71
     0
 72
     0
 73
     1
 74
     1
 75
     0
 76
     0
 77
     0
 78
     0
170
     0
171
     2
172
     0
173
     0
174
     0
175
     0
176
     0
177
     0
178
     0
  0
ENDTAB
  0
ENDSEC
  0
SECTION
  2
BLOCKS
  0
BLOCK
  8
0
  2
$MODEL_SPACE
 70
     0
 10
0.0
 20
0.0
 30
0.0
  3
$MODEL_SPACE
  1

  0
ENDBLK
  5
20
  8
0
  0
BLOCK
 67
     1
  8
0
  2
$PAPER_SPACE
 70
     0
 10
0.0
 20
0.0
 30
0.0
  3
$PAPER_SPACE
  1

  0
ENDBLK
  5
1C
 67
     1
  8
0
  0
BLOCK
  8
0
  2
DOT1
 70
     0
 10
0.0
 20
0.0
 30
0.0
  3
DOT1
  1

  0
CIRCLE
  5
34
  8
SIZE
  6
CONTINUOUS
 62
     7
 10
0.0
 20
0.0
 30
0.0
 40
3.0
  0
ENDBLK
  5
35
  8
0
  0
BLOCK
  8
0
  2
_ORIGIN
 70
     0
 10
0.0
 20
0.0
 30
0.0
  3
_ORIGIN
  1

  0
CIRCLE
  5
38
  8
0
  6
CONTINUOUS
 62
     7
 10
0.0
 20
0.0
 30
0.0
 40
0.5
  0
LINE
  5
39
  8
0
  6
CONTINUOUS
 62
     7
 10
0.0
 20
0.0
 30
0.0
 11
-1.0
 21
0.0
 31
0.0
  0
ENDBLK
  5
3A
  8
0
  0
ENDSEC
  0
SECTION
  2
ENTITIES
  0
LINE
  5
3C
  8
BASIS
  6
DASHDOT
 62
     6
 10
0.0
 20
220.40224599999999
 30
0.0
 11
0.0
 21
-252.9293569999999
 31
0.0
  0
LINE
  5
3D
  8
BASIS
  6
DASHDOT
 62
     6
 10
247.78437999999991
 20
0.0
 30
0.0
 11
-250.68641799999989
 21
0.0
 31
0.0
  0
CIRCLE
  5
3E
  8
ARRANGE
  6
CONTINUOUS
 62
     1
 39
50.0
 10
0.0
 20
0.0
 30
0.0
 40
40.0
  0
POINT
  5
3F
  8
ARRANGE
  6
CONTINUOUS
 62
     1
 10
0.0
 20
0.0
 30
0.0
 39
50.0
  0
LINE
  5
41
  8
DETAIL
  6
CONTINUOUS
 62
     5
 10
177.5
 20
177.5
 30
0.0
 11
-177.5
 21
177.5
 31
0.0
  0
LINE
  5
42
  8
DETAIL
  6
CONTINUOUS
 62
     5
 10
177.5
 20
-177.5
 30
0.0
 11
-177.5
 21
-177.5
 31
0.0
  0
LINE
  5
43
  8
DETAIL
  6
CONTINUOUS
 62
     5
 10
177.5
 20
177.5
 30
0.0
 11
177.5
 21
-177.5
 31
0.0
  0
LINE
  5
44
  8
DETAIL
  6
CONTINUOUS
 62
     5
 10
-177.5
 20
177.5
 30
0.0
 11
-177.5
 21
-177.5
 31
0.0
  0
LINE
  5
45
  8
NOTE
  6
CONTINUOUS
 62
     4
 10
340.77532999999988
 20
-298.8941089999999
 30
0.0
 11
221.106044
 21
-298.8941089999999
 31
0.0
  0
TEXT
  5
46
  8
NOTE
  6
CONTINUOUS
 62
     4
 10
232.59409999999991
 20
-271.46715699999987
 30
0.0
 40
64.0
  1
EL
 41
0.9
  0
LINE
  5
47
  8
NOTE
  6
CONTINUOUS
 62
     4
 10
221.106044
 20
-298.8941089999999
 30
0.0
 11
145.0
 21
-125.0
 31
0.0
  0
LINE
  5
48
  8
NOTE
  6
CONTINUOUS
 62
     4
 10
150.650768
 20
-164.598849
 30
0.0
 11
145.0
 21
-125.0
 31
0.0
  0
LINE
  5
49
  8
NOTE
  6
CONTINUOUS
 62
     4
 10
145.0
 20
-125.0
 30
0.0
 11
169.69313399999999
 21
-156.46822399999991
 31
0.0
  0
LINE
  5
4A
  8
NOTE
  6
CONTINUOUS
 62
     4
 10
145.0
 20
-145.0
 30
0.0
 11
145.0
 21
-105.0
 31
0.0
  0
LINE
  5
4B
  8
NOTE
  6
CONTINUOUS
 62
     4
 10
125.0
 20
-125.0
 30
0.0
 11
165.0
 21
-125.0
 31
0.0
  0
LINE
  5
4C
  8
SIZE
  6
CONTINUOUS
 62
    30
 10
267.78438
 20
0.0
 30
0.0
 11
482.86838
 21
0.0
 31
0.0
  0
LINE
  5
4D
  8
SIZE
  6
CONTINUOUS
 62
    30
 10
185.0
 20
-125.0
 30
0.0
 11
482.86838
 21
-125.0
 31
0.0
  0
LINE
  5
4E
  8
SIZE
  6
CONTINUOUS
 62
    30
 10
462.86838
 20
-12.0
 30
0.0
 11
462.86838
 21
-113.0
 31
0.0
  0
LINE
  5
4F
  8
SIZE
  6
CONTINUOUS
 62
    30
 10
462.86838
 20
-349.223454
 30
0.0
 11
462.86838
 21
-125.0
 31
0.0
  0
TEXT
  5
50
  8
SIZE
  6
CONTINUOUS
 62
    30
 10
437.86838
 20
-324.22345357142859
 30
0.0
 40
64.0
  1
125
 50
90.0
 41
0.9
 72
     1
 11
437.86838
 21
-255.65202500000001
 31
0.0
  0
CIRCLE
  5
51
  8
SIZE
  6
CONTINUOUS
 62
    30
 10
462.86838
 20
0.0
 30
0.0
 40
6.0
  0
LINE
  5
52
  8
SIZE
  6
CONTINUOUS
 62
    30
 10
462.86838
 20
0.0
 30
0.0
 11
462.86838
 21
-12.0
 31
0.0
  0
CIRCLE
  5
53
  8
SIZE
  6
CONTINUOUS
 62
    30
 10
462.86838
 20
-125.0
 30
0.0
 40
6.0
  0
LINE
  5
54
  8
SIZE
  6
CONTINUOUS
 62
    30
 10
462.86838
 20
-125.0
 30
0.0
 11
462.86838
 21
-113.0
 31
0.0
  0
POINT
  5
55
  8
DEFPOINTS
  6
CONTINUOUS
 62
    30
 10
247.78437999999991
 20
0.0
 30
0.0
  0
POINT
  5
56
  8
DEFPOINTS
  6
CONTINUOUS
 62
    30
 10
165.0
 20
-125.0
 30
0.0
  0
POINT
  5
57
  8
DEFPOINTS
  6
CONTINUOUS
 62
    30
 10
462.86838
 20
-125.0
 30
0.0
  0
LINE
  5
58
  8
SIZE
  6
CONTINUOUS
 62
    30
 10
-177.5
 20
197.5
 30
0.0
 11
-177.5
 21
402.93743899999998
 31
0.0
  0
LINE
  5
59
  8
SIZE
  6
CONTINUOUS
 62
    30
 10
177.5
 20
197.5
 30
0.0
 11
177.5
 21
402.93743899999998
 31
0.0
  0
LINE
  5
5A
  8
SIZE
  6
CONTINUOUS
 62
    30
 10
-165.5
 20
382.93743899999998
 30
0.0
 11
165.5
 21
382.93743899999998
 31
0.0
  0
CIRCLE
  5
5B
  8
SIZE
  6
CONTINUOUS
 62
    30
 10
-177.5
 20
382.93743899999998
 30
0.0
 40
6.0
  0
LINE
  5
5C
  8
SIZE
  6
CONTINUOUS
 62
    30
 10
-177.5
 20
382.93743899999998
 30
0.0
 11
-165.5
 21
382.93743899999998
 31
0.0
  0
CIRCLE
  5
5D
  8
SIZE
  6
CONTINUOUS
 62
    30
 10
177.5
 20
382.93743899999998
 30
0.0
 40
6.0
  0
LINE
  5
5E
  8
SIZE
  6
CONTINUOUS
 62
    30
 10
177.5
 20
382.93743899999998
 30
0.0
 11
165.5
 21
382.93743899999998
 31
0.0
  0
TEXT
  5
5F
  8
SIZE
  6
CONTINUOUS
 62
    30
 10
-110.5371428571428
 20
407.93743899999998
 30
0.0
 40
64.0
  1
□355
 41
0.9
 72
     1
 11
0.0
 21
407.93743899999998
 31
0.0
  0
POINT
  5
60
  8
DEFPOINTS
  6
CONTINUOUS
 62
    30
 10
-177.5
 20
177.5
 30
0.0
  0
POINT
  5
61
  8
DEFPOINTS
  6
CONTINUOUS
 62
    30
 10
177.5
 20
177.5
 30
0.0
  0
POINT
  5
62
  8
DEFPOINTS
  6
CONTINUOUS
 62
    30
 10
177.5
 20
382.93743899999998
 30
0.0
  0
LINE
  5
63
  8
OUTLINE
  6
CONTINUOUS
 62
     3
 10
177.5
 20
177.5
 30
0.0
 11
-177.5
 21
177.5
 31
0.0
  0
LINE
  5
64
  8
OUTLINE
  6
CONTINUOUS
 62
     3
 10
177.5
 20
177.5
 30
0.0
 11
177.5
 21
-177.5
 31
0.0
  0
LINE
  5
65
  8
OUTLINE
  6
CONTINUOUS
 62
     3
 10
177.5
 20
-177.5
 30
0.0
 11
-177.5
 21
-177.5
 31
0.0
  0
LINE
  5
66
  8
OUTLINE
  6
CONTINUOUS
 62
     3
 10
-177.5
 20
177.5
 30
0.0
 11
-177.5
 21
-177.5
 31
0.0
  0
CIRCLE
  5
67
  8
FIX
  6
CONTINUOUS
 62
    11
 39
50.0
 10
-85.0
 20
157.5
 30
0.0
 40
2.5
  0
CIRCLE
  5
68
  8
DETAIL
  6
CONTINUOUS
 62
     5
 10
-85.0
 20
157.5
 30
0.0
 40
2.5
  0
LINE
  5
69
  8
NOTE
  6
CONTINUOUS
 62
     4
 10
-85.0
 20
137.5
 30
0.0
 11
-85.0
 21
177.5
 31
0.0
  0
LINE
  5
6A
  8
NOTE
  6
CONTINUOUS
 62
     4
 10
-105.0
 20
157.5
 30
0.0
 11
-65.0
 21
157.5
 31
0.0
  0
CIRCLE
  5
6B
  8
FIX
  6
CONTINUOUS
 62
    11
 39
50.0
 10
85.0
 20
157.5
 30
0.0
 40
2.5
  0
LINE
  5
6C
  8
NOTE
  6
CONTINUOUS
 62
     4
 10
85.0
 20
137.5
 30
0.0
 11
85.0
 21
177.5
 31
0.0
  0
LINE
  5
6D
  8
NOTE
  6
CONTINUOUS
 62
     4
 10
105.0
 20
157.5
 30
0.0
 11
65.0
 21
157.5
 31
0.0
  0
CIRCLE
  5
6E
  8
DETAIL
  6
CONTINUOUS
 62
     5
 10
85.0
 20
157.5
 30
0.0
 40
2.5
  0
CIRCLE
  5
6F
  8
FIX
  6
CONTINUOUS
 62
    11
 39
50.0
 10
-85.0
 20
-157.5
 30
0.0
 40
2.5
  0
LINE
  5
70
  8
NOTE
  6
CONTINUOUS
 62
     4
 10
-85.0
 20
-137.5
 30
0.0
 11
-85.0
 21
-177.5
 31
0.0
  0
LINE
  5
71
  8
NOTE
  6
CONTINUOUS
 62
     4
 10
-105.0
 20
-157.5
 30
0.0
 11
-65.0
 21
-157.5
 31
0.0
  0
CIRCLE
  5
72
  8
DETAIL
  6
CONTINUOUS
 62
     5
 10
-85.0
 20
-157.5
 30
0.0
 40
2.5
  0
CIRCLE
  5
73
  8
FIX
  6
CONTINUOUS
 62
    11
 39
50.0
 10
85.0
 20
-157.5
 30
0.0
 40
2.5
  0
CIRCLE
  5
74
  8
DETAIL
  6
CONTINUOUS
 62
     5
 10
85.0
 20
-157.5
 30
0.0
 40
2.5
  0
LINE
  5
75
  8
NOTE
  6
CONTINUOUS
 62
     4
 10
85.0
 20
-137.5
 30
0.0
 11
85.0
 21
-177.5
 31
0.0
  0
LINE
  5
76
  8
NOTE
  6
CONTINUOUS
 62
     4
 10
105.0
 20
-157.5
 30
0.0
 11
65.0
 21
-157.5
 31
0.0
  0
LINE
  5
77
  8
SIZE
  6
CONTINUOUS
 62
    30
 10
85.0
 20
197.5
 30
0.0
 11
85.0
 21
283.21954499999998
 31
0.0
  0
LINE
  5
78
  8
SIZE
  6
CONTINUOUS
 62
    30
 10
-85.0
 20
197.5
 30
0.0
 11
-85.0
 21
283.21954499999998
 31
0.0
  0
LINE
  5
79
  8
SIZE
  6
CONTINUOUS
 62
    30
 10
97.0
 20
263.21954499999998
 30
0.0
 11
109.0
 21
263.21954499999998
 31
0.0
  0
LINE
  5
7A
  8
SIZE
  6
CONTINUOUS
 62
    30
 10
-97.0
 20
263.21954499999998
 30
0.0
 11
-109.0
 21
263.21954499999998
 31
0.0
  0
LINE
  5
7B
  8
SIZE
  6
CONTINUOUS
 62
    30
 10
85.0
 20
263.21954499999998
 30
0.0
 11
-85.0
 21
263.21954499999998
 31
0.0
  0
CIRCLE
  5
7C
  8
SIZE
  6
CONTINUOUS
 62
    30
 10
85.0
 20
263.21954499999998
 30
0.0
 40
6.0
  0
LINE
  5
7D
  8
SIZE
  6
CONTINUOUS
 62
    30
 10
85.0
 20
263.21954499999998
 30
0.0
 11
97.0
 21
263.21954499999998
 31
0.0
  0
CIRCLE
  5
7E
  8
SIZE
  6
CONTINUOUS
 62
    30
 10
-85.0
 20
263.21954499999998
 30
0.0
 40
6.0
  0
LINE
  5
7F
  8
SIZE
  6
CONTINUOUS
 62
    30
 10
-85.0
 20
263.21954499999998
 30
0.0
 11
-97.0
 21
263.21954499999998
 31
0.0
  0
TEXT
  5
80
  8
SIZE
  6
CONTINUOUS
 62
    30
 10
-68.571428571428569
 20
288.21954499999998
 30
0.0
 40
64.0
  1
170
 41
0.9
 72
     1
 11
0.0
 21
288.21954499999998
 31
0.0
  0
POINT
  5
81
  8
DEFPOINTS
  6
CONTINUOUS
 62
    30
 10
85.0
 20
177.5
 30
0.0
  0
POINT
  5
82
  8
DEFPOINTS
  6
CONTINUOUS
 62
    30
 10
-85.0
 20
177.5
 30
0.0
  0
POINT
  5
83
  8
DEFPOINTS
  6
CONTINUOUS
 62
    30
 10
-85.0
 20
263.21954499999998
 30
0.0
  0
LINE
  5
84
  8
SIZE
  6
CONTINUOUS
 62
    30
 10
125.0
 20
157.5
 30
0.0
 11
604.81764499999986
 21
157.5
 31
0.0
  0
LINE
  5
85
  8
SIZE
  6
CONTINUOUS
 62
    30
 10
125.0
 20
-157.5
 30
0.0
 11
604.81764499999986
 21
-157.5
 31
0.0
  0
LINE
  5
86
  8
SIZE
  6
CONTINUOUS
 62
    30
 10
584.81764499999986
 20
145.5
 30
0.0
 11
584.81764499999986
 21
-145.5
 31
0.0
  0
CIRCLE
  5
87
  8
SIZE
  6
CONTINUOUS
 62
    30
 10
584.81764499999986
 20
157.5
 30
0.0
 40
6.0
  0
LINE
  5
88
  8
SIZE
  6
CONTINUOUS
 62
    30
 10
584.81764499999986
 20
157.5
 30
0.0
 11
584.81764499999986
 21
145.5
 31
0.0
  0
CIRCLE
  5
89
  8
SIZE
  6
CONTINUOUS
 62
    30
 10
584.81764499999986
 20
-157.5
 30
0.0
 40
6.0
  0
LINE
  5
8A
  8
SIZE
  6
CONTINUOUS
 62
    30
 10
584.81764499999986
 20
-157.5
 30
0.0
 11
584.81764499999986
 21
-145.5
 31
0.0
  0
TEXT
  5
8B
  8
SIZE
  6
CONTINUOUS
 62
    30
 10
559.81764499999986
 20
-68.571428571428569
 30
0.0
 40
64.0
  1
315
 50
90.0
 41
0.9
 72
     1
 11
559.81764499999986
 21
0.0
 31
0.0
  0
POINT
  5
8C
  8
DEFPOINTS
  6
CONTINUOUS
 62
    30
 10
105.0
 20
157.5
 30
0.0
  0
POINT
  5
8D
  8
DEFPOINTS
  6
CONTINUOUS
 62
    30
 10
105.0
 20
-157.5
 30
0.0
  0
POINT
  5
8E
  8
DEFPOINTS
  6
CONTINUOUS
 62
    30
 10
584.81764499999986
 20
-157.5
 30
0.0
  0
LINE
  5
8F
  8
SIZE
  6
CONTINUOUS
 62
    30
 10
-193.0
 20
173.0
 30
0.0
 11
-431.52132499999999
 21
173.0
 31
0.0
  0
LINE
  5
90
  8
SIZE
  6
CONTINUOUS
 62
    30
 10
-193.0
 20
-173.0
 30
0.0
 11
-431.52132499999999
 21
-173.0
 31
0.0
  0
LINE
  5
91
  8
SIZE
  6
CONTINUOUS
 62
    30
 10
-411.52132499999999
 20
161.0
 30
0.0
 11
-411.52132499999999
 21
-161.0
 31
0.0
  0
CIRCLE
  5
92
  8
SIZE
  6
CONTINUOUS
 62
    30
 10
-411.52132499999999
 20
173.0
 30
0.0
 40
6.0
  0
LINE
  5
93
  8
SIZE
  6
CONTINUOUS
 62
    30
 10
-411.52132499999999
 20
173.0
 30
0.0
 11
-411.52132499999999
 21
161.0
 31
0.0
  0
CIRCLE
  5
94
  8
SIZE
  6
CONTINUOUS
 62
    30
 10
-411.52132499999999
 20
-173.0
 30
0.0
 40
6.0
  0
LINE
  5
95
  8
SIZE
  6
CONTINUOUS
 62
    30
 10
-411.52132499999999
 20
-173.0
 30
0.0
 11
-411.52132499999999
 21
-161.0
 31
0.0
  0
TEXT
  5
96
  8
SIZE
  6
CONTINUOUS
 62
    30
 10
-436.52132499999999
 20
-109.1657142857142
 30
0.0
 40
64.0
  1
□346
 50
90.0
 41
0.9
 72
     1
 11
-436.52132499999999
 21
0.0
 31
0.0
  0
POINT
  5
97
  8
DEFPOINTS
  6
CONTINUOUS
 62
    30
 10
-173.0
 20
173.0
 30
0.0
  0
POINT
  5
98
  8
DEFPOINTS
  6
CONTINUOUS
 62
    30
 10
-173.0
 20
-173.0
 30
0.0
  0
POINT
  5
99
  8
DEFPOINTS
  6
CONTINUOUS
 62
    30
 10
-411.52132499999999
 20
-173.0
 30
0.0
  0
LINE
  5
9A
  8
SIZE
  6
CONTINUOUS
 62
    30
 10
-165.0
 20
145.0
 30
0.0
 11
-309.57206000000002
 21
145.0
 31
0.0
  0
LINE
  5
9B
  8
SIZE
  6
CONTINUOUS
 62
    30
 10
-165.0
 20
-145.0
 30
0.0
 11
-309.57206000000002
 21
-145.0
 31
0.0
  0
LINE
  5
9C
  8
SIZE
  6
CONTINUOUS
 62
    30
 10
-289.57206000000002
 20
133.0
 30
0.0
 11
-289.57206000000002
 21
-133.0
 31
0.0
  0
CIRCLE
  5
9D
  8
SIZE
  6
CONTINUOUS
 62
    30
 10
-289.57206000000002
 20
145.0
 30
0.0
 40
6.0
  0
LINE
  5
9E
  8
SIZE
  6
CONTINUOUS
 62
    30
 10
-289.57206000000002
 20
145.0
 30
0.0
 11
-289.57206000000002
 21
133.0
 31
0.0
  0
CIRCLE
  5
9F
  8
SIZE
  6
CONTINUOUS
 62
    30
 10
-289.57206000000002
 20
-145.0
 30
0.0
 40
6.0
  0
LINE
  5
A0
  8
SIZE
  6
CONTINUOUS
 62
    30
 10
-289.57206000000002
 20
-145.0
 30
0.0
 11
-289.57206000000002
 21
-133.0
 31
0.0
  0
TEXT
  5
A1
  8
SIZE
  6
CONTINUOUS
 62
    30
 10
-314.57206000000002
 20
-110.5371428571428
 30
0.0
 40
64.0
  1
□290
 50
90.0
 41
0.9
 72
     1
 11
-314.57206000000002
 21
0.0
 31
0.0
  0
POINT
  5
A2
  8
DEFPOINTS
  6
CONTINUOUS
 62
    30
 10
-145.0
 20
145.0
 30
0.0
  0
POINT
  5
A3
  8
DEFPOINTS
  6
CONTINUOUS
 62
    30
 10
-145.0
 20
-145.0
 30
0.0
  0
POINT
  5
A4
  8
DEFPOINTS
  6
CONTINUOUS
 62
    30
 10
-289.57206000000002
 20
-145.0
 30
0.0
  0
LINE
  5
A5
  8
NOTE
  6
CONTINUOUS
 62
     4
 39
50.0
 10
-232.60374200000001
 20
273.863834
 30
0.0
 11
-527.05220199999985
 21
273.863834
 31
0.0
  0
LINE
  5
A6
  8
NOTE
  6
CONTINUOUS
 62
     4
 39
50.0
 10
-85.0
 20
157.5
 30
0.0
 11
-232.60374200000001
 21
273.863834
 31
0.0
  0
TEXT
  5
A7
  8
NOTE
  6
CONTINUOUS
 62
     4
 10
-497.58995299999998
 20
295.24202700000001
 30
0.0
 40
64.0
  1
4-φ5
 41
0.9
  0
LINE
  5
A8
  8
NOTE
  6
CONTINUOUS
 62
     4
 10
-107.884901
 20
190.306726
 30
0.0
 11
-85.0
 21
157.5
 31
0.0
  0
LINE
  5
A9
  8
NOTE
  6
CONTINUOUS
 62
     4
 10
-85.0
 20
157.5
 30
0.0
 11
-121.2222689999999
 21
174.469007
 31
0.0
  0
LINE
  5
AA
  8
DETAIL
  6
CONTINUOUS
 62
     5
 10
173.0
 20
173.0
 30
0.0
 11
-173.0
 21
173.0
 31
0.0
  0
LINE
  5
AB
  8
DETAIL
  6
CONTINUOUS
 62
     5
 10
173.0
 20
-173.0
 30
0.0
 11
-173.0
 21
-173.0
 31
0.0
  0
LINE
  5
AC
  8
DETAIL
  6
CONTINUOUS
 62
     5
 10
-173.0
 20
173.0
 30
0.0
 11
-173.0
 21
-173.0
 31
0.0
  0
LINE
  5
AD
  8
DETAIL
  6
CONTINUOUS
 62
     5
 10
173.0
 20
173.0
 30
0.0
 11
173.0
 21
-173.0
 31
0.0
  0
LINE
  5
AE
  8
DETAIL
  6
CONTINUOUS
 62
     5
 10
145.0
 20
145.0
 30
0.0
 11
-145.0
 21
145.0
 31
0.0
  0
LINE
  5
AF
  8
DETAIL
  6
CONTINUOUS
 62
     5
 10
145.0
 20
-145.0
 30
0.0
 11
-145.0
 21
-145.0
 31
0.0
  0
LINE
  5
B0
  8
DETAIL
  6
CONTINUOUS
 62
     5
 10
-145.0
 20
145.0
 30
0.0
 11
-145.0
 21
-145.0
 31
0.0
  0
LINE
  5
B1
  8
DETAIL
  6
CONTINUOUS
 62
     5
 10
145.0
 20
145.0
 30
0.0
 11
145.0
 21
-145.0
 31
0.0
  0
TEXT
  5
BC
  8
ETC
  6
CONTINUOUS
 62
    61
 10
521.64324621374544
 20
233.49067825114619
 30
0.0
 40
50.0
  1
EX-25FX5-C
 41
0.9
  0
TEXT
  5
BD
  8
ETC
  6
CONTINUOUS
 62
    61
 10
521.64324621374544
 20
316.2552717522704
 30
0.0
 40
50.0
  1
EX-25EX5-C
 41
0.9
  0
TEXT
  5
BE
  8
ETC
  6
CONTINUOUS
 62
    61
 10
387.59135098558909
 20
500.3730157640058
 30
0.0
 40
64.0
  1
EX-25EX5-C_3
 41
0.9
  0
TEXT
  5
BF
  8
ETC
  6
CONTINUOUS
 62
    61
 10
381.53483298558922
 20
402.35428976400578
 30
0.0
 40
64.0
  1
換気扇
 41
0.9
  0
ENDSEC
  0
EOF
