  0
SECTION
  2
HEADER
  9
$ACADVER
  1
AC1009
  9
$INSBASE
 10
0.0
 20
0.0
 30
0.0
  9
$EXTMIN
 10
-477.55883899999998
 20
-310.22733199999999
 30
0.0
  9
$EXTMAX
 10
1086.54220320017
 20
500.70869499999998
 30
50.0
  9
$LIMMIN
 10
-2970.0
 20
-2100.0
  9
$LIMMAX
 10
2970.0
 20
2100.0
  9
$ORTHOMODE
 70
     0
  9
$REGENMODE
 70
     0
  9
$FILLMODE
 70
     1
  9
$QTEXTMODE
 70
     0
  9
$MIRRTEXT
 70
     0
  9
$DRAGMODE
 70
     2
  9
$LTSCALE
 40
20.0
  9
$OSMODE
 70
   171
  9
$ATTMODE
 70
     1
  9
$TEXTSIZE
 40
64.0
  9
$TRACEWID
 40
0.05
  9
$TEXTSTYLE
  7
STANDARD
  9
$CLAYER
  8
SIZE
  9
$CELTYPE
  6
CONTINUOUS
  9
$CECOLOR
 62
     8
  9
$DIMSCALE
 40
1.0
  9
$DIMASZ
 40
12.0
  9
$DIMEXO
 40
20.0
  9
$DIMDLI
 40
200.0
  9
$DIMRND
 40
0.0
  9
$DIMDLE
 40
0.0
  9
$DIMEXE
 40
20.0
  9
$DIMTP
 40
0.0
  9
$DIMTM
 40
0.0
  9
$DIMTXT
 40
64.0
  9
$DIMCEN
 40
0.09
  9
$DIMTSZ
 40
0.0
  9
$DIMTOL
 70
     0
  9
$DIMLIM
 70
     0
  9
$DIMTIH
 70
     0
  9
$DIMTOH
 70
     0
  9
$DIMSE1
 70
     0
  9
$DIMSE2
 70
     0
  9
$DIMTAD
 70
     1
  9
$DIMZIN
 70
     8
  9
$DIMBLK
  1
DOT1
  9
$DIMASO
 70
     1
  9
$DIMSHO
 70
     0
  9
$DIMPOST
  1

  9
$DIMAPOST
  1

  9
$DIMALT
 70
     0
  9
$DIMALTD
 70
     2
  9
$DIMALTF
 40
25.399999999999999
  9
$DIMLFAC
 40
1.0
  9
$DIMTOFL
 70
     1
  9
$DIMTVP
 40
0.0
  9
$DIMTIX
 70
     1
  9
$DIMSOXD
 70
     0
  9
$DIMSAH
 70
     1
  9
$DIMBLK1
  1
ORIGIN
  9
$DIMBLK2
  1
ORIGIN
  9
$DIMSTYLE
  2
STANDARD
  9
$DIMCLRD
 70
     0
  9
$DIMCLRE
 70
     0
  9
$DIMCLRT
 70
     0
  9
$DIMTFAC
 40
1.0
  9
$DIMGAP
 40
0.09
  9
$LUNITS
 70
     2
  9
$LUPREC
 70
     4
  9
$SKETCHINC
 40
0.1
  9
$FILLETRAD
 40
15.0
  9
$AUNITS
 70
     1
  9
$AUPREC
 70
     3
  9
$MENU
  1
ACAD
  9
$ELEVATION
 40
0.0
  9
$PELEVATION
 40
0.0
  9
$THICKNESS
 40
50.0
  9
$LIMCHECK
 70
     0
  9
$BLIPMODE
 70
     0
  9
$CHAMFERA
 40
0.0
  9
$CHAMFERB
 40
0.0
  9
$SKPOLY
 70
     0
  9
$TDCREATE
 40
2451453.4938508091
  9
$TDUPDATE
 40
2453762.381298102
  9
$TDINDWG
 40
0.7813369792
  9
$TDUSRTIMER
 40
0.7813369792
  9
$USRTIMER
 70
     1
  9
$ANGBASE
 50
0.0
  9
$ANGDIR
 70
     0
  9
$PDMODE
 70
     3
  9
$PDSIZE
 40
-2.0
  9
$PLINEWID
 40
0.0
  9
$COORDS
 70
     2
  9
$SPLFRAME
 70
     0
  9
$SPLINETYPE
 70
     6
  9
$SPLINESEGS
 70
     8
  9
$ATTDIA
 70
     0
  9
$ATTREQ
 70
     1
  9
$HANDLING
 70
 22529
  9
$HANDSEED
  5
14F
  9
$SURFTAB1
 70
     6
  9
$SURFTAB2
 70
     6
  9
$SURFTYPE
 70
     6
  9
$SURFU
 70
     6
  9
$SURFV
 70
     6
  9
$UCSNAME
  2

  9
$UCSORG
 10
0.0
 20
0.0
 30
0.0
  9
$UCSXDIR
 10
1.0
 20
0.0
 30
0.0
  9
$UCSYDIR
 10
0.0
 20
1.0
 30
0.0
  9
$PUCSNAME
  2

  9
$PUCSORG
 10
0.0
 20
0.0
 30
0.0
  9
$PUCSXDIR
 10
1.0
 20
0.0
 30
0.0
  9
$PUCSYDIR
 10
0.0
 20
1.0
 30
0.0
  9
$USERI1
 70
     0
  9
$USERI2
 70
     0
  9
$USERI3
 70
     0
  9
$USERI4
 70
     0
  9
$USERI5
 70
     0
  9
$USERR1
 40
20.0
  9
$USERR2
 40
0.0
  9
$USERR3
 40
0.0
  9
$USERR4
 40
0.0
  9
$USERR5
 40
0.0
  9
$WORLDVIEW
 70
     1
  9
$SHADEDGE
 70
     3
  9
$SHADEDIF
 70
    70
  9
$TILEMODE
 70
     1
  9
$MAXACTVP
 70
    64
  9
$PLIMCHECK
 70
     0
  9
$PEXTMIN
 10
1.0000000000000000E+020
 20
1.0000000000000000E+020
 30
1.0000000000000000E+020
  9
$PEXTMAX
 10
-1.0000000000000000E+020
 20
-1.0000000000000000E+020
 30
-1.0000000000000000E+020
  9
$PLIMMIN
 10
0.0
 20
0.0
  9
$PLIMMAX
 10
12.0
 20
9.0
  9
$UNITMODE
 70
     0
  9
$VISRETAIN
 70
     1
  9
$PLINEGEN
 70
     0
  9
$PSLTSCALE
 70
     1
  0
ENDSEC
  0
SECTION
  2
TABLES
  0
TABLE
  2
VPORT
 70
     7
  0
VPORT
  2
*ACTIVE
 70
     0
 10
0.0
 20
0.0
 11
1.0
 21
1.0
 12
-19.09897806176081
 22
167.79980356681739
 13
0.0
 23
0.0
 14
1.0
 24
1.0
 15
0.0
 25
0.0
 16
0.0
 26
0.0
 36
1.0
 17
0.0
 27
0.0
 37
0.0
 40
1931.5735336164651
 41
1.445431472081218
 42
50.0
 43
0.0
 44
0.0
 50
0.0
 51
0.0
 71
     0
 72
   100
 73
     1
 74
     0
 75
     0
 76
     0
 77
     0
 78
     0
  0
ENDTAB
  0
TABLE
  2
LTYPE
 70
     2
  0
LTYPE
  2
CONTINUOUS
 70
     0
  3
実線
 72
    65
 73
     0
 40
0.0
  0
LTYPE
  2
DASHDOT
 70
     0
  3
____ _ ____ _ ____ _ ____ _ ____ _ ____ _ ____
 72
    65
 73
     4
 40
5.5
 49
4.0
 49
-0.6
 49
0.3
 49
-0.6
  0
ENDTAB
  0
TABLE
  2
LAYER
 70
    12
  0
LAYER
  2
0
 70
     0
 62
     7
  6
CONTINUOUS
  0
LAYER
  2
SIZE
 70
     0
 62
    30
  6
CONTINUOUS
  0
LAYER
  2
BASIS
 70
     0
 62
     6
  6
DASHDOT
  0
LAYER
  2
OUTLINE
 70
     0
 62
     3
  6
CONTINUOUS
  0
LAYER
  2
DETAIL
 70
     0
 62
     5
  6
CONTINUOUS
  0
LAYER
  2
ARRANGE
 70
     0
 62
     1
  6
CONTINUOUS
  0
LAYER
  2
DEFPOINTS
 70
     0
 62
     7
  6
CONTINUOUS
  0
LAYER
  2
ETC
 70
     0
 62
    61
  6
CONTINUOUS
  0
LAYER
  2
FIX
 70
     0
 62
    11
  6
CONTINUOUS
  0
LAYER
  2
NOTE
 70
     0
 62
     4
  6
CONTINUOUS
  0
LAYER
  2
SERVICESPACE
 70
     0
 62
     2
  6
DASHDOT
  0
LAYER
  2
SYMBOLLINE
 70
     0
 62
    15
  6
CONTINUOUS
  0
ENDTAB
  0
TABLE
  2
STYLE
 70
     1
  0
STYLE
  2
STANDARD
 70
     0
 40
64.0
 41
0.9
 50
0.0
 71
     0
 42
64.0
  3
SIMPLEX.shx
  4
BIGFONT.shx
  0
ENDTAB
  0
TABLE
  2
VIEW
 70
     1
  0
VIEW
  2
ALL
 70
     0
 40
4282.6198079999986
 10
0.0
 20
41.309903999999989
 41
5940.0
 11
0.0
 21
0.0
 31
1.0
 12
0.0
 22
0.0
 32
0.0
 42
50.0
 43
0.0
 44
0.0
 50
0.0
 71
     0
  0
ENDTAB
  0
TABLE
  2
UCS
 70
     0
  0
ENDTAB
  0
TABLE
  2
APPID
 70
     1
  0
APPID
  2
ACAD
 70
     0
  0
ENDTAB
  0
TABLE
  2
DIMSTYLE
 70
     1
  0
DIMSTYLE
  2
STANDARD
 70
     0
  3

  4

  5

  6

  7

 40
1.0
 41
0.18
 42
0.0625
 43
0.38
 44
0.18
 45
0.0
 46
0.0
 47
0.0
 48
0.0
140
0.18
141
0.09
142
0.0
143
25.399999999999999
144
1.0
145
0.0
146
1.0
147
0.09
 71
     0
 72
     0
 73
     1
 74
     1
 75
     0
 76
     0
 77
     0
 78
     0
170
     0
171
     2
172
     0
173
     0
174
     0
175
     0
176
     0
177
     0
178
     0
  0
ENDTAB
  0
ENDSEC
  0
SECTION
  2
BLOCKS
  0
BLOCK
  8
0
  2
$MODEL_SPACE
 70
     0
 10
0.0
 20
0.0
 30
0.0
  3
$MODEL_SPACE
  1

  0
ENDBLK
  5
20
  8
0
  0
BLOCK
 67
     1
  8
0
  2
$PAPER_SPACE
 70
     0
 10
0.0
 20
0.0
 30
0.0
  3
$PAPER_SPACE
  1

  0
ENDBLK
  5
1C
 67
     1
  8
0
  0
BLOCK
  8
0
  2
DOT1
 70
     0
 10
0.0
 20
0.0
 30
0.0
  3
DOT1
  1

  0
CIRCLE
  5
34
  8
SIZE
  6
CONTINUOUS
 62
     7
 10
0.0
 20
0.0
 30
0.0
 40
3.0
  0
ENDBLK
  5
35
  8
0
  0
BLOCK
  8
0
  2
_ORIGIN
 70
     0
 10
0.0
 20
0.0
 30
0.0
  3
_ORIGIN
  1

  0
CIRCLE
  5
38
  8
0
  6
CONTINUOUS
 62
     7
 10
0.0
 20
0.0
 30
0.0
 40
0.5
  0
LINE
  5
39
  8
0
  6
CONTINUOUS
 62
     7
 10
0.0
 20
0.0
 30
0.0
 11
-1.0
 21
0.0
 31
0.0
  0
ENDBLK
  5
3A
  8
0
  0
ENDSEC
  0
SECTION
  2
ENTITIES
  0
TEXT
  5
3B
  8
ETC
  6
CONTINUOUS
 62
    61
 10
428.50061199999999
 20
436.70869499999998
 30
0.0
 40
64.0
  1
EX-25EX5_1
 41
0.9
  0
TEXT
  5
3C
  8
ETC
  6
CONTINUOUS
 62
    61
 10
420.42713400000002
 20
338.68997000000002
 30
0.0
 40
64.0
  1
換気扇
 41
0.9
  0
LINE
  5
3D
  8
BASIS
  6
DASHDOT
 62
     6
 10
0.0
 20
-134.42241000000001
 30
0.0
 11
0.0
 21
178.75115099999991
 31
0.0
  0
POINT
  5
3E
  8
ARRANGE
  6
CONTINUOUS
 62
     1
 10
0.0
 20
0.0
 30
0.0
 39
50.0
  0
CIRCLE
  5
3F
  8
ARRANGE
  6
CONTINUOUS
 62
     1
 39
50.0
 10
0.0
 20
0.0
 30
0.0
 40
40.0
  0
LINE
  5
40
  8
DETAIL
  6
CONTINUOUS
 62
     5
 10
-145.0
 20
120.0
 30
0.0
 11
-145.0
 21
0.0
 31
0.0
  0
LINE
  5
41
  8
DETAIL
  6
CONTINUOUS
 62
     5
 10
-145.0
 20
120.0
 30
0.0
 11
145.0
 21
120.0
 31
0.0
  0
LINE
  5
42
  8
DETAIL
  6
CONTINUOUS
 62
     5
 10
145.0
 20
120.0
 30
0.0
 11
145.0
 21
0.0
 31
0.0
  0
CIRCLE
  5
43
  8
FIX
  6
CONTINUOUS
 62
    11
 39
50.0
 10
-85.0
 20
0.0
 30
0.0
 40
2.5
  0
LINE
  5
44
  8
NOTE
  6
CONTINUOUS
 62
     4
 10
-105.0
 20
0.0
 30
0.0
 11
-65.0
 21
0.0
 31
0.0
  0
LINE
  5
45
  8
NOTE
  6
CONTINUOUS
 62
     4
 10
-85.0
 20
-20.0
 30
0.0
 11
-85.0
 21
20.0
 31
0.0
  0
CIRCLE
  5
46
  8
FIX
  6
CONTINUOUS
 62
    11
 39
50.0
 10
85.0
 20
0.0
 30
0.0
 40
2.5
  0
LINE
  5
47
  8
NOTE
  6
CONTINUOUS
 62
     4
 10
65.0
 20
0.0
 30
0.0
 11
105.0
 21
0.0
 31
0.0
  0
LINE
  5
48
  8
NOTE
  6
CONTINUOUS
 62
     4
 10
85.0
 20
-20.0
 30
0.0
 11
85.0
 21
20.0
 31
0.0
  0
LINE
  5
49
  8
SIZE
  6
CONTINUOUS
 62
    30
 10
-145.0
 20
140.0
 30
0.0
 11
-145.0
 21
351.87814600000002
 31
0.0
  0
LINE
  5
4A
  8
SIZE
  6
CONTINUOUS
 62
    30
 10
145.0
 20
140.0
 30
0.0
 11
145.0
 21
351.87814600000002
 31
0.0
  0
LINE
  5
4B
  8
SIZE
  6
CONTINUOUS
 62
    30
 10
-133.0
 20
331.87814600000002
 30
0.0
 11
133.0
 21
331.87814600000002
 31
0.0
  0
CIRCLE
  5
4C
  8
SIZE
  6
CONTINUOUS
 62
    30
 10
-145.0
 20
331.87814600000002
 30
0.0
 40
6.0
  0
LINE
  5
4D
  8
SIZE
  6
CONTINUOUS
 62
    30
 10
-145.0
 20
331.87814600000002
 30
0.0
 11
-133.0
 21
331.87814600000002
 31
0.0
  0
CIRCLE
  5
4E
  8
SIZE
  6
CONTINUOUS
 62
    30
 10
145.0
 20
331.87814600000002
 30
0.0
 40
6.0
  0
LINE
  5
4F
  8
SIZE
  6
CONTINUOUS
 62
    30
 10
145.0
 20
331.87814600000002
 30
0.0
 11
133.0
 21
331.87814600000002
 31
0.0
  0
TEXT
  5
50
  8
SIZE
  6
CONTINUOUS
 62
    30
 10
-110.5371428571428
 20
356.87814600000002
 30
0.0
 40
64.0
  1
□290
 41
0.9
 72
     1
 11
0.0
 21
356.87814600000002
 31
0.0
  0
POINT
  5
51
  8
DEFPOINTS
  6
CONTINUOUS
 62
    30
 10
-145.0
 20
120.0
 30
0.0
  0
POINT
  5
52
  8
DEFPOINTS
  6
CONTINUOUS
 62
    30
 10
145.0
 20
120.0
 30
0.0
  0
POINT
  5
53
  8
DEFPOINTS
  6
CONTINUOUS
 62
    30
 10
145.0
 20
331.87814600000002
 30
0.0
  0
LINE
  5
54
  8
SIZE
  6
CONTINUOUS
 62
    30
 10
-85.0
 20
40.0
 30
0.0
 11
-85.0
 21
232.1602529999999
 31
0.0
  0
LINE
  5
55
  8
SIZE
  6
CONTINUOUS
 62
    30
 10
85.0
 20
40.0
 30
0.0
 11
85.0
 21
232.1602529999999
 31
0.0
  0
LINE
  5
56
  8
SIZE
  6
CONTINUOUS
 62
    30
 10
-97.0
 20
212.1602529999999
 30
0.0
 11
-109.0
 21
212.1602529999999
 31
0.0
  0
LINE
  5
57
  8
SIZE
  6
CONTINUOUS
 62
    30
 10
97.0
 20
212.1602529999999
 30
0.0
 11
109.0
 21
212.1602529999999
 31
0.0
  0
LINE
  5
58
  8
SIZE
  6
CONTINUOUS
 62
    30
 10
-85.0
 20
212.1602529999999
 30
0.0
 11
85.0
 21
212.1602529999999
 31
0.0
  0
CIRCLE
  5
59
  8
SIZE
  6
CONTINUOUS
 62
    30
 10
-85.0
 20
212.1602529999999
 30
0.0
 40
6.0
  0
LINE
  5
5A
  8
SIZE
  6
CONTINUOUS
 62
    30
 10
-85.0
 20
212.1602529999999
 30
0.0
 11
-97.0
 21
212.1602529999999
 31
0.0
  0
CIRCLE
  5
5B
  8
SIZE
  6
CONTINUOUS
 62
    30
 10
85.0
 20
212.1602529999999
 30
0.0
 40
6.0
  0
LINE
  5
5C
  8
SIZE
  6
CONTINUOUS
 62
    30
 10
85.0
 20
212.1602529999999
 30
0.0
 11
97.0
 21
212.1602529999999
 31
0.0
  0
TEXT
  5
5D
  8
SIZE
  6
CONTINUOUS
 62
    30
 10
-68.571428571428569
 20
237.16025300000001
 30
0.0
 40
64.0
  1
170
 41
0.9
 72
     1
 11
0.0
 21
237.16025300000001
 31
0.0
  0
POINT
  5
5E
  8
DEFPOINTS
  6
CONTINUOUS
 62
    30
 10
-85.0
 20
20.0
 30
0.0
  0
POINT
  5
5F
  8
DEFPOINTS
  6
CONTINUOUS
 62
    30
 10
85.0
 20
20.0
 30
0.0
  0
POINT
  5
60
  8
DEFPOINTS
  6
CONTINUOUS
 62
    30
 10
85.0
 20
212.1602529999999
 30
0.0
  0
LINE
  5
61
  8
SIZE
  6
CONTINUOUS
 62
    30
 10
-193.0
 20
0.0
 30
0.0
 11
-408.55883899999998
 21
0.0
 31
0.0
  0
LINE
  5
62
  8
SIZE
  6
CONTINUOUS
 62
    30
 10
-165.0
 20
120.0
 30
0.0
 11
-408.55883899999998
 21
120.0
 31
0.0
  0
LINE
  5
63
  8
SIZE
  6
CONTINUOUS
 62
    30
 10
-388.55883899999998
 20
-12.0
 30
0.0
 11
-388.55883899999998
 21
-24.0
 31
0.0
  0
LINE
  5
64
  8
SIZE
  6
CONTINUOUS
 62
    30
 10
-388.55883899999998
 20
132.0
 30
0.0
 11
-388.55883899999998
 21
144.0
 31
0.0
  0
LINE
  5
65
  8
SIZE
  6
CONTINUOUS
 62
    30
 10
-388.55883899999998
 20
0.0
 30
0.0
 11
-388.55883899999998
 21
120.0
 31
0.0
  0
CIRCLE
  5
66
  8
SIZE
  6
CONTINUOUS
 62
    30
 10
-388.55883899999998
 20
0.0
 30
0.0
 40
6.0
  0
LINE
  5
67
  8
SIZE
  6
CONTINUOUS
 62
    30
 10
-388.55883899999998
 20
0.0
 30
0.0
 11
-388.55883899999998
 21
-12.0
 31
0.0
  0
CIRCLE
  5
68
  8
SIZE
  6
CONTINUOUS
 62
    30
 10
-388.55883899999998
 20
120.0
 30
0.0
 40
6.0
  0
LINE
  5
69
  8
SIZE
  6
CONTINUOUS
 62
    30
 10
-388.55883899999998
 20
120.0
 30
0.0
 11
-388.55883899999998
 21
132.0
 31
0.0
  0
TEXT
  5
6A
  8
SIZE
  6
CONTINUOUS
 62
    30
 10
-413.55883899999998
 20
-8.5714285714285694
 30
0.0
 40
64.0
  1
120
 50
90.0
 41
0.9
 72
     1
 11
-413.55883899999998
 21
60.0
 31
0.0
  0
POINT
  5
6B
  8
DEFPOINTS
  6
CONTINUOUS
 62
    30
 10
-173.0
 20
0.0
 30
0.0
  0
POINT
  5
6C
  8
DEFPOINTS
  6
CONTINUOUS
 62
    30
 10
-145.0
 20
120.0
 30
0.0
  0
POINT
  5
6D
  8
DEFPOINTS
  6
CONTINUOUS
 62
    30
 10
-388.55883899999998
 20
120.0
 30
0.0
  0
LINE
  5
6E
  8
NOTE
  6
CONTINUOUS
 62
     4
 39
50.0
 10
85.0
 20
0.0
 30
0.0
 11
223.9411979999999
 21
121.945857
 31
0.0
  0
LINE
  5
6F
  8
NOTE
  6
CONTINUOUS
 62
     4
 39
50.0
 10
223.9411979999999
 20
121.945857
 30
0.0
 11
486.59163000000001
 21
121.945857
 31
0.0
  0
TEXT
  5
70
  8
NOTE
  6
CONTINUOUS
 62
     4
 10
242.08263500000001
 20
140.4351979999999
 30
0.0
 40
64.0
  1
4-φ5
 41
0.9
  0
LINE
  5
71
  8
NOTE
  6
CONTINUOUS
 62
     4
 10
106.9925689999999
 20
33.411478000000002
 30
0.0
 11
85.0
 21
0.0
 31
0.0
  0
LINE
  5
72
  8
NOTE
  6
CONTINUOUS
 62
     4
 10
85.0
 20
0.0
 30
0.0
 11
120.7518629999999
 21
17.938904000000001
 31
0.0
  0
LINE
  5
73
  8
SIZE
  6
CONTINUOUS
 62
    30
 10
-193.0
 20
0.0
 30
0.0
 11
-408.55883899999998
 21
0.0
 31
0.0
  0
LINE
  5
74
  8
SIZE
  6
CONTINUOUS
 62
    30
 10
-174.0
 20
-73.0
 30
0.0
 11
-408.55883899999998
 21
-73.0
 31
0.0
  0
LINE
  5
75
  8
SIZE
  6
CONTINUOUS
 62
    30
 10
-388.55883899999998
 20
12.0
 30
0.0
 11
-388.55883899999998
 21
24.0
 31
0.0
  0
LINE
  5
76
  8
SIZE
  6
CONTINUOUS
 62
    30
 10
-388.55883899999998
 20
-85.0
 30
0.0
 11
-388.55883899999998
 21
-97.0
 31
0.0
  0
LINE
  5
77
  8
SIZE
  6
CONTINUOUS
 62
    30
 10
-388.55883899999998
 20
-261.47665499999999
 30
0.0
 11
-388.55883899999998
 21
-73.0
 31
0.0
  0
TEXT
  5
78
  8
SIZE
  6
CONTINUOUS
 62
    30
 10
-413.55883899999998
 20
-236.47665542857141
 30
0.0
 40
64.0
  1
73
 50
90.0
 41
0.9
 72
     1
 11
-413.55883899999998
 21
-189.84808399999989
 31
0.0
  0
LINE
  5
79
  8
SIZE
  6
CONTINUOUS
 62
    30
 10
-388.55883899999998
 20
0.0
 30
0.0
 11
-388.55883899999998
 21
-73.0
 31
0.0
  0
LINE
  5
7A
  8
SIZE
  6
CONTINUOUS
 62
    30
 10
-388.55883899999998
 20
0.0
 30
0.0
 11
-388.55883899999998
 21
-73.0
 31
0.0
  0
CIRCLE
  5
7B
  8
SIZE
  6
CONTINUOUS
 62
    30
 10
-388.55883899999998
 20
0.0
 30
0.0
 40
6.0
  0
LINE
  5
7C
  8
SIZE
  6
CONTINUOUS
 62
    30
 10
-388.55883899999998
 20
0.0
 30
0.0
 11
-388.55883899999998
 21
12.0
 31
0.0
  0
CIRCLE
  5
7D
  8
SIZE
  6
CONTINUOUS
 62
    30
 10
-388.55883899999998
 20
-73.0
 30
0.0
 40
6.0
  0
LINE
  5
7E
  8
SIZE
  6
CONTINUOUS
 62
    30
 10
-388.55883899999998
 20
-73.0
 30
0.0
 11
-388.55883899999998
 21
-85.0
 31
0.0
  0
POINT
  5
7F
  8
DEFPOINTS
  6
CONTINUOUS
 62
    30
 10
-173.0
 20
0.0
 30
0.0
  0
POINT
  5
80
  8
DEFPOINTS
  6
CONTINUOUS
 62
    30
 10
-154.0
 20
-73.0
 30
0.0
  0
POINT
  5
81
  8
DEFPOINTS
  6
CONTINUOUS
 62
    30
 10
-388.55883899999998
 20
-73.0
 30
0.0
  0
LINE
  5
82
  8
OUTLINE
  6
CONTINUOUS
 62
     3
 10
145.0
 20
120.0
 30
0.0
 11
145.0
 21
0.0
 31
0.0
  0
LINE
  5
83
  8
OUTLINE
  6
CONTINUOUS
 62
     3
 10
-145.0
 20
120.0
 30
0.0
 11
-145.0
 21
0.0
 31
0.0
  0
LINE
  5
84
  8
OUTLINE
  6
CONTINUOUS
 62
     3
 10
-145.0
 20
120.0
 30
0.0
 11
145.0
 21
120.0
 31
0.0
  0
LINE
  5
85
  8
DETAIL
  6
CONTINUOUS
 62
     5
 10
-154.0
 20
-73.0
 30
0.0
 11
154.0
 21
-73.0
 31
0.0
  0
LINE
  5
86
  8
DETAIL
  6
CONTINUOUS
 62
     5
 10
145.0
 20
0.0
 30
0.0
 11
0.0
 21
0.0
 31
0.0
  0
LINE
  5
87
  8
DETAIL
  6
CONTINUOUS
 62
     5
 10
127.992948
 20
0.0
 30
0.0
 11
-173.0
 21
0.0
 31
0.0
  0
LINE
  5
88
  8
DETAIL
  6
CONTINUOUS
 62
     5
 10
-170.8024739999999
 20
-30.0
 30
0.0
 11
170.8024739999999
 21
-30.0
 31
0.0
  0
LINE
  5
89
  8
DETAIL
  6
CONTINUOUS
 62
     5
 10
173.0
 20
-50.0
 30
0.0
 11
-173.0
 21
-50.0
 31
0.0
  0
LINE
  5
8A
  8
DETAIL
  6
CONTINUOUS
 62
     5
 10
173.0
 20
-70.0
 30
0.0
 11
-173.0
 21
-70.0
 31
0.0
  0
LINE
  5
8B
  8
DETAIL
  6
CONTINUOUS
 62
     5
 10
173.0
 20
0.0
 30
0.0
 11
172.51867999999999
 21
-28.317775000000001
 31
0.0
  0
ARC
  5
8C
  8
DETAIL
  6
CONTINUOUS
 62
     5
 10
170.8024739999999
 20
-28.283450999999989
 30
0.0
 40
1.7165490000000001
 50
270.0
 51
358.85423700000001
  0
ARC
  5
8D
  8
DETAIL
  6
CONTINUOUS
 62
     5
 10
157.872983
 20
-74.0
 30
0.0
 40
4.0
 50
90.0
 51
165.5224879999999
  0
LINE
  5
8E
  8
DETAIL
  6
CONTINUOUS
 62
     5
 10
173.0
 20
-70.0
 30
0.0
 11
173.0
 21
-50.0
 31
0.0
  0
LINE
  5
8F
  8
DETAIL
  6
CONTINUOUS
 62
     5
 10
124.0
 20
-50.0
 30
0.0
 11
124.0
 21
-30.0
 31
0.0
  0
LINE
  5
90
  8
DETAIL
  6
CONTINUOUS
 62
     5
 10
106.0
 20
-50.0
 30
0.0
 11
106.0
 21
-30.0
 31
0.0
  0
LINE
  5
91
  8
DETAIL
  6
CONTINUOUS
 62
     5
 10
173.0
 20
0.0
 30
0.0
 11
136.575661
 21
0.0
 31
0.0
  0
ARC
  5
92
  8
DETAIL
  6
CONTINUOUS
 62
     5
 10
-157.872983
 20
-74.0
 30
0.0
 40
4.0
 50
14.47751199999999
 51
90.0
  0
LINE
  5
93
  8
DETAIL
  6
CONTINUOUS
 62
     5
 10
-106.0
 20
-50.0
 30
0.0
 11
-106.0
 21
-30.0
 31
0.0
  0
LINE
  5
94
  8
DETAIL
  6
CONTINUOUS
 62
     5
 10
-124.0
 20
-50.0
 30
0.0
 11
-124.0
 21
-30.0
 31
0.0
  0
LINE
  5
95
  8
DETAIL
  6
CONTINUOUS
 62
     5
 10
0.0
 20
0.0
 30
0.0
 11
-145.0
 21
0.0
 31
0.0
  0
LINE
  5
96
  8
DETAIL
  6
CONTINUOUS
 62
     5
 10
-173.0
 20
0.0
 30
0.0
 11
-172.51867999999999
 21
-28.317775000000001
 31
0.0
  0
ARC
  5
97
  8
DETAIL
  6
CONTINUOUS
 62
     5
 10
-170.8024739999999
 20
-28.283450999999989
 30
0.0
 40
1.7165490000000001
 50
181.14576299999999
 51
270.0
  0
LINE
  5
98
  8
DETAIL
  6
CONTINUOUS
 62
     5
 10
-173.0
 20
-70.0
 30
0.0
 11
-173.0
 21
-50.0
 31
0.0
  0
LINE
  5
99
  8
OUTLINE
  6
CONTINUOUS
 62
     3
 10
0.0
 20
0.0
 30
0.0
 11
-145.0
 21
0.0
 31
0.0
  0
LINE
  5
9A
  8
OUTLINE
  6
CONTINUOUS
 62
     3
 10
173.0
 20
-70.0
 30
0.0
 11
-173.0
 21
-70.0
 31
0.0
  0
LINE
  5
9B
  8
OUTLINE
  6
CONTINUOUS
 62
     3
 10
173.0
 20
-50.0
 30
0.0
 11
-173.0
 21
-50.0
 31
0.0
  0
LINE
  5
9C
  8
OUTLINE
  6
CONTINUOUS
 62
     3
 10
-170.8024739999999
 20
-30.0
 30
0.0
 11
170.8024739999999
 21
-30.0
 31
0.0
  0
LINE
  5
9D
  8
OUTLINE
  6
CONTINUOUS
 62
     3
 10
127.992948
 20
0.0
 30
0.0
 11
-173.0
 21
0.0
 31
0.0
  0
LINE
  5
9E
  8
OUTLINE
  6
CONTINUOUS
 62
     3
 10
-154.0
 20
-73.0
 30
0.0
 11
154.0
 21
-73.0
 31
0.0
  0
LINE
  5
9F
  8
OUTLINE
  6
CONTINUOUS
 62
     3
 10
145.0
 20
0.0
 30
0.0
 11
0.0
 21
0.0
 31
0.0
  0
LINE
  5
A0
  8
OUTLINE
  6
CONTINUOUS
 62
     3
 10
173.0
 20
-70.0
 30
0.0
 11
173.0
 21
-50.0
 31
0.0
  0
ARC
  5
A1
  8
OUTLINE
  6
CONTINUOUS
 62
     3
 10
157.872983
 20
-74.0
 30
0.0
 40
4.0
 50
90.0
 51
165.5224879999999
  0
LINE
  5
A2
  8
OUTLINE
  6
CONTINUOUS
 62
     3
 10
173.0
 20
0.0
 30
0.0
 11
136.575661
 21
0.0
 31
0.0
  0
LINE
  5
A3
  8
OUTLINE
  6
CONTINUOUS
 62
     3
 10
124.0
 20
-50.0
 30
0.0
 11
124.0
 21
-30.0
 31
0.0
  0
ARC
  5
A4
  8
OUTLINE
  6
CONTINUOUS
 62
     3
 10
170.8024739999999
 20
-28.283450999999989
 30
0.0
 40
1.7165490000000001
 50
270.0
 51
358.85423700000001
  0
LINE
  5
A5
  8
OUTLINE
  6
CONTINUOUS
 62
     3
 10
173.0
 20
0.0
 30
0.0
 11
172.51867999999999
 21
-28.317775000000001
 31
0.0
  0
LINE
  5
A6
  8
OUTLINE
  6
CONTINUOUS
 62
     3
 10
106.0
 20
-50.0
 30
0.0
 11
106.0
 21
-30.0
 31
0.0
  0
LINE
  5
A7
  8
OUTLINE
  6
CONTINUOUS
 62
     3
 10
-106.0
 20
-50.0
 30
0.0
 11
-106.0
 21
-30.0
 31
0.0
  0
LINE
  5
A8
  8
OUTLINE
  6
CONTINUOUS
 62
     3
 10
-173.0
 20
-70.0
 30
0.0
 11
-173.0
 21
-50.0
 31
0.0
  0
ARC
  5
A9
  8
OUTLINE
  6
CONTINUOUS
 62
     3
 10
-157.872983
 20
-74.0
 30
0.0
 40
4.0
 50
14.47751199999999
 51
90.0
  0
ARC
  5
AA
  8
OUTLINE
  6
CONTINUOUS
 62
     3
 10
-170.8024739999999
 20
-28.283450999999989
 30
0.0
 40
1.7165490000000001
 50
181.14576299999999
 51
270.0
  0
LINE
  5
AB
  8
OUTLINE
  6
CONTINUOUS
 62
     3
 10
-173.0
 20
0.0
 30
0.0
 11
-172.51867999999999
 21
-28.317775000000001
 31
0.0
  0
LINE
  5
AC
  8
OUTLINE
  6
CONTINUOUS
 62
     3
 10
-124.0
 20
-50.0
 30
0.0
 11
-124.0
 21
-30.0
 31
0.0
  0
LINE
  5
AD
  8
SIZE
  6
CONTINUOUS
 62
    30
 10
-173.0
 20
-90.0
 30
0.0
 11
-173.0
 21
-310.22733199999999
 31
0.0
  0
LINE
  5
AE
  8
SIZE
  6
CONTINUOUS
 62
    30
 10
173.0
 20
-90.0
 30
0.0
 11
173.0
 21
-310.22733199999999
 31
0.0
  0
LINE
  5
AF
  8
SIZE
  6
CONTINUOUS
 62
    30
 10
-161.0
 20
-290.22733199999988
 30
0.0
 11
161.0
 21
-290.22733199999988
 31
0.0
  0
CIRCLE
  5
B0
  8
SIZE
  6
CONTINUOUS
 62
    30
 10
-173.0
 20
-290.22733199999988
 30
0.0
 40
6.0
  0
LINE
  5
B1
  8
SIZE
  6
CONTINUOUS
 62
    30
 10
-173.0
 20
-290.22733199999988
 30
0.0
 11
-161.0
 21
-290.22733199999988
 31
0.0
  0
CIRCLE
  5
B2
  8
SIZE
  6
CONTINUOUS
 62
    30
 10
173.0
 20
-290.22733199999988
 30
0.0
 40
6.0
  0
LINE
  5
B3
  8
SIZE
  6
CONTINUOUS
 62
    30
 10
173.0
 20
-290.22733199999988
 30
0.0
 11
161.0
 21
-290.22733199999988
 31
0.0
  0
TEXT
  5
B4
  8
SIZE
  6
CONTINUOUS
 62
    30
 10
-109.1657142857142
 20
-265.22733199999988
 30
0.0
 40
64.0
  1
□346
 41
0.9
 72
     1
 11
0.0
 21
-265.22733199999988
 31
0.0
  0
POINT
  5
B5
  8
DEFPOINTS
  6
CONTINUOUS
 62
    30
 10
-173.0
 20
-70.0
 30
0.0
  0
POINT
  5
B6
  8
DEFPOINTS
  6
CONTINUOUS
 62
    30
 10
173.0
 20
-70.0
 30
0.0
  0
POINT
  5
B7
  8
DEFPOINTS
  6
CONTINUOUS
 62
    30
 10
173.0
 20
-290.22733199999988
 30
0.0
  0
LINE
  5
B8
  8
NOTE
  6
CONTINUOUS
 62
     4
 10
-193.0
 20
0.0
 30
0.0
 11
-153.0
 21
0.0
 31
0.0
  0
LINE
  5
B9
  8
NOTE
  6
CONTINUOUS
 62
     4
 10
-173.0
 20
-20.0
 30
0.0
 11
-173.0
 21
20.0
 31
0.0
  0
LINE
  5
BA
  8
NOTE
  6
CONTINUOUS
 62
     4
 39
50.0
 10
-351.33291700000001
 20
155.24851200000001
 30
0.0
 11
-237.40793599999989
 21
155.24851200000001
 31
0.0
  0
TEXT
  5
BB
  8
NOTE
  6
CONTINUOUS
 62
     4
 10
-333.1914799999999
 20
173.73785299999989
 30
0.0
 40
64.0
  1
EL
 41
0.9
  0
LINE
  5
BC
  8
NOTE
  6
CONTINUOUS
 62
     4
 39
50.0
 10
-173.0
 20
0.0
 30
0.0
 11
-237.40793599999989
 21
155.24851200000001
 31
0.0
  0
LINE
  5
BD
  8
NOTE
  6
CONTINUOUS
 62
     4
 10
-197.85198600000001
 20
31.342922999999999
 30
0.0
 11
-173.0
 21
0.0
 31
0.0
  0
LINE
  5
BE
  8
NOTE
  6
CONTINUOUS
 62
     4
 10
-173.0
 20
0.0
 30
0.0
 11
-178.850989
 21
39.569759999999988
 31
0.0
  0
TEXT
  5
C7
  8
ETC
  6
CONTINUOUS
 62
    61
 10
557.17077462874215
 20
257.13141639763779
 30
0.0
 40
50.0
  1
EX-25EX5
 41
0.9
  0
TEXT
  5
CE
  8
ETC
  6
CONTINUOUS
 62
    61
 10
557.17077462874215
 20
180.04044792951589
 30
0.0
 40
50.0
  1
EX-25LX5
 41
0.9
  0
ENDSEC
  0
EOF
